  0
SECTION
  2
HEADER
  9
$ACADVER
  1
AC1009
  9
$LIMMIN
 10
0.000000
 20
0.000000
  9
$LIMMAX
 10
234.674914
 20
127.138697
  0
ENDSEC
  0
SECTION
  2
TABLES
  0
TABLE
  2
LTYPE
 70
     4
  0
LTYPE
  2
CONTINUOUS
 70
     0
  3
Solid line
 72
     65
 73
     0
 40
0.000000
  0
LTYPE
  2
HIDDEN
 70
     0
  3
 _ _ _ _ _ _ _ _ _ _ _
 72
     65
 73
     2
 40
0.375000
 49
0.250000
 49
-0.125000
  0
LTYPE
  2
DASHED
 70
     0
  3
 ___ ___ ___ ___ ___ ___ ___ 
 72
     65
 73
     2
 40
0.750000
 49
0.500000
 49
-0.250000
  0
LTYPE
  2
CENTER
 70
     0
  3
___ _ ___ _ ___ _ ___
 72
     65
 73
     4
 40
2.000000
 49
1.250000
 49
-0.250000
 49
0.250000
 49
-0.250000
  0
LTYPE
  2
BORDER
 70
     0
  3
___ ___ . ___ ___ . ___ ___
 72
     65
 73
     6
 40
1.750000
 49
0.500000
 49
-0.250000
 49
0.500000
 49
-0.250000
 49
0.000000
 49
-0.250000
  0
LTYPE
  2
DOT
 70
     0
  3
.................
 72
     65
 73
     2
 40
0.250000
 49
0.000000
 49
-0.250000
  0
LTYPE
  2
DASHDOT
 70
     0
  3
__ . __ . __ . __
 72
     65
 73
     4
 40
1.000000
 49
0.500000
 49
-0.250000
 49
0.000000
 49
-0.250000
  0
LTYPE
  2
DIVIDE
 70
     0
  3
___ .. ___ .. ___ .. ___
 72
     65
 73
     6
 40
1.250000
 49
0.500000
 49
-0.250000
 49
0.000000
 49
-0.250000
 49
0.000000
 49
-0.250000
  0
ENDTAB
  0
TABLE
  2
LAYER
 70
     8
  0
LAYER
  2
BLACK
 70
     0
 62
     1
  6
CONTINUOUS
  0
LAYER
  2
WHITE
 70
     0
 62
     7
  6
CONTINUOUS
  0
LAYER
  2
RED
 70
     0
 62
     1
  6
CONTINUOUS
  0
LAYER
  2
YELLOW
 70
     0
 62
     2
  6
CONTINUOUS
  0
LAYER
  2
GREEN
 70
     0
 62
     3
  6
CONTINUOUS
  0
LAYER
  2
CYAN
 70
     0
 62
     4
  6
CONTINUOUS
  0
LAYER
  2
BLUE
 70
     0
 62
     5
  6
CONTINUOUS
  0
LAYER
  2
MAGENTA
 70
     0
 62
     6
  6
CONTINUOUS
  0
ENDTAB
  0
ENDSEC
  0
SECTION
  2
BLOCKS
  0
ENDSEC
  0
SECTION
  2
ENTITIES
  0
ARC
  8
WHITE
 10
52.730514
 20
38.128350
 30
0.000000
 40
4.798775
 50
166.802000
 51
227.722000
  6
CONTINUOUS
  0
ARC
  8
WHITE
 10
71.545914
 20
51.882500
 30
0.000000
 40
28.024571
 50
-141.867395
 51
-120.207866
  6
CONTINUOUS
  0
ARC
  8
WHITE
 10
56.985795
 20
26.759174
 30
0.000000
 40
1.014594
 50
-112.352388
 51
63.045340
  6
CONTINUOUS
  0
ARC
  8
WHITE
 10
66.774601
 20
51.928831
 30
0.000000
 40
28.020567
 50
-145.318662
 51
-111.291555
  6
CONTINUOUS
  0
LINE
  8
WHITE
 10
43.732464
 20
35.984800
 30
0.000000
 11
45.092214
 21
40.489300
 31
0.000000
  6
CONTINUOUS
  0
LINE
  8
WHITE
 10
45.092214
 20
40.489300
 30
0.000000
 11
44.084214
 21
40.793800
 31
0.000000
  6
CONTINUOUS
  0
LINE
  8
WHITE
 10
44.084214
 20
40.793800
 30
0.000000
 11
42.986928
 21
37.150266
 31
0.000000
  6
CONTINUOUS
  0
ARC
  8
WHITE
 10
42.826664
 20
41.669500
 30
0.000000
 40
4.522075
 50
-137.148382
 51
-87.969000
  6
CONTINUOUS
  0
ARC
  8
WHITE
 10
40.897514
 20
40.091200
 30
0.000000
 40
2.040220
 50
130.427592
 51
227.207000
  6
CONTINUOUS
  0
ARC
  8
WHITE
 10
39.312714
 20
43.160900
 30
0.000000
 40
1.539060
 50
-80.208000
 51
180.562149
  6
CONTINUOUS
  0
ARC
  8
WHITE
 10
37.257064
 20
44.380200
 30
0.000000
 40
1.338165
 50
-146.109922
 51
-67.288000
  6
CONTINUOUS
  0
ARC
  8
WHITE
 10
35.640914
 20
43.213850
 30
0.000000
 40
0.657205
 50
39.744000
 51
156.444556
  6
CONTINUOUS
  0
ARC
  8
WHITE
 10
33.940314
 20
43.964850
 30
0.000000
 40
1.201835
 50
-167.893373
 51
-23.975000
  6
CONTINUOUS
  0
ARC
  8
WHITE
 10
31.925814
 20
43.518400
 30
0.000000
 40
0.861625
 50
13.038700
 51
140.212333
  6
CONTINUOUS
  0
ARC
  8
WHITE
 10
30.560864
 20
45.103750
 30
0.000000
 40
1.250240
 50
-172.533732
 51
-55.793000
  6
CONTINUOUS
  0
ARC
  8
WHITE
 10
28.437014
 20
44.979050
 30
0.000000
 40
0.885040
 50
-2.445000
 51
134.225460
  6
CONTINUOUS
  0
ARC
  8
WHITE
 10
27.300614
 20
46.767850
 30
0.000000
 40
1.265925
 50
-179.543178
 51
-65.791000
  6
CONTINUOUS
  0
ARC
  8
WHITE
 10
25.211464
 20
46.406400
 30
0.000000
 40
0.895120
 50
23.111700
 51
200.989337
  6
CONTINUOUS
  0
ARC
  8
WHITE
 10
2.026479
 20
41.208600
 30
0.000000
 40
22.875250
 50
1.814829
 51
12.310400
  6
CONTINUOUS
  0
ARC
  8
WHITE
 10
20.347264
 20
42.766350
 30
0.000000
 40
4.618785
 50
-90.565056
 51
-10.394000
  6
CONTINUOUS
  0
LINE
  8
WHITE
 10
20.301714
 20
38.147800
 30
0.000000
 11
20.579964
 21
40.442050
 31
0.000000
  6
CONTINUOUS
  0
LINE
  8
WHITE
 10
20.579964
 20
40.442050
 30
0.000000
 11
21.104964
 21
44.736550
 31
0.000000
  6
CONTINUOUS
  0
LINE
  8
WHITE
 10
21.104964
 20
44.736550
 30
0.000000
 11
22.154964
 21
53.315100
 31
0.000000
  6
CONTINUOUS
  0
LINE
  8
WHITE
 10
22.154964
 20
53.315100
 30
0.000000
 11
21.110214
 21
53.441100
 31
0.000000
  6
CONTINUOUS
  0
LINE
  8
WHITE
 10
21.110214
 20
53.441100
 30
0.000000
 11
20.648214
 21
49.666300
 31
0.000000
  6
CONTINUOUS
  0
LINE
  8
WHITE
 10
20.648214
 20
49.666300
 30
0.000000
 11
20.191464
 21
45.891550
 31
0.000000
  6
CONTINUOUS
  0
LINE
  8
WHITE
 10
20.191464
 20
45.891550
 30
0.000000
 11
19.729464
 21
42.111550
 31
0.000000
  6
CONTINUOUS
  0
LINE
  8
WHITE
 10
19.729464
 20
42.111550
 30
0.000000
 11
19.220213
 21
37.969244
 31
0.000000
  6
CONTINUOUS
  0
ARC
  8
WHITE
 10
25.364364
 20
10.234150
 30
0.000000
 40
28.407500
 50
102.491000
 51
119.875774
  6
CONTINUOUS
  0
ARC
  8
WHITE
 10
9.030914
 20
37.895750
 30
0.000000
 40
3.733920
 50
-127.928322
 51
-54.221000
  6
CONTINUOUS
  0
ARC
  8
WHITE
 10
10.754264
 20
41.699900
 30
0.000000
 40
7.855100
 50
-145.121138
 51
-120.769000
  6
CONTINUOUS
  0
ARC
  8
WHITE
 10
5.118099
 20
37.616465
 30
0.000000
 40
0.905252
 50
69.231413
 51
206.820754
  6
CONTINUOUS
  0
ARC
  8
WHITE
 10
3.573800
 20
54.768600
 30
0.000000
 40
16.412050
 50
-83.474000
 51
-38.800816
  6
CONTINUOUS
  0
ARC
  8
WHITE
 10
14.831614
 20
46.064250
 30
0.000000
 40
2.201030
 50
-45.867000
 51
117.730131
  6
CONTINUOUS
  0
ARC
  8
WHITE
 10
-0.766561
 20
92.816100
 30
0.000000
 40
47.114300
 50
-79.645246
 51
-71.981000
  6
CONTINUOUS
  0
ARC
  8
WHITE
 10
5.435549
 20
65.201139
 30
0.000000
 40
18.868528
 50
-91.902989
 51
-83.101516
  6
CONTINUOUS
  0
ARC
  8
WHITE
 10
0.760774
 20
42.206300
 30
0.000000
 40
5.787950
 50
45.619600
 51
72.414507
  6
CONTINUOUS
  0
ARC
  8
WHITE
 10
3.077039
 20
48.491877
 30
0.000000
 40
0.955019
 50
98.887836
 51
233.538651
  6
CONTINUOUS
  0
ARC
  8
WHITE
 10
0.157824
 20
53.546600
 30
0.000000
 40
4.958210
 50
-56.013000
 51
-21.628528
  6
CONTINUOUS
  0
ARC
  8
WHITE
 10
6.547484
 20
50.265100
 30
0.000000
 40
2.298720
 50
84.645804
 51
140.765000
  6
CONTINUOUS
  0
LINE
  8
WHITE
 10
6.761984
 20
52.553800
 30
0.000000
 11
6.215984
 21
50.753050
 31
0.000000
  6
CONTINUOUS
  0
LINE
  8
WHITE
 10
6.215984
 20
50.753050
 30
0.000000
 11
7.223984
 21
50.448550
 31
0.000000
  6
CONTINUOUS
  0
LINE
  8
WHITE
 10
7.223984
 20
50.448550
 30
0.000000
 11
8.321234
 21
54.092100
 31
0.000000
  6
CONTINUOUS
  0
LINE
  8
WHITE
 10
8.321234
 20
54.092100
 30
0.000000
 11
9.922464
 21
59.221100
 31
0.000000
  6
CONTINUOUS
  0
LINE
  8
WHITE
 10
9.922464
 20
59.221100
 30
0.000000
 11
11.255662
 21
59.220900
 31
0.000000
  6
CONTINUOUS
  0
ARC
  8
WHITE
 10
52.122164
 20
13.714400
 30
0.000000
 40
61.163000
 50
124.579765
 51
131.925000
  6
CONTINUOUS
  0
ARC
  8
WHITE
 10
22.296536
 20
55.808515
 30
0.000000
 40
9.600811
 50
63.532670
 51
120.602621
  6
CONTINUOUS
  0
ARC
  8
WHITE
 10
20.250814
 20
53.371100
 30
0.000000
 40
12.716350
 50
24.861499
 51
60.174100
  6
CONTINUOUS
  0
ARC
  8
WHITE
 10
27.945364
 20
56.899600
 30
0.000000
 40
4.251600
 50
-58.670733
 51
25.312800
  6
CONTINUOUS
  0
ARC
  8
WHITE
 10
28.417664
 20
64.917600
 30
0.000000
 40
11.778700
 50
-95.008949
 51
-81.513000
  6
CONTINUOUS
  0
ARC
  8
WHITE
 10
27.236764
 20
52.476500
 30
0.000000
 40
0.723545
 50
77.834400
 51
300.063886
  6
CONTINUOUS
  0
ARC
  8
WHITE
 10
28.422114
 20
50.632850
 30
0.000000
 40
1.469460
 50
11.518529
 51
124.055000
  6
CONTINUOUS
  0
ARC
  8
WHITE
 10
30.385164
 20
50.726850
 30
0.000000
 40
0.559905
 50
159.134000
 51
376.327257
  6
CONTINUOUS
  0
ARC
  8
WHITE
 10
31.666214
 20
50.139100
 30
0.000000
 40
1.052785
 50
23.182240
 51
134.944000
  6
CONTINUOUS
  0
ARC
  8
WHITE
 10
33.214864
 20
50.333100
 30
0.000000
 40
0.621295
 50
159.219000
 51
376.690076
  6
CONTINUOUS
  0
ARC
  8
WHITE
 10
34.767864
 20
50.606500
 30
0.000000
 40
0.962575
 50
16.774702
 51
185.662000
  6
CONTINUOUS
  0
ARC
  8
WHITE
 10
36.235464
 20
50.842300
 30
0.000000
 40
0.547615
 50
175.601000
 51
355.599973
  6
CONTINUOUS
  0
ARC
  8
WHITE
 10
44.178814
 20
48.217450
 30
0.000000
 40
7.835300
 50
147.450626
 51
160.753000
  6
CONTINUOUS
  0
ARC
  8
WHITE
 10
38.277364
 20
51.734900
 30
0.000000
 40
0.990840
 50
11.297660
 51
135.204000
  6
CONTINUOUS
  0
ARC
  8
WHITE
 10
39.969014
 20
51.939600
 30
0.000000
 40
0.720120
 50
-179.157000
 51
12.625908
  6
CONTINUOUS
  0
ARC
  8
WHITE
 10
41.971664
 20
52.406050
 30
0.000000
 40
1.336165
 50
25.136836
 51
193.373000
  6
CONTINUOUS
  0
ARC
  8
WHITE
 10
43.930714
 20
53.277600
 30
0.000000
 40
0.808780
 50
-157.922000
 51
20.560047
  6
CONTINUOUS
  0
ARC
  8
WHITE
 10
46.106382
 20
53.608774
 30
0.000000
 40
1.419192
 50
33.725437
 51
181.903533
  6
CONTINUOUS
  0
ARC
  8
WHITE
 10
49.376714
 20
54.284600
 30
0.000000
 40
2.092985
 50
176.929000
 51
211.728275
  6
CONTINUOUS
  0
ARC
  8
WHITE
 10
47.944814
 20
53.467600
 30
0.000000
 40
0.449247
 50
-140.838000
 51
-26.414439
  6
CONTINUOUS
  0
ARC
  8
WHITE
 10
56.331914
 20
49.492350
 30
0.000000
 40
8.832400
 50
138.390566
 51
154.694000
  6
CONTINUOUS
  0
ARC
  8
WHITE
 10
50.490464
 20
54.564100
 30
0.000000
 40
1.100385
 50
-10.966723
 51
133.860000
  6
CONTINUOUS
  0
ARC
  8
WHITE
 10
47.150214
 20
54.333600
 30
0.000000
 40
4.420580
 50
-21.018574
 51
0.274337
  6
CONTINUOUS
  0
LINE
  8
WHITE
 10
51.276714
 20
52.748050
 30
0.000000
 11
50.294964
 21
49.073050
 31
0.000000
  6
CONTINUOUS
  0
LINE
  8
WHITE
 10
50.294964
 20
49.073050
 30
0.000000
 11
51.308214
 21
48.800050
 31
0.000000
  6
CONTINUOUS
  0
LINE
  8
WHITE
 10
51.308214
 20
48.800050
 30
0.000000
 11
52.426294
 21
52.973855
 31
0.000000
  6
CONTINUOUS
  0
ARC
  8
WHITE
 10
49.513714
 20
163.831100
 30
0.000000
 40
110.895500
 50
-88.495000
 51
-87.034468
  6
CONTINUOUS
  0
LINE
  8
WHITE
 10
55.250914
 20
53.084100
 30
0.000000
 11
54.269414
 21
49.414300
 31
0.000000
  6
CONTINUOUS
  0
LINE
  8
WHITE
 10
54.269414
 20
49.414300
 30
0.000000
 11
55.282414
 21
49.141300
 31
0.000000
  6
CONTINUOUS
  0
LINE
  8
WHITE
 10
55.282414
 20
49.141300
 30
0.000000
 11
56.285002
 21
52.900275
 31
0.000000
  6
CONTINUOUS
  0
ARC
  8
WHITE
 10
56.324381
 20
42.793560
 30
0.000000
 40
10.106792
 50
73.319294
 51
90.223245
  6
CONTINUOUS
  0
LINE
  8
WHITE
 10
59.225414
 20
52.475050
 30
0.000000
 11
58.243414
 21
48.794800
 31
0.000000
  6
CONTINUOUS
  0
LINE
  8
WHITE
 10
58.243414
 20
48.794800
 30
0.000000
 11
59.256914
 21
48.527050
 31
0.000000
  6
CONTINUOUS
  0
LINE
  8
WHITE
 10
59.256914
 20
48.527050
 30
0.000000
 11
60.327816
 21
52.532794
 31
0.000000
  6
CONTINUOUS
  0
ARC
  8
WHITE
 10
60.563414
 20
46.637150
 30
0.000000
 40
5.900350
 50
68.541741
 51
92.288400
  6
CONTINUOUS
  0
LINE
  8
WHITE
 10
62.721914
 20
52.128550
 30
0.000000
 11
62.585414
 21
51.514300
 31
0.000000
  6
CONTINUOUS
  0
LINE
  8
WHITE
 10
62.585414
 20
51.514300
 30
0.000000
 11
61.603414
 21
47.839300
 31
0.000000
  6
CONTINUOUS
  0
LINE
  8
WHITE
 10
61.603414
 20
47.839300
 30
0.000000
 11
62.616914
 21
47.566300
 31
0.000000
  6
CONTINUOUS
  0
LINE
  8
WHITE
 10
62.616914
 20
47.566300
 30
0.000000
 11
63.729837
 21
51.745286
 31
0.000000
  6
CONTINUOUS
  0
ARC
  8
WHITE
 10
63.316414
 20
45.056400
 30
0.000000
 40
6.701650
 50
61.058539
 51
86.463200
  6
CONTINUOUS
  0
LINE
  8
WHITE
 10
66.559414
 20
50.921050
 30
0.000000
 11
66.354914
 21
50.075800
 31
0.000000
  6
CONTINUOUS
  0
LINE
  8
WHITE
 10
66.354914
 20
50.075800
 30
0.000000
 11
65.372914
 21
46.400800
 31
0.000000
  6
CONTINUOUS
  0
LINE
  8
WHITE
 10
65.372914
 20
46.400800
 30
0.000000
 11
66.386414
 21
46.127800
 31
0.000000
  6
CONTINUOUS
  0
LINE
  8
WHITE
 10
66.386414
 20
46.127800
 30
0.000000
 11
67.499071
 21
50.306786
 31
0.000000
  6
CONTINUOUS
  0
ARC
  8
WHITE
 10
67.094233
 20
45.639645
 30
0.000000
 40
4.684666
 50
51.360657
 51
85.042455
  6
CONTINUOUS
  0
LINE
  8
WHITE
 10
70.019414
 20
49.298800
 30
0.000000
 11
68.932414
 21
45.235300
 31
0.000000
  6
CONTINUOUS
  0
LINE
  8
WHITE
 10
68.932414
 20
45.235300
 30
0.000000
 11
69.950914
 21
44.967550
 31
0.000000
  6
CONTINUOUS
  0
LINE
  8
WHITE
 10
69.950914
 20
44.967550
 30
0.000000
 11
70.958867
 21
48.752746
 31
0.000000
  6
CONTINUOUS
  0
ARC
  8
WHITE
 10
66.019414
 20
39.491200
 30
0.000000
 40
10.496400
 50
46.869824
 51
61.927700
  6
CONTINUOUS
  0
LINE
  8
WHITE
 10
73.195414
 20
47.151550
 30
0.000000
 11
73.195414
 21
47.067550
 31
0.000000
  6
CONTINUOUS
  0
LINE
  8
WHITE
 10
73.195414
 20
47.067550
 30
0.000000
 11
72.497414
 21
43.324300
 31
0.000000
  6
CONTINUOUS
  0
LINE
  8
WHITE
 10
72.497414
 20
43.324300
 30
0.000000
 11
73.531414
 21
43.135300
 31
0.000000
  6
CONTINUOUS
  0
LINE
  8
WHITE
 10
73.531414
 20
43.135300
 30
0.000000
 11
74.135239
 21
46.374518
 31
0.000000
  6
CONTINUOUS
  0
ARC
  8
WHITE
 10
65.135406
 20
33.276780
 30
0.000000
 40
15.891750
 50
43.373939
 51
55.505922
  6
CONTINUOUS
  0
LINE
  8
WHITE
 10
76.686914
 20
44.190550
 30
0.000000
 11
75.993914
 21
40.452550
 31
0.000000
  6
CONTINUOUS
  0
LINE
  8
WHITE
 10
75.993914
 20
40.452550
 30
0.000000
 11
77.027914
 21
40.258300
 31
0.000000
  6
CONTINUOUS
  0
LINE
  8
WHITE
 10
77.027914
 20
40.258300
 30
0.000000
 11
77.563435
 21
43.151030
 31
0.000000
  6
CONTINUOUS
  0
ARC
  8
WHITE
 10
69.337902
 20
33.647066
 30
0.000000
 40
12.569198
 50
35.470686
 51
49.124322
  6
CONTINUOUS
  0
LINE
  8
WHITE
 10
79.574414
 20
40.940800
 30
0.000000
 11
79.138414
 21
37.160800
 31
0.000000
  6
CONTINUOUS
  0
LINE
  8
WHITE
 10
79.138414
 20
37.160800
 30
0.000000
 11
80.183414
 21
37.040050
 31
0.000000
  6
CONTINUOUS
  0
LINE
  8
WHITE
 10
80.183414
 20
37.040050
 30
0.000000
 11
80.645032
 21
41.066772
 31
0.000000
  6
CONTINUOUS
  0
ARC
  8
WHITE
 10
81.567581
 20
40.111217
 30
0.000000
 40
1.328225
 50
26.532870
 51
133.993182
  6
CONTINUOUS
  0
LINE
  8
WHITE
 10
82.755914
 20
40.704550
 30
0.000000
 11
82.687551
 21
38.053278
 31
0.000000
  6
CONTINUOUS
  0
ARC
  8
WHITE
 10
83.053534
 20
37.981051
 30
0.000000
 40
0.373042
 50
168.836121
 51
326.474405
  6
CONTINUOUS
  0
ARC
  8
WHITE
 10
84.337398
 20
37.048349
 30
0.000000
 40
1.214309
 50
-31.711842
 51
143.243119
  6
CONTINUOUS
  0
LINE
  8
WHITE
 10
85.370414
 20
36.410050
 30
0.000000
 11
85.008127
 21
35.207804
 31
0.000000
  6
CONTINUOUS
  0
ARC
  8
WHITE
 10
85.621262
 20
34.967936
 30
0.000000
 40
0.658385
 50
158.633803
 51
326.988668
  6
CONTINUOUS
  0
ARC
  8
WHITE
 10
87.004468
 20
33.722531
 30
0.000000
 40
1.215320
 50
-41.732419
 51
133.146026
  6
CONTINUOUS
  0
LINE
  8
WHITE
 10
87.911414
 20
32.913550
 30
0.000000
 11
87.344104
 21
31.795275
 31
0.000000
  6
CONTINUOUS
  0
ARC
  8
WHITE
 10
87.901414
 20
31.448150
 30
0.000000
 40
0.656575
 50
148.083000
 51
317.254794
  6
CONTINUOUS
  0
ARC
  8
WHITE
 10
89.513414
 20
30.314050
 30
0.000000
 40
1.323060
 50
-35.642560
 51
148.644000
  6
CONTINUOUS
  0
ARC
  8
WHITE
 10
91.225191
 20
28.999502
 30
0.000000
 40
0.837020
 50
139.505720
 51
312.540450
  6
CONTINUOUS
  0
ARC
  8
WHITE
 10
92.768608
 20
27.857775
 30
0.000000
 40
1.109567
 50
-25.504288
 51
151.759937
  6
CONTINUOUS
  0
ARC
  8
WHITE
 10
94.988414
 20
26.595650
 30
0.000000
 40
1.449015
 50
147.227000
 51
231.700852
  6
CONTINUOUS
  0
LINE
  8
WHITE
 10
94.090414
 20
25.458550
 30
0.000000
 11
91.948414
 21
22.329550
 31
0.000000
  6
CONTINUOUS
  0
LINE
  8
WHITE
 10
91.948414
 20
22.329550
 30
0.000000
 11
90.977414
 21
23.038300
 31
0.000000
  6
CONTINUOUS
  0
LINE
  8
WHITE
 10
90.977414
 20
23.038300
 30
0.000000
 11
89.449414
 21
24.151300
 31
0.000000
  6
CONTINUOUS
  0
LINE
  8
WHITE
 10
89.449414
 20
24.151300
 30
0.000000
 11
86.262914
 21
26.466550
 31
0.000000
  6
CONTINUOUS
  0
LINE
  8
WHITE
 10
86.262914
 20
26.466550
 30
0.000000
 11
85.643414
 21
25.616050
 31
0.000000
  6
CONTINUOUS
  0
LINE
  8
WHITE
 10
85.643414
 20
25.616050
 30
0.000000
 11
88.777414
 21
23.337550
 31
0.000000
  6
CONTINUOUS
  0
LINE
  8
WHITE
 10
88.777414
 20
23.337550
 30
0.000000
 11
90.478414
 21
22.103800
 31
0.000000
  6
CONTINUOUS
  0
LINE
  8
WHITE
 10
90.478414
 20
22.103800
 30
0.000000
 11
91.355414
 21
21.463300
 31
0.000000
  6
CONTINUOUS
  0
LINE
  8
WHITE
 10
91.355414
 20
21.463300
 30
0.000000
 11
88.861351
 21
17.814570
 31
0.000000
  6
CONTINUOUS
  0
ARC
  8
WHITE
 10
101.471414
 20
37.770200
 30
0.000000
 40
23.605950
 50
-133.006685
 51
-122.289000
  6
CONTINUOUS
  0
ARC
  8
WHITE
 10
84.004914
 20
20.581650
 30
0.000000
 40
1.367265
 50
-3.097000
 51
76.216325
  6
CONTINUOUS
  0
ARC
  8
WHITE
 10
83.525871
 20
23.364493
 30
0.000000
 40
1.662727
 50
172.039529
 51
298.948414
  6
CONTINUOUS
  0
ARC
  8
WHITE
 10
80.923914
 20
23.951500
 30
0.000000
 40
1.019690
 50
-20.478000
 51
108.630339
  6
CONTINUOUS
  0
ARC
  8
WHITE
 10
81.464946
 20
26.670397
 30
0.000000
 40
1.955236
 50
167.883624
 51
243.684083
  6
CONTINUOUS
  0
ARC
  8
WHITE
 10
78.368414
 20
26.497200
 30
0.000000
 40
1.320780
 50
26.222500
 51
99.445568
  6
CONTINUOUS
  0
ARC
  8
WHITE
 10
78.388641
 20
28.943628
 30
0.000000
 40
1.167912
 50
145.446046
 51
258.293399
  6
CONTINUOUS
  0
ARC
  8
WHITE
 10
76.198414
 20
30.020600
 30
0.000000
 40
1.296410
 50
-18.649000
 51
94.870939
  6
CONTINUOUS
  0
ARC
  8
WHITE
 10
76.140021
 20
32.432275
 30
0.000000
 40
1.121210
 50
154.583003
 51
267.358063
  6
CONTINUOUS
  0
ARC
  8
WHITE
 10
74.060914
 20
33.281700
 30
0.000000
 40
1.128195
 50
-19.048000
 51
107.571938
  6
CONTINUOUS
  0
ARC
  8
WHITE
 10
73.396429
 20
35.820801
 30
0.000000
 40
1.498945
 50
-171.384364
 51
-77.521742
  6
CONTINUOUS
  0
ARC
  8
WHITE
 10
70.843338
 20
36.047568
 30
0.000000
 40
1.162265
 50
-22.849256
 51
117.122299
  6
CONTINUOUS
  0
ARC
  8
WHITE
 10
69.877914
 20
38.698850
 30
0.000000
 40
1.674465
 50
175.679323
 51
285.077000
  6
CONTINUOUS
  0
ARC
  8
WHITE
 10
67.415486
 20
39.051002
 30
0.000000
 40
0.824260
 50
-15.913190
 51
122.810303
  6
CONTINUOUS
  0
ARC
  8
WHITE
 10
66.161417
 20
41.354979
 30
0.000000
 40
1.802210
 50
178.980720
 51
296.617092
  6
CONTINUOUS
  0
ARC
  8
WHITE
 10
63.325532
 20
40.992941
 30
0.000000
 40
1.106520
 50
20.864508
 51
134.213266
  6
CONTINUOUS
  0
ARC
  8
WHITE
 10
61.610374
 20
42.914458
 30
0.000000
 40
1.470922
 50
-165.544198
 51
-50.098729
  6
CONTINUOUS
  0
ARC
  8
WHITE
 10
59.396914
 20
42.778900
 30
0.000000
 40
0.822400
 50
-16.359000
 51
153.095747
  6
CONTINUOUS
  0
ARC
  8
WHITE
 10
57.498914
 20
44.185150
 30
0.000000
 40
1.557505
 50
-154.232650
 51
-41.603000
  6
CONTINUOUS
  0
ARC
  8
WHITE
 10
55.235914
 20
43.360950
 30
0.000000
 40
0.872770
 50
9.702340
 51
156.227833
  6
CONTINUOUS
  0
ARC
  8
WHITE
 10
52.971264
 20
44.279800
 30
0.000000
 40
1.571805
 50
-163.306058
 51
-21.147000
  6
CONTINUOUS
  0
ARC
  8
WHITE
 10
50.934064
 20
42.940650
 30
0.000000
 40
1.034710
 50
59.078700
 51
151.820634
  6
CONTINUOUS
  0
ARC
  8
WHITE
 10
70.780414
 20
31.175750
 30
0.000000
 40
24.105250
 50
149.447000
 51
160.495550
  6
CONTINUOUS
  0
ARC
  8
WHITE
 10
211.688914
 20
41.764500
 30
0.000000
 40
2.516635
 50
-82.176000
 51
-54.222000
  6
CONTINUOUS
  0
ARC
  8
WHITE
 10
208.838291
 20
44.477492
 30
0.000000
 40
6.425468
 50
-47.729600
 51
-32.669384
  6
CONTINUOUS
  0
ARC
  8
WHITE
 10
215.631326
 20
40.163819
 30
0.000000
 40
1.621775
 50
36.788571
 51
148.587309
  6
CONTINUOUS
  0
ARC
  8
WHITE
 10
335.771035
 20
128.264707
 30
0.000000
 40
147.359222
 50
-143.752538
 51
-142.518010
  6
CONTINUOUS
  0
ARC
  8
WHITE
 10
220.977296
 20
39.932990
 30
0.000000
 40
2.525952
 50
-148.010939
 51
-50.648650
  6
CONTINUOUS
  0
ARC
  8
WHITE
 10
212.546414
 20
47.928850
 30
0.000000
 40
14.129270
 50
-44.760820
 51
-28.014000
  6
CONTINUOUS
  0
ARC
  8
WHITE
 10
226.116874
 20
39.885951
 30
0.000000
 40
1.783585
 50
14.998781
 51
127.943313
  6
CONTINUOUS
  0
ARC
  8
WHITE
 10
230.043964
 20
41.224176
 30
0.000000
 40
2.372192
 50
-158.312318
 51
-29.279976
  6
CONTINUOUS
  0
LINE
  8
WHITE
 10
232.113085
 20
40.063990
 30
0.000000
 11
233.336414
 21
44.033050
 31
0.000000
  6
CONTINUOUS
  0
LINE
  8
WHITE
 10
233.336414
 20
44.033050
 30
0.000000
 11
232.569914
 21
44.269300
 31
0.000000
  6
CONTINUOUS
  0
LINE
  8
WHITE
 10
232.569914
 20
44.269300
 30
0.000000
 11
228.873914
 21
45.424300
 31
0.000000
  6
CONTINUOUS
  0
LINE
  8
WHITE
 10
228.873914
 20
45.424300
 30
0.000000
 11
229.183414
 21
46.427050
 31
0.000000
  6
CONTINUOUS
  0
LINE
  8
WHITE
 10
229.183414
 20
46.427050
 30
0.000000
 11
233.645914
 21
45.035800
 31
0.000000
  6
CONTINUOUS
  0
LINE
  8
WHITE
 10
233.645914
 20
45.035800
 30
0.000000
 11
234.674914
 21
48.380050
 31
0.000000
  6
CONTINUOUS
  0
ARC
  8
WHITE
 10
233.322325
 20
48.026944
 30
0.000000
 40
1.397921
 50
14.631055
 51
75.048711
  6
CONTINUOUS
  0
ARC
  8
WHITE
 10
234.145473
 20
51.145038
 30
0.000000
 40
1.827005
 50
156.936695
 51
255.336604
  6
CONTINUOUS
  0
LINE
  8
WHITE
 10
232.464496
 20
51.860763
 30
0.000000
 11
233.231414
 21
54.354600
 31
0.000000
  6
CONTINUOUS
  0
ARC
  8
WHITE
 10
230.173853
 20
54.865735
 30
0.000000
 40
3.099990
 50
-9.490420
 51
82.671241
  6
CONTINUOUS
  0
LINE
  8
WHITE
 10
230.569296
 20
57.940400
 30
0.000000
 11
229.571914
 21
53.819100
 31
0.000000
  6
CONTINUOUS
  0
LINE
  8
WHITE
 10
229.571914
 20
53.819100
 30
0.000000
 11
228.553414
 21
54.065600
 31
0.000000
  6
CONTINUOUS
  0
LINE
  8
WHITE
 10
228.553414
 20
54.065600
 30
0.000000
 11
229.482914
 21
57.893100
 31
0.000000
  6
CONTINUOUS
  0
LINE
  8
WHITE
 10
229.482914
 20
57.893100
 30
0.000000
 11
230.406914
 21
61.725600
 31
0.000000
  6
CONTINUOUS
  0
LINE
  8
WHITE
 10
230.406914
 20
61.725600
 30
0.000000
 11
231.335914
 21
65.552600
 31
0.000000
  6
CONTINUOUS
  0
ARC
  8
WHITE
 10
228.605414
 20
66.573600
 30
0.000000
 40
2.915145
 50
-20.501986
 51
48.612600
  6
CONTINUOUS
  0
ARC
  8
WHITE
 10
231.388414
 20
70.808100
 30
0.000000
 40
2.219060
 50
-176.746000
 51
-112.681861
  6
CONTINUOUS
  0
ARC
  8
WHITE
 10
222.043394
 20
71.216325
 30
0.000000
 40
7.149473
 50
-4.284964
 51
22.186677
  6
CONTINUOUS
  0
ARC
  8
WHITE
 10
226.762341
 20
72.845230
 30
0.000000
 40
2.182041
 50
29.392348
 51
145.574730
  6
CONTINUOUS
  0
ARC
  8
WHITE
 10
222.364414
 20
75.444100
 30
0.000000
 40
2.934934
 50
-99.069000
 51
-27.722362
  6
CONTINUOUS
  0
LINE
  8
WHITE
 10
221.901787
 20
72.545780
 30
0.000000
 11
221.838914
 21
72.551100
 31
0.000000
  6
CONTINUOUS
  0
LINE
  8
WHITE
 10
221.838914
 20
72.551100
 30
0.000000
 11
221.807414
 21
69.810600
 31
0.000000
  6
CONTINUOUS
  0
LINE
  8
WHITE
 10
221.807414
 20
69.810600
 30
0.000000
 11
221.765414
 21
65.936100
 31
0.000000
  6
CONTINUOUS
  0
LINE
  8
WHITE
 10
221.765414
 20
65.936100
 30
0.000000
 11
220.715414
 21
65.951600
 31
0.000000
  6
CONTINUOUS
  0
LINE
  8
WHITE
 10
220.715414
 20
65.951600
 30
0.000000
 11
220.788914
 21
72.671600
 31
0.000000
  6
CONTINUOUS
  0
ARC
  8
WHITE
 10
220.186914
 20
75.642600
 30
0.000000
 40
3.031377
 50
-133.490000
 51
-78.545503
  6
CONTINUOUS
  0
ARC
  8
WHITE
 10
215.356263
 20
71.830857
 30
0.000000
 40
3.183130
 50
30.437455
 51
65.152984
  6
CONTINUOUS
  0
ARC
  8
WHITE
 10
215.563914
 20
73.149100
 30
0.000000
 40
1.934499
 50
54.262429
 51
171.873000
  6
CONTINUOUS
  0
ARC
  8
WHITE
 10
219.302762
 20
71.285696
 30
0.000000
 40
6.044278
 50
159.296119
 51
182.737240
  6
CONTINUOUS
  0
ARC
  8
WHITE
 10
210.881527
 20
70.991169
 30
0.000000
 40
2.383860
 50
-58.678169
 51
0.141287
  6
CONTINUOUS
  0
ARC
  8
WHITE
 10
212.630229
 20
67.370041
 30
0.000000
 40
1.664571
 50
107.822200
 51
194.448606
  6
CONTINUOUS
  0
LINE
  8
WHITE
 10
211.018306
 20
66.954711
 30
0.000000
 11
212.435914
 21
59.457600
 31
0.000000
  6
CONTINUOUS
  0
LINE
  8
WHITE
 10
212.435914
 20
59.457600
 30
0.000000
 11
212.834914
 21
57.651600
 31
0.000000
  6
CONTINUOUS
  0
LINE
  8
WHITE
 10
212.834914
 20
57.651600
 30
0.000000
 11
213.617414
 21
53.855600
 31
0.000000
  6
CONTINUOUS
  0
LINE
  8
WHITE
 10
213.617414
 20
53.855600
 30
0.000000
 11
212.588414
 21
53.645600
 31
0.000000
  6
CONTINUOUS
  0
LINE
  8
WHITE
 10
212.588414
 20
53.645600
 30
0.000000
 11
211.795414
 21
57.504600
 31
0.000000
  6
CONTINUOUS
  0
LINE
  8
WHITE
 10
211.795414
 20
57.504600
 30
0.000000
 11
211.674914
 21
58.092600
 31
0.000000
  6
CONTINUOUS
  0
ARC
  8
WHITE
 10
212.807773
 20
53.933698
 30
0.000000
 40
4.310434
 50
105.237322
 51
137.554172
  6
CONTINUOUS
  0
ARC
  8
WHITE
 10
211.963414
 20
54.942100
 30
0.000000
 40
3.011850
 50
140.871139
 51
199.438000
  6
CONTINUOUS
  0
ARC
  8
WHITE
 10
82.215107
 20
18.827171
 30
0.000000
 40
131.676000
 50
14.319100
 51
15.465570
  6
CONTINUOUS
  0
ARC
  8
WHITE
 10
208.871250
 20
51.026177
 30
0.000000
 40
0.999115
 50
-66.128684
 51
21.573540
  6
CONTINUOUS
  0
ARC
  8
WHITE
 10
211.474414
 20
44.615400
 30
0.000000
 40
5.920585
 50
111.801292
 51
124.260000
  6
CONTINUOUS
  0
ARC
  8
WHITE
 10
208.655914
 20
48.648250
 30
0.000000
 40
1.002609
 50
120.876283
 51
202.826000
  6
CONTINUOUS
  0
LINE
  8
WHITE
 10
207.731757
 20
48.259276
 30
0.000000
 11
208.288414
 21
45.928300
 31
0.000000
  6
CONTINUOUS
  0
LINE
  8
WHITE
 10
208.288414
 20
45.928300
 30
0.000000
 11
212.834914
 21
47.067550
 31
0.000000
  6
CONTINUOUS
  0
LINE
  8
WHITE
 10
212.834914
 20
47.067550
 30
0.000000
 11
213.092414
 21
46.049050
 31
0.000000
  6
CONTINUOUS
  0
LINE
  8
WHITE
 10
213.092414
 20
46.049050
 30
0.000000
 11
209.270414
 21
45.093550
 31
0.000000
  6
CONTINUOUS
  0
LINE
  8
WHITE
 10
209.270414
 20
45.093550
 30
0.000000
 11
208.535414
 21
44.904550
 31
0.000000
  6
CONTINUOUS
  0
LINE
  8
WHITE
 10
208.535414
 20
44.904550
 30
0.000000
 11
209.632414
 21
40.316050
 31
0.000000
  6
CONTINUOUS
  0
ARC
  8
WHITE
 10
211.689719
 20
41.763356
 30
0.000000
 40
2.515393
 50
-144.873756
 51
-82.190619
  6
CONTINUOUS
  0
LINE
  8
WHITE
 10
217.838414
 20
48.789550
 30
0.000000
 11
219.948914
 21
41.408050
 31
0.000000
  6
CONTINUOUS
  0
ARC
  8
WHITE
 10
221.031535
 20
41.958964
 30
0.000000
 40
1.214731
 50
-153.029774
 51
-32.683693
  6
CONTINUOUS
  0
LINE
  8
WHITE
 10
222.053931
 20
41.303008
 30
0.000000
 11
224.463914
 21
49.209550
 31
0.000000
  6
CONTINUOUS
  0
LINE
  8
WHITE
 10
224.463914
 20
49.209550
 30
0.000000
 11
227.440414
 21
64.397600
 31
0.000000
  6
CONTINUOUS
  0
ARC
  8
WHITE
 10
225.994914
 20
64.718100
 30
0.000000
 40
1.480605
 50
-12.501525
 51
176.146701
  6
CONTINUOUS
  0
LINE
  8
WHITE
 10
224.517657
 20
64.817600
 30
0.000000
 11
223.762516
 21
53.606130
 31
0.000000
  6
CONTINUOUS
  0
ARC
  8
WHITE
 10
222.070414
 20
53.720100
 30
0.000000
 40
1.695935
 50
-74.392000
 51
-3.853299
  6
CONTINUOUS
  0
ARC
  8
WHITE
 10
222.146414
 20
52.632850
 30
0.000000
 40
0.665510
 50
-142.558000
 51
-55.149363
  6
CONTINUOUS
  0
LINE
  8
WHITE
 10
221.618087
 20
52.228300
 30
0.000000
 11
221.723414
 21
56.165600
 31
0.000000
  6
CONTINUOUS
  0
LINE
  8
WHITE
 10
221.723414
 20
56.165600
 30
0.000000
 11
220.673414
 21
56.197100
 31
0.000000
  6
CONTINUOUS
  0
LINE
  8
WHITE
 10
220.673414
 20
56.197100
 30
0.000000
 11
220.573408
 21
52.322560
 31
0.000000
  6
CONTINUOUS
  0
ARC
  8
WHITE
 10
220.053914
 20
52.732300
 30
0.000000
 40
0.661635
 50
-125.947340
 51
-38.263897
  6
CONTINUOUS
  0
ARC
  8
WHITE
 10
220.141914
 20
53.820600
 30
0.000000
 40
1.692370
 50
-177.126651
 51
-106.349927
  6
CONTINUOUS
  0
LINE
  8
WHITE
 10
218.451672
 20
53.735764
 30
0.000000
 11
217.888291
 21
64.960402
 31
0.000000
  6
CONTINUOUS
  0
ARC
  8
WHITE
 10
216.407914
 20
64.886100
 30
0.000000
 40
1.482240
 50
2.873349
 51
191.641000
  6
CONTINUOUS
  0
LINE
  8
WHITE
 10
214.956162
 20
64.587015
 30
0.000000
 11
217.675414
 21
49.351300
 31
0.000000
  6
CONTINUOUS
  0
LINE
  8
WHITE
 10
217.675414
 20
49.351300
 30
0.000000
 11
217.838414
 21
48.789550
 31
0.000000
  6
CONTINUOUS
  0
ARC
  8
WHITE
 10
168.068914
 20
64.093600
 30
0.000000
 40
24.430350
 50
97.074700
 51
108.067000
  6
CONTINUOUS
  0
ARC
  8
WHITE
 10
168.085591
 20
64.099321
 30
0.000000
 40
24.430089
 50
108.108345
 51
140.261795
  6
CONTINUOUS
  0
ARC
  8
WHITE
 10
203.389456
 20
29.536728
 30
0.000000
 40
73.782000
 50
137.147335
 51
143.911201
  6
CONTINUOUS
  0
ARC
  8
WHITE
 10
136.889414
 20
80.504100
 30
0.000000
 40
10.180350
 50
-58.927263
 51
-47.510000
  6
CONTINUOUS
  0
ARC
  8
WHITE
 10
99.474804
 20
142.935237
 30
0.000000
 40
82.964174
 50
-62.432423
 51
-59.048970
  6
CONTINUOUS
  0
ARC
  8
WHITE
 10
137.780978
 20
69.794309
 30
0.000000
 40
0.413687
 50
-167.617612
 51
-77.549966
  6
CONTINUOUS
  0
LINE
  8
WHITE
 10
137.376914
 20
69.705600
 30
0.000000
 11
136.258414
 21
72.047100
 31
0.000000
  6
CONTINUOUS
  0
LINE
  8
WHITE
 10
136.258414
 20
72.047100
 30
0.000000
 11
140.122414
 21
73.984100
 31
0.000000
  6
CONTINUOUS
  0
LINE
  8
WHITE
 10
140.122414
 20
73.984100
 30
0.000000
 11
139.649914
 21
74.924100
 31
0.000000
  6
CONTINUOUS
  0
LINE
  8
WHITE
 10
139.649914
 20
74.924100
 30
0.000000
 11
135.796414
 21
72.992100
 31
0.000000
  6
CONTINUOUS
  0
LINE
  8
WHITE
 10
135.796414
 20
72.992100
 30
0.000000
 11
134.688556
 21
75.301810
 31
0.000000
  6
CONTINUOUS
  0
ARC
  8
WHITE
 10
134.374104
 20
76.206166
 30
0.000000
 40
0.957465
 50
-70.827000
 51
39.394907
  6
CONTINUOUS
  0
ARC
  8
WHITE
 10
136.490400
 20
77.470514
 30
0.000000
 40
1.525006
 50
79.925065
 51
205.506202
  6
CONTINUOUS
  0
ARC
  8
WHITE
 10
138.983395
 20
93.923880
 30
0.000000
 40
15.116700
 50
-98.468674
 51
-89.104703
  6
CONTINUOUS
  0
ARC
  8
WHITE
 10
137.538914
 20
83.386600
 30
0.000000
 40
4.876360
 50
-69.839000
 51
-46.600023
  6
CONTINUOUS
  0
ARC
  8
WHITE
 10
175.892695
 20
45.147218
 30
0.000000
 40
49.285566
 50
112.869220
 51
135.252328
  6
CONTINUOUS
  0
ARC
  8
WHITE
 10
149.383914
 20
111.753100
 30
0.000000
 40
22.434350
 50
-70.862000
 51
-44.479229
  6
CONTINUOUS
  0
ARC
  8
WHITE
 10
167.840319
 20
94.680341
 30
0.000000
 40
2.798810
 50
21.671706
 51
151.064368
  6
CONTINUOUS
  0
ARC
  8
WHITE
 10
171.675414
 20
96.191600
 30
0.000000
 40
1.323345
 50
-158.840000
 51
-41.786040
  6
CONTINUOUS
  0
ARC
  8
WHITE
 10
175.020673
 20
92.407160
 30
0.000000
 40
3.740106
 50
103.083407
 51
129.095657
  6
CONTINUOUS
  0
ARC
  8
WHITE
 10
174.452286
 20
94.128949
 30
0.000000
 40
1.941276
 50
20.233938
 51
98.241018
  6
CONTINUOUS
  0
ARC
  8
WHITE
 10
176.998851
 20
94.989343
 30
0.000000
 40
0.749315
 50
-165.390767
 51
-56.444630
  6
CONTINUOUS
  0
ARC
  8
WHITE
 10
177.897594
 20
92.069841
 30
0.000000
 40
2.345655
 50
34.825160
 51
101.921997
  6
CONTINUOUS
  0
ARC
  8
WHITE
 10
146.663914
 20
30.288650
 30
0.000000
 40
71.300500
 50
48.579174
 51
62.285700
  6
CONTINUOUS
  0
ARC
  8
WHITE
 10
201.914111
 20
93.414935
 30
0.000000
 40
12.593100
 50
-129.906167
 51
-83.051086
  6
CONTINUOUS
  0
ARC
  8
WHITE
 10
203.442914
 20
80.258100
 30
0.000000
 40
0.656260
 50
16.240850
 51
90.457100
  6
CONTINUOUS
  0
ARC
  8
WHITE
 10
206.665414
 20
80.879600
 30
0.000000
 40
2.629200
 50
-170.411000
 51
-139.324424
  6
CONTINUOUS
  0
ARC
  8
WHITE
 10
205.289414
 20
79.580100
 30
0.000000
 40
0.743960
 50
-146.173000
 51
10.607301
  6
CONTINUOUS
  0
ARC
  8
WHITE
 10
213.654291
 20
79.653766
 30
0.000000
 40
7.633871
 50
150.542655
 51
179.525026
  6
CONTINUOUS
  0
ARC
  8
WHITE
 10
209.941168
 20
80.478031
 30
0.000000
 40
4.146293
 50
74.790928
 51
135.038800
  6
CONTINUOUS
  0
LINE
  8
WHITE
 10
211.028914
 20
84.479100
 30
0.000000
 11
210.493414
 21
83.219100
 31
0.000000
  6
CONTINUOUS
  0
LINE
  8
WHITE
 10
210.493414
 20
83.219100
 30
0.000000
 11
208.960414
 21
79.586100
 31
0.000000
  6
CONTINUOUS
  0
LINE
  8
WHITE
 10
208.960414
 20
79.586100
 30
0.000000
 11
209.926414
 21
79.176600
 31
0.000000
  6
CONTINUOUS
  0
LINE
  8
WHITE
 10
209.926414
 20
79.176600
 30
0.000000
 11
212.042386
 21
84.169344
 31
0.000000
  6
CONTINUOUS
  0
ARC
  8
WHITE
 10
209.643390
 20
80.709582
 30
0.000000
 40
4.210123
 50
2.927595
 51
55.262588
  6
CONTINUOUS
  0
ARC
  8
WHITE
 10
202.166410
 20
84.678025
 30
0.000000
 40
12.269804
 50
-41.249570
 51
-17.812725
  6
CONTINUOUS
  0
ARC
  8
WHITE
 10
213.490397
 20
75.121359
 30
0.000000
 40
2.560660
 50
145.055777
 51
171.107690
  6
CONTINUOUS
  0
ARC
  8
WHITE
 10
203.022414
 20
73.178100
 30
0.000000
 40
8.275550
 50
-11.246601
 51
16.418400
  6
CONTINUOUS
  0
ARC
  8
WHITE
 10
209.243914
 20
71.952600
 30
0.000000
 40
1.934590
 50
-138.739712
 51
-11.585000
  6
CONTINUOUS
  0
ARC
  8
WHITE
 10
178.995021
 20
46.373389
 30
0.000000
 40
37.680000
 50
40.165208
 51
45.866664
  6
CONTINUOUS
  0
ARC
  8
WHITE
 10
203.617414
 20
72.382600
 30
0.000000
 40
1.918220
 50
32.637100
 51
128.472098
  6
CONTINUOUS
  0
ARC
  8
WHITE
 10
201.440749
 20
75.490726
 30
0.000000
 40
1.883481
 50
-138.240497
 51
-58.527729
  6
CONTINUOUS
  0
ARC
  8
WHITE
 10
228.160914
 20
113.579100
 30
0.000000
 40
48.361950
 50
-133.202267
 51
-125.560000
  6
CONTINUOUS
  0
ARC
  8
WHITE
 10
144.280425
 20
14.034507
 30
0.000000
 40
81.922500
 50
51.700747
 51
59.745857
  6
CONTINUOUS
  0
ARC
  8
WHITE
 10
174.939414
 20
71.427600
 30
0.000000
 40
17.073600
 50
51.551500
 51
99.126059
  6
CONTINUOUS
  0
ARC
  8
WHITE
 10
171.937880
 20
89.487206
 30
0.000000
 40
1.237386
 50
-161.961827
 51
-76.277612
  6
CONTINUOUS
  0
ARC
  8
WHITE
 10
169.777414
 20
89.225100
 30
0.000000
 40
0.991315
 50
-7.014000
 51
171.171142
  6
CONTINUOUS
  0
ARC
  8
WHITE
 10
165.864716
 20
92.685044
 30
0.000000
 40
4.420953
 50
-100.487723
 51
-48.435441
  6
CONTINUOUS
  0
ARC
  8
WHITE
 10
166.167414
 20
82.053100
 30
0.000000
 40
17.795650
 50
114.598000
 51
128.302000
  6
CONTINUOUS
  0
ARC
  8
WHITE
 10
185.167414
 20
47.487500
 30
0.000000
 40
57.070421
 50
121.748357
 51
139.402000
  6
CONTINUOUS
  0
ARC
  8
WHITE
 10
138.796696
 20
86.590522
 30
0.000000
 40
3.617365
 50
-105.442633
 51
-32.893671
  6
CONTINUOUS
  0
ARC
  8
WHITE
 10
135.151088
 20
79.911454
 30
0.000000
 40
4.169657
 50
49.960588
 51
113.374392
  6
CONTINUOUS
  0
ARC
  8
WHITE
 10
147.760040
 20
48.863160
 30
0.000000
 40
37.679671
 50
112.243194
 51
117.948840
  6
CONTINUOUS
  0
ARC
  8
WHITE
 10
129.227948
 20
83.876284
 30
0.000000
 40
1.935825
 50
169.717527
 51
296.781820
  6
CONTINUOUS
  0
ARC
  8
WHITE
 10
135.460785
 20
82.694569
 30
0.000000
 40
8.279650
 50
141.724135
 51
169.370366
  6
CONTINUOUS
  0
ARC
  8
WHITE
 10
126.457008
 20
88.390014
 30
0.000000
 40
2.567254
 50
-12.750971
 51
13.250989
  6
CONTINUOUS
  0
ARC
  8
WHITE
 10
140.531982
 20
93.042555
 30
0.000000
 40
12.268750
 50
175.931472
 51
199.344955
  6
CONTINUOUS
  0
ARC
  8
WHITE
 10
132.113604
 20
92.156643
 30
0.000000
 40
4.203935
 50
102.882644
 51
155.304678
  6
CONTINUOUS
  0
LINE
  8
WHITE
 10
131.176316
 20
96.254760
 30
0.000000
 11
131.249914
 21
92.380100
 31
0.000000
  6
CONTINUOUS
  0
LINE
  8
WHITE
 10
131.249914
 20
92.380100
 30
0.000000
 11
132.299914
 21
92.401100
 31
0.000000
  6
CONTINUOUS
  0
LINE
  8
WHITE
 10
132.299914
 20
92.401100
 30
0.000000
 11
132.226414
 21
96.170600
 31
0.000000
  6
CONTINUOUS
  0
ARC
  8
WHITE
 10
131.743481
 20
92.049445
 30
0.000000
 40
4.149355
 50
23.093833
 51
83.316330
  6
CONTINUOUS
  0
ARC
  8
WHITE
 10
127.994914
 20
92.652100
 30
0.000000
 40
7.634512
 50
-21.281000
 51
7.714849
  6
CONTINUOUS
  0
ARC
  8
WHITE
 10
135.733732
 20
89.481315
 30
0.000000
 40
0.741906
 50
147.383030
 51
304.938130
  6
CONTINUOUS
  0
ARC
  8
WHITE
 10
134.945551
 20
91.198911
 30
0.000000
 40
2.623131
 50
-62.454748
 51
-31.484325
  6
CONTINUOUS
  0
ARC
  8
WHITE
 10
137.699414
 20
89.430600
 30
0.000000
 40
0.652581
 50
67.524800
 51
142.381050
  6
CONTINUOUS
  0
ARC
  8
WHITE
 10
138.527283
 20
97.898073
 30
0.000000
 40
7.885629
 50
-94.206119
 51
-47.028825
  6
CONTINUOUS
  0
ARC
  8
WHITE
 10
115.067040
 20
135.418184
 30
0.000000
 40
52.014423
 50
-56.332546
 51
-41.490241
  6
CONTINUOUS
  0
ARC
  8
WHITE
 10
137.367142
 20
129.198914
 30
0.000000
 40
32.789065
 50
-59.458297
 51
-50.889469
  6
CONTINUOUS
  0
ARC
  8
WHITE
 10
161.574578
 20
101.804667
 30
0.000000
 40
4.028165
 50
112.300512
 51
151.011063
  6
CONTINUOUS
  0
ARC
  8
WHITE
 10
160.335914
 20
107.364100
 30
0.000000
 40
1.855335
 50
-98.988856
 51
-28.397000
  6
CONTINUOUS
  0
ARC
  8
WHITE
 10
164.172059
 20
105.242487
 30
0.000000
 40
2.528590
 50
51.907453
 51
150.652622
  6
CONTINUOUS
  0
ARC
  8
WHITE
 10
166.376414
 20
108.187600
 30
0.000000
 40
1.152127
 50
-124.007349
 51
-16.659000
  6
CONTINUOUS
  0
ARC
  8
WHITE
 10
168.987414
 20
107.390100
 30
0.000000
 40
1.577965
 50
34.438800
 51
162.777508
  6
CONTINUOUS
  0
ARC
  8
WHITE
 10
180.778114
 20
120.956348
 30
0.000000
 40
16.451451
 50
-129.612190
 51
-114.649689
  6
CONTINUOUS
  0
ARC
  8
WHITE
 10
184.639527
 20
131.430974
 30
0.000000
 40
27.595426
 50
-112.865665
 51
-99.300057
  6
CONTINUOUS
  0
ARC
  8
WHITE
 10
174.678494
 20
76.829535
 30
0.000000
 40
27.916200
 50
44.064158
 51
78.634254
  6
CONTINUOUS
  0
ARC
  8
WHITE
 10
197.856414
 20
99.420600
 30
0.000000
 40
4.451273
 50
-134.472507
 51
-71.072000
  6
CONTINUOUS
  0
ARC
  8
WHITE
 10
199.909876
 20
93.986882
 30
0.000000
 40
1.366685
 50
7.720245
 51
116.489264
  6
CONTINUOUS
  0
ARC
  8
WHITE
 10
198.171914
 20
93.230100
 30
0.000000
 40
3.232085
 50
-12.083000
 51
16.914888
  6
CONTINUOUS
  0
ARC
  8
WHITE
 10
202.896973
 20
91.839729
 30
0.000000
 40
1.719731
 50
155.476334
 51
223.399771
  6
CONTINUOUS
  0
LINE
  8
WHITE
 10
201.647455
 20
90.658128
 30
0.000000
 11
199.615414
 21
88.794600
 31
0.000000
  6
CONTINUOUS
  0
LINE
  8
WHITE
 10
199.615414
 20
88.794600
 30
0.000000
 11
199.211414
 21
89.219600
 31
0.000000
  6
CONTINUOUS
  0
LINE
  8
WHITE
 10
199.211414
 20
89.219600
 30
0.000000
 11
196.486414
 21
92.065100
 31
0.000000
  6
CONTINUOUS
  0
LINE
  8
WHITE
 10
196.486414
 20
92.065100
 30
0.000000
 11
195.725414
 21
91.335600
 31
0.000000
  6
CONTINUOUS
  0
LINE
  8
WHITE
 10
195.725414
 20
91.335600
 30
0.000000
 11
198.854414
 21
88.070100
 31
0.000000
  6
CONTINUOUS
  0
LINE
  8
WHITE
 10
198.854414
 20
88.070100
 30
0.000000
 11
195.877414
 21
85.387100
 31
0.000000
  6
CONTINUOUS
  0
LINE
  8
WHITE
 10
195.877414
 20
85.387100
 30
0.000000
 11
188.396414
 21
92.963100
 31
0.000000
  6
CONTINUOUS
  0
ARC
  8
WHITE
 10
170.106860
 20
77.516073
 30
0.000000
 40
23.939893
 50
40.183832
 51
85.715857
  6
CONTINUOUS
  0
ARC
  8
WHITE
 10
171.482414
 20
103.541100
 30
0.000000
 40
2.191264
 50
-134.264000
 51
-79.140927
  6
CONTINUOUS
  0
ARC
  8
WHITE
 10
169.244414
 20
101.478600
 30
0.000000
 40
0.863343
 50
34.843158
 51
176.171000
  6
CONTINUOUS
  0
ARC
  8
WHITE
 10
166.613186
 20
101.604088
 30
0.000000
 40
1.771170
 50
-86.913603
 51
-2.195051
  6
CONTINUOUS
  0
ARC
  8
WHITE
 10
166.157163
 20
82.048077
 30
0.000000
 40
17.795954
 50
88.224477
 51
114.561259
  6
CONTINUOUS
  0
ARC
  8
WHITE
 10
100.645414
 20
127.497100
 30
0.000000
 40
40.616450
 50
-92.523000
 51
-77.599000
  6
CONTINUOUS
  0
ARC
  8
WHITE
 10
109.793088
 20
85.948884
 30
0.000000
 40
1.926905
 50
38.809441
 51
102.747917
  6
CONTINUOUS
  0
ARC
  8
WHITE
 10
113.104818
 20
87.771383
 30
0.000000
 40
1.911787
 50
-161.239816
 51
-40.417589
  6
CONTINUOUS
  0
ARC
  8
WHITE
 10
115.072414
 20
85.472100
 30
0.000000
 40
1.177002
 50
23.624900
 51
115.789719
  6
CONTINUOUS
  0
ARC
  8
WHITE
 10
110.030414
 20
85.814600
 30
0.000000
 40
6.121773
 50
-61.254000
 51
1.209350
  6
CONTINUOUS
  0
ARC
  8
WHITE
 10
115.448175
 20
76.952784
 30
0.000000
 40
4.281363
 50
125.293443
 51
209.732414
  6
CONTINUOUS
  0
ARC
  8
WHITE
 10
113.956923
 20
74.970461
 30
0.000000
 40
2.230936
 50
-176.375900
 51
-88.937160
  6
CONTINUOUS
  0
ARC
  8
WHITE
 10
115.240032
 20
69.998933
 30
0.000000
 40
3.009125
 50
35.170882
 51
114.371655
  6
CONTINUOUS
  0
ARC
  8
WHITE
 10
110.407443
 20
66.655909
 30
0.000000
 40
8.885250
 50
-5.362000
 51
34.842407
  6
CONTINUOUS
  0
ARC
  8
WHITE
 10
120.303825
 20
65.452348
 30
0.000000
 40
1.114380
 50
160.431003
 51
258.301884
  6
CONTINUOUS
  0
ARC
  8
WHITE
 10
119.767660
 20
70.308613
 30
0.000000
 40
5.955584
 50
-87.014189
 51
-25.473129
  6
CONTINUOUS
  0
ARC
  8
WHITE
 10
122.875807
 20
69.112922
 30
0.000000
 40
2.647870
 50
-31.049977
 51
43.136823
  6
CONTINUOUS
  0
ARC
  8
WHITE
 10
129.926914
 20
74.514178
 30
0.000000
 40
6.252750
 50
179.900130
 51
215.048824
  6
CONTINUOUS
  0
ARC
  8
WHITE
 10
137.969914
 20
73.286100
 30
0.000000
 40
14.349330
 50
155.902000
 51
175.046693
  6
CONTINUOUS
  0
ARC
  8
WHITE
 10
122.236070
 20
80.709862
 30
0.000000
 40
3.064735
 50
-30.705727
 51
36.216270
  6
CONTINUOUS
  0
ARC
  8
WHITE
 10
116.127414
 20
74.590100
 30
0.000000
 40
11.684652
 50
42.743079
 51
59.293800
  6
CONTINUOUS
  0
ARC
  8
WHITE
 10
123.322914
 20
86.230600
 30
0.000000
 40
2.012823
 50
157.070000
 51
232.370937
  6
CONTINUOUS
  0
LINE
  8
WHITE
 10
121.469144
 20
87.014807
 30
0.000000
 11
120.041414
 21
87.886100
 31
0.000000
  6
CONTINUOUS
  0
LINE
  8
WHITE
 10
120.041414
 20
87.886100
 30
0.000000
 11
117.158914
 21
89.639600
 31
0.000000
  6
CONTINUOUS
  0
LINE
  8
WHITE
 10
117.158914
 20
89.639600
 30
0.000000
 11
117.704914
 21
90.537600
 31
0.000000
  6
CONTINUOUS
  0
LINE
  8
WHITE
 10
117.704914
 20
90.537600
 30
0.000000
 11
120.634414
 21
88.752600
 31
0.000000
  6
CONTINUOUS
  0
LINE
  8
WHITE
 10
120.634414
 20
88.752600
 30
0.000000
 11
121.778914
 21
88.054100
 31
0.000000
  6
CONTINUOUS
  0
ARC
  8
WHITE
 10
111.394914
 20
95.693600
 30
0.000000
 40
12.891447
 50
-36.341886
 51
-28.009000
  6
CONTINUOUS
  0
ARC
  8
WHITE
 10
119.832414
 20
90.162600
 30
0.000000
 40
2.990111
 50
-10.072580
 51
77.656300
  6
CONTINUOUS
  0
ARC
  8
WHITE
 10
124.525007
 20
96.437677
 30
0.000000
 40
5.261200
 50
-167.678711
 51
-140.392593
  6
CONTINUOUS
  0
ARC
  8
WHITE
 10
117.225914
 20
94.806100
 30
0.000000
 40
2.218234
 50
13.261989
 51
145.394000
  6
CONTINUOUS
  0
ARC
  8
WHITE
 10
113.995914
 20
96.658100
 30
0.000000
 40
1.524032
 50
-111.108000
 51
-22.866796
  6
CONTINUOUS
  0
ARC
  8
WHITE
 10
111.531914
 20
92.852600
 30
0.000000
 40
3.057835
 50
51.220968
 51
92.086400
  6
CONTINUOUS
  0
ARC
  8
WHITE
 10
114.202905
 20
91.549732
 30
0.000000
 40
5.171052
 50
122.551423
 51
147.848771
  6
CONTINUOUS
  0
ARC
  8
WHITE
 10
95.022415
 20
135.241595
 30
0.000000
 40
43.533900
 50
-90.301316
 51
-70.121850
  6
CONTINUOUS
  0
ARC
  8
WHITE
 10
95.009414
 20
113.091600
 30
0.000000
 40
21.384394
 50
-123.920000
 51
-90.578589
  6
CONTINUOUS
  0
ARC
  8
WHITE
 10
81.165914
 20
93.572100
 30
0.000000
 40
2.607282
 50
42.888042
 51
112.137000
  6
CONTINUOUS
  0
ARC
  8
WHITE
 10
79.374135
 20
97.231247
 30
0.000000
 40
1.484040
 50
-117.809815
 51
-56.954164
  6
CONTINUOUS
  0
ARC
  8
WHITE
 10
75.107555
 20
93.108921
 30
0.000000
 40
4.546362
 50
38.170864
 51
66.178031
  6
CONTINUOUS
  0
ARC
  8
WHITE
 10
77.065561
 20
94.476085
 30
0.000000
 40
2.794524
 50
92.496970
 51
153.939528
  6
CONTINUOUS
  0
LINE
  8
WHITE
 10
74.555153
 20
95.703773
 30
0.000000
 11
78.083414
 21
93.955100
 31
0.000000
  6
CONTINUOUS
  0
LINE
  8
WHITE
 10
78.083414
 20
93.955100
 30
0.000000
 11
77.621414
 21
93.015600
 31
0.000000
  6
CONTINUOUS
  0
LINE
  8
WHITE
 10
77.621414
 20
93.015600
 30
0.000000
 11
74.145914
 21
94.732100
 31
0.000000
  6
CONTINUOUS
  0
ARC
  8
WHITE
 10
76.298305
 20
93.506408
 30
0.000000
 40
2.476915
 50
150.340386
 51
222.466431
  6
CONTINUOUS
  0
ARC
  8
WHITE
 10
73.573914
 20
88.689100
 30
0.000000
 40
3.270482
 50
44.553600
 51
74.077069
  6
CONTINUOUS
  0
ARC
  8
WHITE
 10
77.616932
 20
90.862346
 30
0.000000
 40
1.716755
 50
175.949311
 51
271.378222
  6
CONTINUOUS
  0
ARC
  8
WHITE
 10
82.440414
 20
65.949600
 30
0.000000
 40
23.684306
 50
92.680600
 51
101.648902
  6
CONTINUOUS
  0
ARC
  8
WHITE
 10
59.738915
 20
-96.749013
 30
0.000000
 40
187.604000
 50
80.964165
 51
83.390422
  6
CONTINUOUS
  0
ARC
  8
WHITE
 10
100.649498
 20
127.497282
 30
0.000000
 40
40.616811
 50
-106.369354
 51
-92.528744
  6
CONTINUOUS
  0
ARC
  8
WHITE
 10
44.297064
 20
-108.532900
 30
0.000000
 40
187.603000
 50
72.959900
 51
75.388314
  6
CONTINUOUS
  0
ARC
  8
WHITE
 10
96.714607
 20
113.131943
 30
0.000000
 40
40.450964
 50
-126.109780
 51
-97.230944
  6
CONTINUOUS
  0
ARC
  8
WHITE
 10
71.733295
 20
78.903188
 30
0.000000
 40
1.924450
 50
53.593774
 51
117.536776
  6
CONTINUOUS
  0
ARC
  8
WHITE
 10
69.430345
 20
81.896332
 30
0.000000
 40
1.911247
 50
-163.391689
 51
-42.316745
  6
CONTINUOUS
  0
ARC
  8
WHITE
 10
66.705548
 20
80.583444
 30
0.000000
 40
1.177130
 50
40.635578
 51
132.606053
  6
CONTINUOUS
  0
ARC
  8
WHITE
 10
71.462716
 20
78.874172
 30
0.000000
 40
6.122200
 50
155.120589
 51
217.594898
  6
CONTINUOUS
  0
ARC
  8
WHITE
 10
62.942077
 20
72.928221
 30
0.000000
 40
4.284319
 50
-53.359160
 51
31.068137
  6
CONTINUOUS
  0
ARC
  8
WHITE
 10
63.515414
 20
70.514600
 30
0.000000
 40
2.232295
 50
-114.775848
 51
-27.307000
  6
CONTINUOUS
  0
ARC
  8
WHITE
 10
60.342914
 20
66.477100
 30
0.000000
 40
3.007830
 50
41.949900
 51
121.210300
  6
CONTINUOUS
  0
ARC
  8
WHITE
 10
63.425588
 20
61.468706
 30
0.000000
 40
8.888750
 50
121.476311
 51
161.654277
  6
CONTINUOUS
  0
ARC
  8
WHITE
 10
53.880414
 20
64.339600
 30
0.000000
 40
1.110610
 50
-101.997245
 51
-3.777000
  6
CONTINUOUS
  0
ARC
  8
WHITE
 10
56.321922
 20
68.576369
 30
0.000000
 40
5.956247
 50
-178.236777
 51
-116.658057
  6
CONTINUOUS
  0
ARC
  8
WHITE
 10
52.994364
 20
68.730600
 30
0.000000
 40
2.647470
 50
113.140134
 51
187.324000
  6
CONTINUOUS
  0
ARC
  8
WHITE
 10
48.697564
 20
76.502600
 30
0.000000
 40
6.252550
 50
-58.613000
 51
-23.488222
  6
CONTINUOUS
  0
ARC
  8
WHITE
 10
40.839514
 20
78.624100
 30
0.000000
 40
14.354050
 50
-18.748000
 51
0.381352
  6
CONTINUOUS
  0
ARC
  8
WHITE
 10
58.231914
 20
79.095600
 30
0.000000
 40
3.061900
 50
120.130360
 51
187.053000
  6
CONTINUOUS
  0
ARC
  8
WHITE
 10
61.366600
 20
71.038684
 30
0.000000
 40
11.680047
 50
97.019852
 51
113.576246
  6
CONTINUOUS
  0
ARC
  8
WHITE
 10
59.452414
 20
84.586100
 30
0.000000
 40
2.014605
 50
-76.019000
 51
-0.654130
  6
CONTINUOUS
  0
LINE
  8
WHITE
 10
61.466914
 20
84.563100
 30
0.000000
 11
63.120914
 21
84.788600
 31
0.000000
  6
CONTINUOUS
  0
LINE
  8
WHITE
 10
63.120914
 20
84.788600
 30
0.000000
 11
66.464914
 21
85.240100
 31
0.000000
  6
CONTINUOUS
  0
LINE
  8
WHITE
 10
66.464914
 20
85.240100
 30
0.000000
 11
66.328414
 21
86.279600
 31
0.000000
  6
CONTINUOUS
  0
LINE
  8
WHITE
 10
66.328414
 20
86.279600
 30
0.000000
 11
62.931914
 21
85.823100
 31
0.000000
  6
CONTINUOUS
  0
LINE
  8
WHITE
 10
62.931914
 20
85.823100
 30
0.000000
 11
61.598084
 21
85.639454
 31
0.000000
  6
CONTINUOUS
  0
ARC
  8
WHITE
 10
74.176977
 20
88.474780
 30
0.000000
 40
12.894481
 50
-175.630216
 51
-167.297617
  6
CONTINUOUS
  0
ARC
  8
WHITE
 10
64.228914
 20
86.789100
 30
0.000000
 40
2.992725
 50
78.682091
 51
166.410000
  6
CONTINUOUS
  0
ARC
  8
WHITE
 10
62.449081
 20
94.422932
 30
0.000000
 40
5.261900
 50
-63.264940
 51
-35.994112
  6
CONTINUOUS
  0
ARC
  8
WHITE
 10
68.477414
 20
89.996600
 30
0.000000
 40
2.217185
 50
10.922910
 51
143.014000
  6
CONTINUOUS
  0
ARC
  8
WHITE
 10
72.177413
 20
90.394978
 30
0.000000
 40
1.523225
 50
179.182427
 51
267.616754
  6
CONTINUOUS
  0
ARC
  8
WHITE
 10
72.906414
 20
85.922600
 30
0.000000
 40
3.055010
 50
64.219529
 51
105.032000
  6
CONTINUOUS
  0
ARC
  8
WHITE
 10
69.946488
 20
85.794614
 30
0.000000
 40
5.165310
 50
8.559788
 51
33.873130
  6
CONTINUOUS
  0
ARC
  8
WHITE
 10
105.037290
 20
118.120768
 30
0.000000
 40
43.529850
 50
-133.534590
 51
-113.356403
  6
CONTINUOUS
  0
ARC
  8
WHITE
 10
96.165107
 20
97.829518
 30
0.000000
 40
21.384200
 50
-113.086562
 51
-79.734694
  6
CONTINUOUS
  0
ARC
  8
WHITE
 10
101.015504
 20
74.393508
 30
0.000000
 40
2.610075
 50
44.277075
 51
113.472001
  6
CONTINUOUS
  0
ARC
  8
WHITE
 10
104.124914
 20
77.028600
 30
0.000000
 40
1.483275
 50
-146.766000
 51
-86.000817
  6
CONTINUOUS
  0
ARC
  8
WHITE
 10
106.367914
 20
71.542600
 30
0.000000
 40
4.541870
 50
90.035782
 51
118.104000
  6
CONTINUOUS
  0
ARC
  8
WHITE
 10
105.130914
 20
73.575600
 30
0.000000
 40
2.795995
 50
2.459735
 51
63.806500
  6
CONTINUOUS
  0
LINE
  8
WHITE
 10
107.924414
 20
73.695600
 30
0.000000
 11
103.986914
 21
73.511600
 31
0.000000
  6
CONTINUOUS
  0
LINE
  8
WHITE
 10
103.986914
 20
73.511600
 30
0.000000
 11
104.033914
 21
72.461600
 31
0.000000
  6
CONTINUOUS
  0
LINE
  8
WHITE
 10
104.033914
 20
72.461600
 30
0.000000
 11
107.908382
 21
72.640359
 31
0.000000
  6
CONTINUOUS
  0
ARC
  8
WHITE
 10
105.446276
 20
72.383538
 30
0.000000
 40
2.475465
 50
-66.098852
 51
5.954943
  6
CONTINUOUS
  0
ARC
  8
WHITE
 10
106.011155
 20
66.875635
 30
0.000000
 40
3.274160
 50
82.310828
 51
111.797755
  6
CONTINUOUS
  0
ARC
  8
WHITE
 10
103.176719
 20
70.492691
 30
0.000000
 40
1.718405
 50
-114.880477
 51
-19.619661
  6
CONTINUOUS
  0
ARC
  8
WHITE
 10
88.754331
 20
49.615113
 30
0.000000
 40
23.683000
 50
54.658471
 51
63.632959
  6
CONTINUOUS
  0
ARC
  8
WHITE
 10
160.660914
 20
98.449100
 30
0.000000
 40
36.487600
 50
-92.384000
 51
-79.471000
  6
CONTINUOUS
  0
ARC
  8
WHITE
 10
176.819359
 20
34.593241
 30
0.000000
 40
29.548350
 50
93.615607
 51
108.735552
  6
CONTINUOUS
  0
ARC
  8
WHITE
 10
174.882914
 20
61.625600
 30
0.000000
 40
2.458264
 50
27.337900
 51
88.297010
  6
CONTINUOUS
  0
ARC
  8
WHITE
 10
177.950300
 20
63.579222
 30
0.000000
 40
1.208716
 50
-136.977240
 51
-21.153455
  6
CONTINUOUS
  0
ARC
  8
WHITE
 10
190.142414
 20
46.294750
 30
0.000000
 40
20.156775
 50
111.091000
 51
123.294273
  6
CONTINUOUS
  0
ARC
  8
WHITE
 10
180.988221
 20
70.902537
 30
0.000000
 40
6.104691
 50
-71.858893
 51
-28.171616
  6
CONTINUOUS
  0
ARC
  8
WHITE
 10
192.286914
 20
61.479100
 30
0.000000
 40
8.820542
 50
107.317000
 51
132.131997
  6
CONTINUOUS
  0
ARC
  8
WHITE
 10
194.839414
 20
65.233600
 30
0.000000
 40
6.970290
 50
115.152000
 51
137.976161
  6
CONTINUOUS
  0
ARC
  8
WHITE
 10
229.139724
 20
-69.846720
 30
0.000000
 40
146.217500
 50
103.976595
 51
104.764406
  6
CONTINUOUS
  0
ARC
  8
WHITE
 10
192.034449
 20
78.047759
 30
0.000000
 40
6.266906
 50
-73.403484
 51
-58.423929
  6
CONTINUOUS
  0
ARC
  8
WHITE
 10
195.595224
 20
72.276171
 30
0.000000
 40
0.514830
 50
-77.171355
 51
122.845886
  6
CONTINUOUS
  0
ARC
  8
WHITE
 10
198.780748
 20
66.156055
 30
0.000000
 40
6.402796
 50
118.663683
 51
140.053913
  6
CONTINUOUS
  0
ARC
  8
WHITE
 10
191.758736
 20
71.665737
 30
0.000000
 40
2.534235
 50
-67.012909
 51
-33.497886
  6
CONTINUOUS
  0
ARC
  8
WHITE
 10
186.421968
 20
81.675479
 30
0.000000
 40
13.869650
 50
-70.218625
 51
-62.861947
  6
CONTINUOUS
  0
ARC
  8
WHITE
 10
196.537914
 20
62.874100
 30
0.000000
 40
7.903330
 50
133.317572
 51
145.241000
  6
CONTINUOUS
  0
ARC
  8
WHITE
 10
190.743511
 20
67.562731
 30
0.000000
 40
0.722152
 50
-165.343081
 51
-95.900642
  6
CONTINUOUS
  0
ARC
  8
WHITE
 10
189.865131
 20
70.665646
 30
0.000000
 40
3.904936
 50
-78.116109
 51
-47.212791
  6
CONTINUOUS
  0
ARC
  8
WHITE
 10
191.896670
 20
69.441697
 30
0.000000
 40
1.755330
 50
-69.281438
 51
-34.579327
  6
CONTINUOUS
  0
ARC
  8
WHITE
 10
194.654640
 20
60.428633
 30
0.000000
 40
8.123600
 50
87.593531
 51
99.299499
  6
CONTINUOUS
  0
ARC
  8
WHITE
 10
194.305821
 20
71.085439
 30
0.000000
 40
2.632388
 50
-74.806026
 51
-39.782033
  6
CONTINUOUS
  0
ARC
  8
WHITE
 10
197.178414
 20
67.731600
 30
0.000000
 40
1.873227
 50
51.694200
 51
116.973150
  6
CONTINUOUS
  0
ARC
  8
WHITE
 10
198.133914
 20
72.813100
 30
0.000000
 40
3.617434
 50
-86.741637
 51
-58.092000
  6
CONTINUOUS
  0
ARC
  8
WHITE
 10
200.373914
 20
66.849100
 30
0.000000
 40
2.911617
 50
64.862800
 51
96.466885
  6
CONTINUOUS
  0
ARC
  8
WHITE
 10
201.972204
 20
70.807521
 30
0.000000
 40
1.371069
 50
-105.286409
 51
-42.652761
  6
CONTINUOUS
  0
ARC
  8
WHITE
 10
205.868009
 20
58.633177
 30
0.000000
 40
11.610150
 50
94.018015
 51
104.400477
  6
CONTINUOUS
  0
ARC
  8
WHITE
 10
205.147011
 20
69.610417
 30
0.000000
 40
0.611415
 50
-84.404777
 51
98.704101
  6
CONTINUOUS
  0
ARC
  8
WHITE
 10
208.777664
 20
46.264632
 30
0.000000
 40
23.016002
 50
98.925768
 51
110.178147
  6
CONTINUOUS
  0
ARC
  8
WHITE
 10
199.873537
 20
71.852687
 30
0.000000
 40
4.099850
 50
-102.964586
 51
-76.386549
  6
CONTINUOUS
  0
ARC
  8
WHITE
 10
196.002280
 20
72.771131
 30
0.000000
 40
5.732050
 50
-85.156668
 51
-59.008902
  6
CONTINUOUS
  0
ARC
  8
WHITE
 10
196.172631
 20
66.009535
 30
0.000000
 40
1.095847
 50
73.370369
 51
139.718751
  6
CONTINUOUS
  0
ARC
  8
WHITE
 10
194.066117
 20
67.505633
 30
0.000000
 40
1.494825
 50
-80.705881
 51
-31.794677
  6
CONTINUOUS
  0
ARC
  8
WHITE
 10
191.982914
 20
76.719600
 30
0.000000
 40
10.939021
 50
-85.104000
 51
-77.730678
  6
CONTINUOUS
  0
ARC
  8
WHITE
 10
192.822323
 20
65.182040
 30
0.000000
 40
0.645338
 50
81.605569
 51
281.702605
  6
CONTINUOUS
  0
ARC
  8
WHITE
 10
193.102676
 20
67.312613
 30
0.000000
 40
2.766537
 50
-93.096830
 51
-51.984273
  6
CONTINUOUS
  0
ARC
  8
WHITE
 10
195.925044
 20
61.421180
 30
0.000000
 40
3.876705
 50
77.887197
 51
106.769561
  6
CONTINUOUS
  0
ARC
  8
WHITE
 10
196.521765
 20
69.374118
 30
0.000000
 40
4.168183
 50
-87.019148
 51
-58.632249
  6
CONTINUOUS
  0
ARC
  8
WHITE
 10
199.467801
 20
64.964719
 30
0.000000
 40
1.151510
 50
43.858521
 51
132.393844
  6
CONTINUOUS
  0
ARC
  8
WHITE
 10
201.023581
 20
67.684726
 30
0.000000
 40
2.054502
 50
-110.678108
 51
-62.161409
  6
CONTINUOUS
  0
ARC
  8
WHITE
 10
202.667766
 20
63.736219
 30
0.000000
 40
2.239060
 50
51.129230
 51
107.808042
  6
CONTINUOUS
  0
ARC
  8
WHITE
 10
204.980414
 20
66.519100
 30
0.000000
 40
1.379989
 50
-131.117614
 51
-79.003000
  6
CONTINUOUS
  0
ARC
  8
WHITE
 10
201.449104
 20
-31.103848
 30
0.000000
 40
96.343000
 50
86.298452
 51
87.742765
  6
CONTINUOUS
  0
ARC
  8
WHITE
 10
207.506742
 20
64.420127
 30
0.000000
 40
0.638970
 50
-85.328516
 51
75.295143
  6
CONTINUOUS
  0
ARC
  8
WHITE
 10
206.292453
 20
74.220439
 30
0.000000
 40
10.513700
 50
-98.811727
 51
-83.082181
  6
CONTINUOUS
  0
ARC
  8
WHITE
 10
204.349914
 20
66.188100
 30
0.000000
 40
2.380528
 50
-100.388000
 51
-81.983975
  6
CONTINUOUS
  0
ARC
  8
WHITE
 10
204.884236
 20
57.452374
 30
0.000000
 40
6.466394
 50
98.569633
 51
104.603236
  6
CONTINUOUS
  0
ARC
  8
WHITE
 10
202.704559
 20
65.164004
 30
0.000000
 40
1.554440
 50
-123.484393
 51
-69.304381
  6
CONTINUOUS
  0
ARC
  8
WHITE
 10
201.512414
 20
60.565600
 30
0.000000
 40
3.318850
 50
84.214677
 51
117.849000
  6
CONTINUOUS
  0
ARC
  8
WHITE
 10
199.097726
 20
66.665666
 30
0.000000
 40
3.281500
 50
-109.278521
 51
-74.728505
  6
CONTINUOUS
  0
ARC
  8
WHITE
 10
197.618136
 20
61.924667
 30
0.000000
 40
1.690584
 50
76.447378
 51
139.971672
  6
CONTINUOUS
  0
ARC
  8
WHITE
 10
194.726914
 20
67.028100
 30
0.000000
 40
4.321869
 50
-96.475000
 51
-68.318552
  6
CONTINUOUS
  0
ARC
  8
WHITE
 10
187.758414
 20
104.261600
 30
0.000000
 40
42.030586
 50
-82.432000
 51
-81.129601
  6
CONTINUOUS
  0
ARC
  8
WHITE
 10
193.462626
 20
62.039664
 30
0.000000
 40
0.582362
 50
106.834698
 51
256.420224
  6
CONTINUOUS
  0
ARC
  8
WHITE
 10
194.173914
 20
63.536600
 30
0.000000
 40
2.230513
 50
-112.345659
 51
-56.665000
  6
CONTINUOUS
  0
ARC
  8
WHITE
 10
196.575972
 20
59.431252
 30
0.000000
 40
2.531705
 50
71.002317
 51
117.686733
  6
CONTINUOUS
  0
ARC
  8
WHITE
 10
200.687364
 20
71.427159
 30
0.000000
 40
10.149202
 50
-108.898463
 51
-104.105937
  6
CONTINUOUS
  0
ARC
  8
WHITE
 10
197.935045
 20
66.729634
 30
0.000000
 40
5.153193
 50
-86.898637
 51
-72.504797
  6
CONTINUOUS
  0
ARC
  8
WHITE
 10
199.725414
 20
60.093100
 30
0.000000
 40
1.738528
 50
46.941600
 51
97.974371
  6
CONTINUOUS
  0
ARC
  8
WHITE
 10
201.697031
 20
62.528522
 30
0.000000
 40
1.404639
 50
-123.956928
 51
-67.927197
  6
CONTINUOUS
  0
ARC
  8
WHITE
 10
202.678341
 20
59.903191
 30
0.000000
 40
1.399165
 50
38.828321
 51
108.911048
  6
CONTINUOUS
  0
ARC
  8
WHITE
 10
204.935914
 20
61.798100
 30
0.000000
 40
1.548826
 50
-138.925105
 51
-87.756000
  6
CONTINUOUS
  0
ARC
  8
WHITE
 10
198.513914
 20
18.820550
 30
0.000000
 40
41.933931
 50
79.607900
 51
81.106868
  6
CONTINUOUS
  0
ARC
  8
WHITE
 10
205.991063
 20
59.573529
 30
0.000000
 40
0.500625
 50
-109.197682
 51
79.989021
  6
CONTINUOUS
  0
ARC
  8
WHITE
 10
205.160101
 20
57.997987
 30
0.000000
 40
1.288443
 50
58.857484
 51
97.988631
  6
CONTINUOUS
  0
ARC
  8
WHITE
 10
201.898414
 20
94.138100
 30
0.000000
 40
35.000188
 50
-88.039000
 51
-84.947157
  6
CONTINUOUS
  0
ARC
  8
WHITE
 10
202.806774
 20
61.169206
 30
0.000000
 40
2.031565
 50
-127.000046
 51
-81.812487
  6
CONTINUOUS
  0
ARC
  8
WHITE
 10
201.093414
 20
56.800600
 30
0.000000
 40
2.789629
 50
79.868205
 51
112.172000
  6
CONTINUOUS
  0
ARC
  8
WHITE
 10
199.646650
 20
61.431456
 30
0.000000
 40
2.085165
 50
-121.405599
 51
-79.107476
  6
CONTINUOUS
  0
ARC
  8
WHITE
 10
197.930414
 20
58.302600
 30
0.000000
 40
1.488872
 50
64.981034
 51
134.869000
  6
CONTINUOUS
  0
ARC
  8
WHITE
 10
196.690058
 20
78.420444
 30
0.000000
 40
19.063600
 50
-95.416962
 51
-89.429006
  6
CONTINUOUS
  0
ARC
  8
WHITE
 10
194.347414
 20
54.843100
 30
0.000000
 40
4.630825
 50
83.266361
 51
90.814300
  6
CONTINUOUS
  0
ARC
  8
WHITE
 10
194.455414
 20
58.998600
 30
0.000000
 40
0.505682
 50
110.103585
 51
277.095000
  6
CONTINUOUS
  0
ARC
  8
WHITE
 10
194.897244
 20
55.892251
 30
0.000000
 40
2.632115
 50
48.428441
 51
98.287231
  6
CONTINUOUS
  0
ARC
  8
WHITE
 10
197.699466
 20
59.552380
 30
0.000000
 40
1.993444
 50
-121.976418
 51
-78.460969
  6
CONTINUOUS
  0
ARC
  8
WHITE
 10
198.003414
 20
55.420600
 30
0.000000
 40
2.180688
 50
35.292400
 51
87.508143
  6
CONTINUOUS
  0
ARC
  8
WHITE
 10
200.705914
 20
57.232600
 30
0.000000
 40
1.075152
 50
-149.102407
 51
-99.199000
  6
CONTINUOUS
  0
ARC
  8
WHITE
 10
200.344934
 20
55.284322
 30
0.000000
 40
0.906790
 50
-5.024101
 51
77.964177
  6
CONTINUOUS
  0
ARC
  8
WHITE
 10
200.688149
 20
55.126952
 30
0.000000
 40
0.565490
 50
-122.173125
 51
7.924000
  6
CONTINUOUS
  0
ARC
  8
WHITE
 10
201.686356
 20
58.264341
 30
0.000000
 40
3.842395
 50
-128.885040
 51
-109.764403
  6
CONTINUOUS
  0
ARC
  8
WHITE
 10
198.808414
 20
53.252100
 30
0.000000
 40
2.074279
 50
77.021847
 51
102.316000
  6
CONTINUOUS
  0
ARC
  8
WHITE
 10
198.537914
 20
56.849100
 30
0.000000
 40
1.579881
 50
-147.850000
 51
-96.248008
  6
CONTINUOUS
  0
ARC
  8
WHITE
 10
196.800914
 20
55.751100
 30
0.000000
 40
0.475091
 50
32.790068
 51
120.488000
  6
CONTINUOUS
  0
ARC
  8
WHITE
 10
196.056414
 20
57.452100
 30
0.000000
 40
1.386269
 50
-130.093000
 51
-68.704274
  6
CONTINUOUS
  0
ARC
  8
WHITE
 10
193.853688
 20
54.569403
 30
0.000000
 40
2.244225
 50
54.288656
 51
123.113113
  6
CONTINUOUS
  0
ARC
  8
WHITE
 10
191.676914
 20
58.796100
 30
0.000000
 40
2.532218
 50
-126.640000
 51
-67.946723
  6
CONTINUOUS
  0
ARC
  8
WHITE
 10
177.133488
 20
-266.693068
 30
0.000000
 40
323.719735
 50
87.692777
 51
88.503535
  6
CONTINUOUS
  0
ARC
  8
WHITE
 10
185.384183
 20
60.223403
 30
0.000000
 40
3.313390
 50
-126.260750
 51
-86.481739
  6
CONTINUOUS
  0
ARC
  8
WHITE
 10
181.554414
 20
49.403800
 30
0.000000
 40
8.359747
 50
77.073892
 51
100.634000
  6
CONTINUOUS
  0
ARC
  8
WHITE
 10
180.165403
 20
63.657374
 30
0.000000
 40
6.039300
 50
-114.838110
 51
-91.457965
  6
CONTINUOUS
  0
ARC
  8
WHITE
 10
177.133414
 20
57.026100
 30
0.000000
 40
1.252635
 50
66.716348
 51
157.022000
  6
CONTINUOUS
  0
ARC
  8
WHITE
 10
174.737665
 20
58.486398
 30
0.000000
 40
1.577160
 50
-128.836708
 51
-38.015027
  6
CONTINUOUS
  0
ARC
  8
WHITE
 10
168.655414
 20
49.808250
 30
0.000000
 40
9.024296
 50
55.640160
 51
98.289600
  6
CONTINUOUS
  0
ARC
  8
WHITE
 10
155.626761
 20
149.237606
 30
0.000000
 40
91.256000
 50
-90.168648
 51
-82.616346
  6
CONTINUOUS
  0
ARC
  8
WHITE
 10
152.486058
 20
36.089912
 30
0.000000
 40
22.079685
 50
82.525865
 51
100.368866
  6
CONTINUOUS
  0
ARC
  8
WHITE
 10
146.491414
 20
64.718100
 30
0.000000
 40
7.198494
 50
-90.758000
 51
-73.697834
  6
CONTINUOUS
  0
ARC
  8
WHITE
 10
146.475414
 20
59.137100
 30
0.000000
 40
1.618810
 50
-134.753000
 51
-92.805385
  6
CONTINUOUS
  0
ARC
  8
WHITE
 10
144.900414
 20
54.806100
 30
0.000000
 40
3.211091
 50
82.208628
 51
122.995000
  6
CONTINUOUS
  0
ARC
  8
WHITE
 10
142.205414
 20
59.358100
 30
0.000000
 40
2.085867
 50
-166.152000
 51
-63.018422
  6
CONTINUOUS
  0
ARC
  8
WHITE
 10
138.488936
 20
59.012340
 30
0.000000
 40
1.698097
 50
-5.186678
 51
93.692456
  6
CONTINUOUS
  0
ARC
  8
WHITE
 10
138.337309
 20
62.423401
 30
0.000000
 40
1.717010
 50
152.090504
 51
271.410603
  6
CONTINUOUS
  0
LINE
  8
WHITE
 10
136.820008
 20
63.227093
 30
0.000000
 11
137.203414
 21
64.366100
 31
0.000000
  6
CONTINUOUS
  0
LINE
  8
WHITE
 10
137.203414
 20
64.366100
 30
0.000000
 11
137.528914
 21
64.145600
 31
0.000000
  6
CONTINUOUS
  0
LINE
  8
WHITE
 10
137.528914
 20
64.145600
 30
0.000000
 11
140.804914
 21
61.956600
 31
0.000000
  6
CONTINUOUS
  0
LINE
  8
WHITE
 10
140.804914
 20
61.956600
 30
0.000000
 11
141.387914
 21
62.833100
 31
0.000000
  6
CONTINUOUS
  0
LINE
  8
WHITE
 10
141.387914
 20
62.833100
 30
0.000000
 11
138.164414
 21
64.985600
 31
0.000000
  6
CONTINUOUS
  0
LINE
  8
WHITE
 10
138.164414
 20
64.985600
 30
0.000000
 11
137.702414
 21
65.295600
 31
0.000000
  6
CONTINUOUS
  0
ARC
  8
WHITE
 10
140.064135
 20
64.344658
 30
0.000000
 40
2.545980
 50
104.680126
 51
158.067911
  6
CONTINUOUS
  0
ARC
  8
WHITE
 10
139.661707
 20
64.649318
 30
0.000000
 40
2.171820
 50
43.554947
 51
96.418314
  6
CONTINUOUS
  0
ARC
  8
WHITE
 10
141.933414
 20
67.001600
 30
0.000000
 40
1.104194
 50
-129.191755
 51
-47.876000
  6
CONTINUOUS
  0
ARC
  8
WHITE
 10
143.361027
 20
64.739013
 30
0.000000
 40
1.598720
 50
52.317320
 51
115.448714
  6
CONTINUOUS
  0
ARC
  8
WHITE
 10
149.577414
 20
71.716600
 30
0.000000
 40
7.751075
 50
-132.525654
 51
-117.290000
  6
CONTINUOUS
  0
ARC
  8
WHITE
 10
159.962301
 20
101.504573
 30
0.000000
 40
39.235637
 50
-110.809106
 51
-104.483153
  6
CONTINUOUS
  0
ARC
  8
WHITE
 10
160.689011
 20
98.443420
 30
0.000000
 40
36.483105
 50
-106.791111
 51
-92.428457
  6
CONTINUOUS
  0
ARC
  8
WHITE
 10
177.186914
 20
82.253100
 30
0.000000
 40
36.481600
 50
-98.190000
 51
-87.104000
  6
CONTINUOUS
  0
ARC
  8
WHITE
 10
177.194414
 20
82.253600
 30
0.000000
 40
36.481721
 50
-87.115804
 51
-70.919229
  6
CONTINUOUS
  0
ARC
  8
WHITE
 10
177.717779
 20
85.324318
 30
0.000000
 40
39.241200
 50
-73.107609
 51
-66.779038
  6
CONTINUOUS
  0
ARC
  8
WHITE
 10
189.351074
 20
55.991906
 30
0.000000
 40
7.747700
 50
-60.300106
 51
-45.075247
  6
CONTINUOUS
  0
ARC
  8
WHITE
 10
195.850914
 20
49.277700
 30
0.000000
 40
1.602300
 50
67.043013
 51
129.937000
  6
CONTINUOUS
  0
ARC
  8
WHITE
 10
197.183114
 20
51.598083
 30
0.000000
 40
1.101975
 50
-129.927520
 51
-48.402119
  6
CONTINUOUS
  0
ARC
  8
WHITE
 10
199.548914
 20
49.341350
 30
0.000000
 40
2.173270
 50
85.890476
 51
138.760000
  6
CONTINUOUS
  0
ARC
  8
WHITE
 10
199.162414
 20
49.021750
 30
0.000000
 40
2.545710
 50
24.200037
 51
77.701600
  6
CONTINUOUS
  0
LINE
  8
WHITE
 10
201.484414
 20
50.065300
 30
0.000000
 11
201.032914
 21
49.734550
 31
0.000000
  6
CONTINUOUS
  0
LINE
  8
WHITE
 10
201.032914
 20
49.734550
 30
0.000000
 11
197.898914
 21
47.456050
 31
0.000000
  6
CONTINUOUS
  0
LINE
  8
WHITE
 10
197.898914
 20
47.456050
 30
0.000000
 11
198.518414
 21
46.605550
 31
0.000000
  6
CONTINUOUS
  0
LINE
  8
WHITE
 10
198.518414
 20
46.605550
 30
0.000000
 11
201.699914
 21
48.926050
 31
0.000000
  6
CONTINUOUS
  0
LINE
  8
WHITE
 10
201.699914
 20
48.926050
 30
0.000000
 11
202.019914
 21
49.157050
 31
0.000000
  6
CONTINUOUS
  0
LINE
  8
WHITE
 10
202.019914
 20
49.157050
 30
0.000000
 11
202.445120
 21
48.033518
 31
0.000000
  6
CONTINUOUS
  0
ARC
  8
WHITE
 10
200.959414
 20
47.172600
 30
0.000000
 40
1.717120
 50
-88.940233
 51
30.090900
  6
CONTINUOUS
  0
ARC
  8
WHITE
 10
200.952533
 20
43.753109
 30
0.000000
 40
1.703110
 50
88.699967
 51
187.383147
  6
CONTINUOUS
  0
ARC
  8
WHITE
 10
197.216914
 20
43.954700
 30
0.000000
 40
2.089370
 50
-114.517891
 51
-11.609000
  6
CONTINUOUS
  0
ARC
  8
WHITE
 10
194.712914
 20
39.292100
 30
0.000000
 40
3.210395
 50
59.342700
 51
100.091744
  6
CONTINUOUS
  0
ARC
  8
WHITE
 10
192.965414
 20
43.556050
 30
0.000000
 40
1.619050
 50
-84.846451
 51
-42.955000
  6
CONTINUOUS
  0
ARC
  8
WHITE
 10
192.729914
 20
49.130550
 30
0.000000
 40
7.197100
 50
-104.033817
 51
-86.966000
  6
CONTINUOUS
  0
ARC
  8
WHITE
 10
187.913868
 20
20.281866
 30
0.000000
 40
22.080950
 50
82.005999
 51
99.844241
  6
CONTINUOUS
  0
ARC
  8
WHITE
 10
180.121291
 20
133.203847
 30
0.000000
 40
91.254620
 50
-95.029296
 51
-87.476797
  6
CONTINUOUS
  0
ARC
  8
WHITE
 10
171.184414
 20
33.327600
 30
0.000000
 40
9.021750
 50
84.038300
 51
126.681150
  6
CONTINUOUS
  0
ARC
  8
WHITE
 10
164.756830
 20
41.749299
 30
0.000000
 40
1.576690
 50
-139.760610
 51
-48.810079
  6
CONTINUOUS
  0
ARC
  8
WHITE
 10
162.420914
 20
40.194700
 30
0.000000
 40
1.252835
 50
25.334200
 51
115.655174
  6
CONTINUOUS
  0
ARC
  8
WHITE
 10
159.111914
 20
46.700050
 30
0.000000
 40
6.046150
 50
-86.118336
 51
-62.769000
  6
CONTINUOUS
  0
ARC
  8
WHITE
 10
158.295914
 20
32.398900
 30
0.000000
 40
8.359150
 50
81.571100
 51
105.130167
  6
CONTINUOUS
  0
ARC
  8
WHITE
 10
154.047132
 20
43.051745
 30
0.000000
 40
3.308546
 50
-91.207573
 51
-51.337892
  6
CONTINUOUS
  0
ARC
  8
WHITE
 10
175.819608
 20
-283.236346
 30
0.000000
 40
323.718000
 50
93.868854
 51
94.679594
  6
CONTINUOUS
  0
ARC
  8
WHITE
 10
147.817414
 20
41.371050
 30
0.000000
 40
2.531780
 50
-109.722684
 51
-51.034000
  6
CONTINUOUS
  0
ARC
  8
WHITE
 10
145.810075
 20
37.061054
 30
0.000000
 40
2.245340
 50
59.103979
 51
128.006400
  6
CONTINUOUS
  0
ARC
  8
WHITE
 10
143.488914
 20
39.849000
 30
0.000000
 40
1.385210
 50
-108.622783
 51
-47.345000
  6
CONTINUOUS
  0
ARC
  8
WHITE
 10
142.820679
 20
38.121256
 30
0.000000
 40
0.472485
 50
61.442506
 51
149.962015
  6
CONTINUOUS
  0
ARC
  8
WHITE
 10
141.042914
 20
39.151550
 30
0.000000
 40
1.582255
 50
-81.660504
 51
-30.111000
  6
CONTINUOUS
  0
ARC
  8
WHITE
 10
140.914914
 20
35.543750
 30
0.000000
 40
2.073325
 50
80.071300
 51
105.253306
  6
CONTINUOUS
  0
ARC
  8
WHITE
 10
137.835414
 20
40.427350
 30
0.000000
 40
3.838600
 50
-67.851451
 51
-48.689000
  6
CONTINUOUS
  0
ARC
  8
WHITE
 10
138.963440
 20
37.338927
 30
0.000000
 40
0.565544
 50
174.639963
 51
304.354999
  6
CONTINUOUS
  0
ARC
  8
WHITE
 10
139.297914
 20
37.512200
 30
0.000000
 40
0.905590
 50
104.421598
 51
187.643000
  6
CONTINUOUS
  0
ARC
  8
WHITE
 10
138.860815
 20
39.443181
 30
0.000000
 40
1.074920
 50
-78.649805
 51
-28.833578
  6
CONTINUOUS
  0
ARC
  8
WHITE
 10
141.635914
 20
37.744250
 30
0.000000
 40
2.180635
 50
94.873062
 51
147.223000
  6
CONTINUOUS
  0
ARC
  8
WHITE
 10
141.778414
 20
41.881000
 30
0.000000
 40
1.991145
 50
-99.474000
 51
-55.908364
  6
CONTINUOUS
  0
ARC
  8
WHITE
 10
144.720914
 20
38.341850
 30
0.000000
 40
2.628435
 50
84.141942
 51
134.017000
  6
CONTINUOUS
  0
ARC
  8
WHITE
 10
145.030914
 20
41.459200
 30
0.000000
 40
0.504395
 50
-94.746000
 51
71.745625
  6
CONTINUOUS
  0
ARC
  8
WHITE
 10
145.280914
 20
37.312800
 30
0.000000
 40
4.626380
 50
91.139300
 51
98.716443
  6
CONTINUOUS
  0
ARC
  8
WHITE
 10
142.031914
 20
60.775100
 30
0.000000
 40
19.060450
 50
-88.307042
 51
-82.318000
  6
CONTINUOUS
  0
ARC
  8
WHITE
 10
141.589525
 20
40.620099
 30
0.000000
 40
1.492460
 50
47.645261
 51
117.532072
  6
CONTINUOUS
  0
ARC
  8
WHITE
 10
139.744914
 20
43.681350
 30
0.000000
 40
2.086475
 50
-98.549501
 51
-56.397000
  6
CONTINUOUS
  0
ARC
  8
WHITE
 10
138.488414
 20
38.998350
 30
0.000000
 40
2.785345
 50
70.138600
 51
102.489942
  6
CONTINUOUS
  0
ARC
  8
WHITE
 10
136.603281
 20
43.288411
 30
0.000000
 40
2.027903
 50
-96.036833
 51
-50.761332
  6
CONTINUOUS
  0
ARC
  8
WHITE
 10
136.120548
 20
76.268803
 30
0.000000
 40
34.998086
 50
-92.654537
 51
-89.558855
  6
CONTINUOUS
  0
ARC
  8
WHITE
 10
134.379684
 20
40.022125
 30
0.000000
 40
1.291730
 50
84.671005
 51
123.581234
  6
CONTINUOUS
  0
ARC
  8
WHITE
 10
133.485214
 20
41.567993
 30
0.000000
 40
0.503029
 50
102.574930
 51
290.965859
  6
CONTINUOUS
  0
ARC
  8
WHITE
 10
142.559914
 20
1.142240
 30
0.000000
 40
41.934800
 50
101.154788
 51
102.651000
  6
CONTINUOUS
  0
ARC
  8
WHITE
 10
134.445914
 20
43.827650
 30
0.000000
 40
1.542880
 50
-89.952000
 51
-38.736620
  6
CONTINUOUS
  0
ARC
  8
WHITE
 10
136.774414
 20
42.033300
 30
0.000000
 40
1.397495
 50
73.251996
 51
143.617000
  6
CONTINUOUS
  0
ARC
  8
WHITE
 10
137.654072
 20
44.689093
 30
0.000000
 40
1.401225
 50
-109.899870
 51
-53.649060
  6
CONTINUOUS
  0
ARC
  8
WHITE
 10
139.721414
 20
42.341750
 30
0.000000
 40
1.736410
 50
84.379612
 51
135.420000
  6
CONTINUOUS
  0
ARC
  8
WHITE
 10
141.237377
 20
49.046595
 30
0.000000
 40
5.155600
 50
-105.132815
 51
-90.721717
  6
CONTINUOUS
  0
ARC
  8
WHITE
 10
138.258301
 20
53.610316
 30
0.000000
 40
10.146400
 50
-73.309069
 51
-68.506529
  6
CONTINUOUS
  0
ARC
  8
WHITE
 10
142.893414
 20
41.807050
 30
0.000000
 40
2.534370
 50
64.577533
 51
111.225000
  6
CONTINUOUS
  0
ARC
  8
WHITE
 10
145.135414
 20
46.007100
 30
0.000000
 40
2.232455
 50
-121.126000
 51
-65.522807
  6
CONTINUOUS
  0
ARC
  8
WHITE
 10
145.902914
 20
44.534950
 30
0.000000
 40
0.581385
 50
-74.285000
 51
75.905981
  6
CONTINUOUS
  0
ARC
  8
WHITE
 10
149.952277
 20
86.953698
 30
0.000000
 40
42.036818
 50
-96.636101
 51
-95.333953
  6
CONTINUOUS
  0
ARC
  8
WHITE
 10
144.437914
 20
49.472050
 30
0.000000
 40
4.323655
 50
-109.356431
 51
-81.267000
  6
CONTINUOUS
  0
ARC
  8
WHITE
 10
141.755914
 20
44.258600
 30
0.000000
 40
1.687060
 50
42.242500
 51
105.911231
  6
CONTINUOUS
  0
ARC
  8
WHITE
 10
140.083414
 20
48.936350
 30
0.000000
 40
3.286190
 50
-102.975911
 51
-68.395000
  6
CONTINUOUS
  0
ARC
  8
WHITE
 10
137.919914
 20
42.741150
 30
0.000000
 40
3.315055
 50
64.530000
 51
98.146365
  6
CONTINUOUS
  0
ARC
  8
WHITE
 10
136.538414
 20
47.288300
 30
0.000000
 40
1.559745
 50
-108.310684
 51
-54.229000
  6
CONTINUOUS
  0
ARC
  8
WHITE
 10
134.617914
 20
39.497450
 30
0.000000
 40
6.470200
 50
77.227100
 51
83.266048
  6
CONTINUOUS
  0
ARC
  8
WHITE
 10
134.853007
 20
48.238292
 30
0.000000
 40
2.373707
 50
-95.621312
 51
-77.256639
  6
CONTINUOUS
  0
ARC
  8
WHITE
 10
132.574129
 20
56.187162
 30
0.000000
 40
10.512264
 50
-94.532775
 51
-78.774868
  6
CONTINUOUS
  0
ARC
  8
WHITE
 10
131.769914
 20
46.345800
 30
0.000000
 40
0.638575
 50
106.730958
 51
267.616000
  6
CONTINUOUS
  0
ARC
  8
WHITE
 10
141.754232
 20
-48.849859
 30
0.000000
 40
96.345357
 50
94.615840
 51
96.058211
  6
CONTINUOUS
  0
ARC
  8
WHITE
 10
134.209192
 20
48.542108
 30
0.000000
 40
1.374960
 50
-98.713683
 51
-46.468048
  6
CONTINUOUS
  0
ARC
  8
WHITE
 10
136.630914
 20
45.859900
 30
0.000000
 40
2.239475
 50
74.484818
 51
131.186000
  6
CONTINUOUS
  0
ARC
  8
WHITE
 10
138.115914
 20
49.871050
 30
0.000000
 40
2.054150
 50
-115.550000
 51
-66.944520
  6
CONTINUOUS
  0
ARC
  8
WHITE
 10
139.782767
 20
47.220024
 30
0.000000
 40
1.150177
 50
50.052494
 51
138.574751
  6
CONTINUOUS
  0
ARC
  8
WHITE
 10
142.556914
 20
51.740400
 30
0.000000
 40
4.169330
 50
-119.225000
 51
-90.842231
  6
CONTINUOUS
  0
ARC
  8
WHITE
 10
143.474202
 20
43.823104
 30
0.000000
 40
3.874069
 50
75.677691
 51
104.631161
  6
CONTINUOUS
  0
ARC
  8
WHITE
 10
146.049414
 20
49.823800
 30
0.000000
 40
2.768285
 50
-125.737000
 51
-84.662379
  6
CONTINUOUS
  0
ARC
  8
WHITE
 10
146.412682
 20
47.704073
 30
0.000000
 40
0.645245
 50
-99.433096
 51
100.838368
  6
CONTINUOUS
  0
ARC
  8
WHITE
 10
146.777483
 20
59.267913
 30
0.000000
 40
10.940911
 50
-99.910216
 51
-92.546631
  6
CONTINUOUS
  0
ARC
  8
WHITE
 10
145.078571
 20
49.975669
 30
0.000000
 40
1.496775
 50
-145.877916
 51
-97.064041
  6
CONTINUOUS
  0
ARC
  8
WHITE
 10
143.028553
 20
48.396299
 30
0.000000
 40
1.097640
 50
42.371799
 51
108.830866
  6
CONTINUOUS
  0
ARC
  8
WHITE
 10
142.917326
 20
55.162376
 30
0.000000
 40
5.732344
 50
-118.578053
 51
-92.430201
  6
CONTINUOUS
  0
ARC
  8
WHITE
 10
139.101530
 20
54.081677
 30
0.000000
 40
4.096465
 50
-101.345530
 51
-74.805091
  6
CONTINUOUS
  0
ARC
  8
WHITE
 10
131.266414
 20
28.151650
 30
0.000000
 40
23.013400
 50
72.215300
 51
83.465162
  6
CONTINUOUS
  0
ARC
  8
WHITE
 10
133.911914
 20
51.626450
 30
0.000000
 40
0.611490
 50
83.110967
 51
267.525000
  6
CONTINUOUS
  0
ARC
  8
WHITE
 10
133.668414
 20
40.631250
 30
0.000000
 40
11.606600
 50
78.060134
 51
88.435700
  6
CONTINUOUS
  0
ARC
  8
WHITE
 10
137.042414
 20
52.952400
 30
0.000000
 40
1.370655
 50
-135.211000
 51
-72.459206
  6
CONTINUOUS
  0
ARC
  8
WHITE
 10
138.806116
 20
49.068171
 30
0.000000
 40
2.909828
 50
85.995923
 51
117.655981
  6
CONTINUOUS
  0
ARC
  8
WHITE
 10
140.797668
 20
55.116240
 30
0.000000
 40
3.618210
 50
-119.621505
 51
-90.966624
  6
CONTINUOUS
  0
ARC
  8
WHITE
 10
141.956663
 20
50.075937
 30
0.000000
 40
1.874113
 50
65.567015
 51
130.616526
  6
CONTINUOUS
  0
ARC
  8
WHITE
 10
144.692769
 20
53.539205
 30
0.000000
 40
2.632910
 50
-138.139548
 51
-102.972056
  6
CONTINUOUS
  0
ARC
  8
WHITE
 10
144.800972
 20
42.883184
 30
0.000000
 40
8.120464
 50
83.246209
 51
94.939677
  6
CONTINUOUS
  0
ARC
  8
WHITE
 10
147.162072
 20
51.997840
 30
0.000000
 40
1.755215
 50
-143.235576
 51
-108.460324
  6
CONTINUOUS
  0
ARC
  8
WHITE
 10
149.146224
 20
53.310262
 30
0.000000
 40
3.913530
 50
-130.467345
 51
-99.557275
  6
CONTINUOUS
  0
ARC
  8
WHITE
 10
148.390787
 20
50.169781
 30
0.000000
 40
0.726455
 50
-81.636869
 51
-12.484551
  6
CONTINUOUS
  0
ARC
  8
WHITE
 10
142.793926
 20
45.246846
 30
0.000000
 40
7.904500
 50
37.080327
 51
49.030454
  6
CONTINUOUS
  0
ARC
  8
WHITE
 10
152.115380
 20
64.455076
 30
0.000000
 40
13.871696
 50
-114.730276
 51
-107.359337
  6
CONTINUOUS
  0
ARC
  8
WHITE
 10
147.210914
 20
54.233100
 30
0.000000
 40
2.541700
 50
-144.102635
 51
-110.707000
  6
CONTINUOUS
  0
ARC
  8
WHITE
 10
140.410680
 20
48.443509
 30
0.000000
 40
6.400250
 50
42.201173
 51
63.599246
  6
CONTINUOUS
  0
ARC
  8
WHITE
 10
143.351914
 20
54.682600
 30
0.000000
 40
0.515255
 50
59.427797
 51
259.332000
  6
CONTINUOUS
  0
ARC
  8
WHITE
 10
146.686914
 20
60.587600
 30
0.000000
 40
6.266600
 50
-119.365000
 51
-104.377256
  6
CONTINUOUS
  0
ARC
  8
WHITE
 10
115.528914
 20
-88.671900
 30
0.000000
 40
146.217000
 50
77.532756
 51
78.319600
  6
CONTINUOUS
  0
ARC
  8
WHITE
 10
144.400414
 20
47.666550
 30
0.000000
 40
6.972250
 50
44.442888
 51
67.269600
  6
CONTINUOUS
  0
ARC
  8
WHITE
 10
147.091914
 20
44.034400
 30
0.000000
 40
8.815800
 50
50.128809
 51
74.968500
  6
CONTINUOUS
  0
ARC
  8
WHITE
 10
158.004914
 20
53.907600
 30
0.000000
 40
6.110500
 50
-149.436000
 51
-105.813022
  6
CONTINUOUS
  0
ARC
  8
WHITE
 10
149.853784
 20
28.945678
 30
0.000000
 40
20.154745
 50
59.032289
 51
71.227557
  6
CONTINUOUS
  0
ARC
  8
WHITE
 10
161.332513
 20
46.705022
 30
0.000000
 40
1.206520
 50
-156.685816
 51
-40.400954
  6
CONTINUOUS
  0
ARC
  8
WHITE
 10
164.477914
 20
44.883950
 30
0.000000
 40
2.457125
 50
93.934612
 51
154.983000
  6
CONTINUOUS
  0
ARC
  8
WHITE
 10
163.658414
 20
17.793500
 30
0.000000
 40
29.548950
 50
73.623083
 51
88.737800
  6
CONTINUOUS
  0
ARC
  8
WHITE
 10
118.666414
 20
19.263750
 30
0.000000
 40
27.252621
 50
-0.386739
 51
3.577980
  6
CONTINUOUS
  0
ARC
  8
WHITE
 10
144.925414
 20
21.045050
 30
0.000000
 40
0.943971
 50
-4.894765
 51
56.913400
  6
CONTINUOUS
  0
ARC
  8
WHITE
 10
146.459414
 20
23.795000
 30
0.000000
 40
2.207987
 50
118.706000
 51
242.526335
  6
CONTINUOUS
  0
LINE
  8
WHITE
 10
145.398924
 20
25.731544
 30
0.000000
 11
143.996914
 21
29.585050
 31
0.000000
  6
CONTINUOUS
  0
LINE
  8
WHITE
 10
143.996914
 20
29.585050
 30
0.000000
 11
144.983914
 21
29.942050
 31
0.000000
  6
CONTINUOUS
  0
LINE
  8
WHITE
 10
144.983914
 20
29.942050
 30
0.000000
 11
146.249414
 21
26.461300
 31
0.000000
  6
CONTINUOUS
  0
ARC
  8
WHITE
 10
146.188414
 20
28.148800
 30
0.000000
 40
1.688602
 50
-87.929765
 51
-1.146000
  6
CONTINUOUS
  0
ARC
  8
WHITE
 10
144.784414
 20
28.445900
 30
0.000000
 40
3.109923
 50
-6.107399
 51
51.716100
  6
CONTINUOUS
  0
ARC
  8
WHITE
 10
148.595914
 20
32.913850
 30
0.000000
 40
2.767681
 50
173.690000
 51
227.080429
  6
CONTINUOUS
  0
ARC
  8
WHITE
 10
141.692277
 20
31.260142
 30
0.000000
 40
4.591161
 50
25.242383
 51
54.724594
  6
CONTINUOUS
  0
ARC
  8
WHITE
 10
143.329414
 20
32.503850
 30
0.000000
 40
2.702046
 50
67.952266
 51
134.825000
  6
CONTINUOUS
  0
ARC
  8
WHITE
 10
138.083914
 20
43.592050
 30
0.000000
 40
9.761229
 50
-111.575000
 51
-69.986313
  6
CONTINUOUS
  0
ARC
  8
WHITE
 10
133.231414
 20
32.882300
 30
0.000000
 40
2.064066
 50
52.268741
 51
142.387000
  6
CONTINUOUS
  0
ARC
  8
WHITE
 10
132.946049
 20
32.519962
 30
0.000000
 40
2.110108
 50
129.762332
 51
174.436376
  6
CONTINUOUS
  0
ARC
  8
WHITE
 10
125.727414
 20
33.056100
 30
0.000000
 40
5.129194
 50
-42.271000
 51
-3.706294
  6
CONTINUOUS
  0
ARC
  8
WHITE
 10
131.617219
 20
28.158018
 30
0.000000
 40
2.546211
 50
145.340639
 51
199.913529
  6
CONTINUOUS
  0
ARC
  8
WHITE
 10
132.074414
 20
28.918000
 30
0.000000
 40
3.282832
 50
-150.285578
 51
-103.133000
  6
CONTINUOUS
  0
LINE
  8
WHITE
 10
131.328520
 20
25.721051
 30
0.000000
 11
132.205414
 21
29.417050
 31
0.000000
  6
CONTINUOUS
  0
LINE
  8
WHITE
 10
132.205414
 20
29.417050
 30
0.000000
 11
133.229414
 21
29.175550
 31
0.000000
  6
CONTINUOUS
  0
LINE
  8
WHITE
 10
133.229414
 20
29.175550
 30
0.000000
 11
132.231914
 21
24.965050
 31
0.000000
  6
CONTINUOUS
  0
ARC
  8
WHITE
 10
130.399414
 20
23.125750
 30
0.000000
 40
2.596359
 50
-59.628000
 51
45.106109
  6
CONTINUOUS
  0
ARC
  8
WHITE
 10
132.063914
 20
20.596650
 30
0.000000
 40
0.455332
 50
140.584935
 51
205.933000
  6
CONTINUOUS
  0
ARC
  8
WHITE
 10
69.211414
 20
15.647000
 30
0.000000
 40
62.623491
 50
1.551010
 51
4.350564
  6
CONTINUOUS
  0
ARC
  8
WHITE
 10
127.737914
 20
17.725150
 30
0.000000
 40
4.092031
 50
-19.875000
 51
-5.372298
  6
CONTINUOUS
  0
ARC
  8
WHITE
 10
138.731414
 20
12.916400
 30
0.000000
 40
7.920500
 50
154.438010
 51
182.698000
  6
CONTINUOUS
  0
ARC
  8
WHITE
 10
134.624414
 20
12.876500
 30
0.000000
 40
3.819309
 50
-174.999125
 51
-117.305000
  6
CONTINUOUS
  0
ARC
  8
WHITE
 10
135.502190
 20
13.619775
 30
0.000000
 40
4.902104
 50
-122.443046
 51
-96.887445
  6
CONTINUOUS
  0
LINE
  8
WHITE
 10
134.914333
 20
8.753046
 30
0.000000
 11
134.620414
 21
12.134050
 31
0.000000
  6
CONTINUOUS
  0
LINE
  8
WHITE
 10
134.620414
 20
12.134050
 30
0.000000
 11
134.294914
 21
15.924550
 31
0.000000
  6
CONTINUOUS
  0
LINE
  8
WHITE
 10
134.294914
 20
15.924550
 30
0.000000
 11
135.339914
 21
16.013800
 31
0.000000
  6
CONTINUOUS
  0
LINE
  8
WHITE
 10
135.339914
 20
16.013800
 30
0.000000
 11
135.712414
 21
11.708800
 31
0.000000
  6
CONTINUOUS
  0
LINE
  8
WHITE
 10
135.712414
 20
11.708800
 30
0.000000
 11
136.064414
 21
7.666275
 31
0.000000
  6
CONTINUOUS
  0
ARC
  8
WHITE
 10
138.438914
 20
10.826350
 30
0.000000
 40
3.952762
 50
-126.921428
 51
-85.833000
  6
CONTINUOUS
  0
LINE
  8
WHITE
 10
138.726136
 20
6.884044
 30
0.000000
 11
138.636914
 21
10.322800
 31
0.000000
  6
CONTINUOUS
  0
LINE
  8
WHITE
 10
138.636914
 20
10.322800
 30
0.000000
 11
138.536914
 21
14.123800
 31
0.000000
  6
CONTINUOUS
  0
LINE
  8
WHITE
 10
138.536914
 20
14.123800
 30
0.000000
 11
138.437414
 21
17.924800
 31
0.000000
  6
CONTINUOUS
  0
LINE
  8
WHITE
 10
138.437414
 20
17.924800
 30
0.000000
 11
139.487414
 21
17.956300
 31
0.000000
  6
CONTINUOUS
  0
LINE
  8
WHITE
 10
139.487414
 20
17.956300
 30
0.000000
 11
139.602914
 21
13.630300
 31
0.000000
  6
CONTINUOUS
  0
LINE
  8
WHITE
 10
139.602914
 20
13.630300
 30
0.000000
 11
139.712914
 21
9.309550
 31
0.000000
  6
CONTINUOUS
  0
LINE
  8
WHITE
 10
139.712914
 20
9.309550
 30
0.000000
 11
139.781414
 21
6.826275
 31
0.000000
  6
CONTINUOUS
  0
ARC
  8
WHITE
 10
139.859914
 20
9.719100
 30
0.000000
 40
2.893890
 50
-91.554403
 51
-22.846000
  6
CONTINUOUS
  0
LINE
  8
WHITE
 10
142.526798
 20
8.595525
 30
0.000000
 11
142.579414
 21
12.401800
 31
0.000000
  6
CONTINUOUS
  0
LINE
  8
WHITE
 10
142.579414
 20
12.401800
 30
0.000000
 11
142.631914
 21
16.208050
 31
0.000000
  6
CONTINUOUS
  0
LINE
  8
WHITE
 10
142.631914
 20
16.208050
 30
0.000000
 11
143.681914
 21
16.192300
 31
0.000000
  6
CONTINUOUS
  0
LINE
  8
WHITE
 10
143.681914
 20
16.192300
 30
0.000000
 11
143.624414
 21
11.871550
 31
0.000000
  6
CONTINUOUS
  0
LINE
  8
WHITE
 10
143.624414
 20
11.871550
 30
0.000000
 11
143.587414
 21
9.199300
 31
0.000000
  6
CONTINUOUS
  0
ARC
  8
WHITE
 10
142.998914
 20
13.529950
 30
0.000000
 40
4.370453
 50
-82.261374
 51
-19.209000
  6
CONTINUOUS
  0
ARC
  8
WHITE
 10
142.532414
 20
13.272050
 30
0.000000
 40
4.742831
 50
-14.407098
 51
28.224300
  6
CONTINUOUS
  0
ARC
  8
WHITE
 10
150.879914
 20
18.312600
 30
0.000000
 40
5.020371
 50
171.209934
 51
213.865629
  6
CONTINUOUS
  0
ARC
  8
WHITE
 10
151.226414
 20
22.502700
 30
0.000000
 40
2.671210
 50
12.371700
 51
83.002300
  6
CONTINUOUS
  0
ARC
  8
WHITE
 10
152.297122
 20
26.746293
 30
0.000000
 40
1.758066
 50
124.578318
 51
244.917802
  6
CONTINUOUS
  0
ARC
  8
WHITE
 10
124.985414
 20
74.624100
 30
0.000000
 40
53.368500
 50
-60.458000
 51
-58.666476
  6
CONTINUOUS
  0
ARC
  8
WHITE
 10
147.315767
 20
33.650465
 30
0.000000
 40
7.118050
 50
-40.379381
 51
-2.129024
  6
CONTINUOUS
  0
ARC
  8
WHITE
 10
158.020757
 20
33.208079
 30
0.000000
 40
3.596259
 50
41.276870
 51
177.163724
  6
CONTINUOUS
  0
ARC
  8
WHITE
 10
163.034414
 20
37.123900
 30
0.000000
 40
2.778945
 50
-146.263000
 51
-47.616477
  6
CONTINUOUS
  0
ARC
  8
WHITE
 10
165.837391
 20
31.490170
 30
0.000000
 40
3.699820
 50
-10.041817
 51
104.554148
  6
CONTINUOUS
  0
ARC
  8
WHITE
 10
178.484290
 20
28.068145
 30
0.000000
 40
9.422250
 50
162.859423
 51
177.511364
  6
CONTINUOUS
  0
ARC
  8
WHITE
 10
173.847914
 20
27.759850
 30
0.000000
 40
4.830560
 50
171.459000
 51
219.506647
  6
CONTINUOUS
  0
ARC
  8
WHITE
 10
168.882414
 20
23.485450
 30
0.000000
 40
1.725370
 50
-106.452326
 51
44.128400
  6
CONTINUOUS
  0
ARC
  8
WHITE
 10
168.029101
 20
19.540270
 30
0.000000
 40
2.319365
 50
80.953779
 51
158.309414
  6
CONTINUOUS
  0
ARC
  8
WHITE
 10
172.504559
 20
18.292530
 30
0.000000
 40
6.956700
 50
162.387325
 51
180.478115
  6
CONTINUOUS
  0
ARC
  8
WHITE
 10
171.118464
 20
17.672893
 30
0.000000
 40
5.598600
 50
174.243067
 51
197.688584
  6
CONTINUOUS
  0
ARC
  8
WHITE
 10
164.371914
 20
15.576000
 30
0.000000
 40
1.467040
 50
-37.372688
 51
15.651900
  6
CONTINUOUS
  0
ARC
  8
WHITE
 10
164.363414
 20
16.009050
 30
0.000000
 40
1.769380
 50
-97.556981
 51
-48.418000
  6
CONTINUOUS
  0
ARC
  8
WHITE
 10
163.514993
 20
13.808692
 30
0.000000
 40
0.760470
 50
35.937163
 51
141.074162
  6
CONTINUOUS
  0
ARC
  8
WHITE
 10
162.454291
 20
16.749181
 30
0.000000
 40
2.506952
 50
-123.087653
 51
-79.215568
  6
CONTINUOUS
  0
ARC
  8
WHITE
 10
160.385414
 20
14.360350
 30
0.000000
 40
0.757345
 50
22.384700
 51
138.845698
  6
CONTINUOUS
  0
ARC
  8
WHITE
 10
159.266414
 20
17.703750
 30
0.000000
 40
2.897405
 50
-124.488072
 51
-79.083000
  6
CONTINUOUS
  0
ARC
  8
WHITE
 10
156.919914
 20
15.032450
 30
0.000000
 40
0.760515
 50
21.853700
 51
138.532402
  6
CONTINUOUS
  0
ARC
  8
WHITE
 10
155.940111
 20
17.515272
 30
0.000000
 40
2.021271
 50
-132.246572
 51
-78.297422
  6
CONTINUOUS
  0
ARC
  8
WHITE
 10
153.833872
 20
15.877975
 30
0.000000
 40
0.760485
 50
10.687533
 51
138.030536
  6
CONTINUOUS
  0
ARC
  8
WHITE
 10
153.344414
 20
17.815500
 30
0.000000
 40
1.430980
 50
-125.035782
 51
-93.043000
  6
CONTINUOUS
  0
ARC
  8
WHITE
 10
153.336338
 20
17.695408
 30
0.000000
 40
1.329560
 50
140.324494
 51
232.277176
  6
CONTINUOUS
  0
ARC
  8
WHITE
 10
148.375914
 20
22.388450
 30
0.000000
 40
5.502600
 50
-44.316000
 51
7.167424
  6
CONTINUOUS
  0
ARC
  8
WHITE
 10
187.847914
 20
79.475600
 30
0.000000
 40
57.508500
 50
-114.748000
 51
-113.003000
  6
CONTINUOUS
  0
ARC
  8
WHITE
 10
165.921189
 20
27.474682
 30
0.000000
 40
1.082744
 50
-120.308158
 51
-54.084428
  6
CONTINUOUS
  0
ARC
  8
WHITE
 10
164.708524
 20
28.031092
 30
0.000000
 40
2.338527
 50
-37.800174
 51
-2.575589
  6
CONTINUOUS
  0
ARC
  8
WHITE
 10
163.080914
 20
29.474400
 30
0.000000
 40
4.255471
 50
-21.337440
 51
31.380400
  6
CONTINUOUS
  0
ARC
  8
WHITE
 10
164.888635
 20
29.568710
 30
0.000000
 40
2.798665
 50
49.293484
 51
108.643035
  6
CONTINUOUS
  0
ARC
  8
WHITE
 10
164.179414
 20
30.574150
 30
0.000000
 40
1.656785
 50
96.426164
 51
192.333000
  6
CONTINUOUS
  0
ARC
  8
WHITE
 10
159.326914
 20
29.449650
 30
0.000000
 40
3.324523
 50
-22.979000
 51
13.403124
  6
CONTINUOUS
  0
ARC
  8
WHITE
 10
162.690914
 20
28.095850
 30
0.000000
 40
0.308455
 50
169.549426
 51
257.442000
  6
CONTINUOUS
  0
ARC
  8
WHITE
 10
187.872728
 20
79.464260
 30
0.000000
 40
57.508595
 50
-116.042978
 51
-114.775181
  6
CONTINUOUS
  0
ARC
  8
WHITE
 10
157.406108
 20
85.865153
 30
0.000000
 40
57.507726
 50
-90.706597
 51
-87.693715
  6
CONTINUOUS
  0
ARC
  8
WHITE
 10
159.777578
 20
28.707519
 30
0.000000
 40
0.308868
 50
-100.687303
 51
-13.626595
  6
CONTINUOUS
  0
ARC
  8
WHITE
 10
163.405555
 20
28.585686
 30
0.000000
 40
3.328165
 50
142.792015
 51
179.155274
  6
CONTINUOUS
  0
ARC
  8
WHITE
 10
159.416414
 20
31.572800
 30
0.000000
 40
1.655640
 50
-36.058982
 51
59.737600
  6
CONTINUOUS
  0
ARC
  8
WHITE
 10
158.360167
 20
30.945177
 30
0.000000
 40
2.794271
 50
47.421932
 51
107.022518
  6
CONTINUOUS
  0
ARC
  8
WHITE
 10
159.982285
 20
30.124310
 30
0.000000
 40
4.260675
 50
124.939462
 51
177.579712
  6
CONTINUOUS
  0
ARC
  8
WHITE
 10
157.909414
 20
29.465750
 30
0.000000
 40
2.339429
 50
158.997137
 51
194.195000
  6
CONTINUOUS
  0
ARC
  8
WHITE
 10
156.576414
 20
29.437750
 30
0.000000
 40
1.082677
 50
-149.732836
 51
-83.609841
  6
CONTINUOUS
  0
ARC
  8
WHITE
 10
159.899414
 20
22.607500
 30
0.000000
 40
1.799595
 50
164.942000
 51
218.835000
  6
CONTINUOUS
  0
ARC
  8
WHITE
 10
154.596914
 20
20.579850
 30
0.000000
 40
4.002989
 50
-13.634000
 51
12.980666
  6
CONTINUOUS
  0
ARC
  8
WHITE
 10
159.387414
 20
19.657276
 30
0.000000
 40
0.900491
 50
-178.662342
 51
1.337658
  6
CONTINUOUS
  0
ARC
  8
WHITE
 10
162.235414
 20
19.888100
 30
0.000000
 40
1.959022
 50
147.583000
 51
186.147917
  6
CONTINUOUS
  0
ARC
  8
WHITE
 10
159.898054
 20
22.606943
 30
0.000000
 40
1.803293
 50
-67.721290
 51
59.897904
  6
CONTINUOUS
  0
LINE
  8
WHITE
 10
160.802482
 20
24.167032
 30
0.000000
 11
161.164414
 21
25.862800
 31
0.000000
  6
CONTINUOUS
  0
LINE
  8
WHITE
 10
161.164414
 20
25.862800
 30
0.000000
 11
160.135414
 21
26.083300
 31
0.000000
  6
CONTINUOUS
  0
LINE
  8
WHITE
 10
160.135414
 20
26.083300
 30
0.000000
 11
159.778414
 21
24.403300
 31
0.000000
  6
CONTINUOUS
  0
ARC
  8
WHITE
 10
159.904146
 20
22.602116
 30
0.000000
 40
1.805567
 50
93.993042
 51
164.816025
  6
CONTINUOUS
  0
ARC
  8
WHITE
 10
175.827414
 20
31.469550
 30
0.000000
 40
4.081725
 50
115.274000
 51
143.994000
  6
CONTINUOUS
  0
ARC
  8
WHITE
 10
175.822414
 20
31.463600
 30
0.000000
 40
4.081185
 50
143.885161
 51
232.147667
  6
CONTINUOUS
  0
ARC
  8
WHITE
 10
173.612914
 20
26.076550
 30
0.000000
 40
2.184495
 50
-36.879244
 51
97.758000
  6
CONTINUOUS
  0
ARC
  8
WHITE
 10
176.531136
 20
23.436346
 30
0.000000
 40
1.771280
 50
131.374573
 51
209.049688
  6
CONTINUOUS
  0
ARC
  8
WHITE
 10
177.638914
 20
23.652800
 30
0.000000
 40
2.866090
 50
-157.938000
 51
-114.685086
  6
CONTINUOUS
  0
LINE
  8
WHITE
 10
176.441914
 20
21.048550
 30
0.000000
 11
176.867414
 21
22.229800
 31
0.000000
  6
CONTINUOUS
  0
LINE
  8
WHITE
 10
176.867414
 20
22.229800
 30
0.000000
 11
178.142914
 21
25.810300
 31
0.000000
  6
CONTINUOUS
  0
LINE
  8
WHITE
 10
178.142914
 20
25.810300
 30
0.000000
 11
179.418914
 21
29.396050
 31
0.000000
  6
CONTINUOUS
  0
LINE
  8
WHITE
 10
179.418914
 20
29.396050
 30
0.000000
 11
180.410914
 21
29.044300
 31
0.000000
  6
CONTINUOUS
  0
LINE
  8
WHITE
 10
180.410914
 20
29.044300
 30
0.000000
 11
178.956914
 21
24.970300
 31
0.000000
  6
CONTINUOUS
  0
LINE
  8
WHITE
 10
178.956914
 20
24.970300
 30
0.000000
 11
177.507541
 21
20.901354
 31
0.000000
  6
CONTINUOUS
  0
ARC
  8
WHITE
 10
166.774878
 20
-32.100590
 30
0.000000
 40
54.077686
 50
75.067080
 51
78.552644
  6
CONTINUOUS
  0
ARC
  8
WHITE
 10
180.604863
 20
18.591604
 30
0.000000
 40
1.562734
 50
-19.225500
 51
86.140594
  6
CONTINUOUS
  0
ARC
  8
WHITE
 10
174.462414
 20
22.381650
 30
0.000000
 40
8.750100
 50
-39.446517
 51
-29.469000
  6
CONTINUOUS
  0
ARC
  8
WHITE
 10
181.943914
 20
16.197900
 30
0.000000
 40
0.956475
 50
139.249000
 51
198.255868
  6
CONTINUOUS
  0
ARC
  8
WHITE
 10
182.000914
 20
16.213700
 30
0.000000
 40
1.015480
 50
-161.905000
 51
-75.286336
  6
CONTINUOUS
  0
ARC
  8
WHITE
 10
182.258914
 20
14.506950
 30
0.000000
 40
0.724585
 50
-1.237686
 51
90.006600
  6
CONTINUOUS
  0
ARC
  8
WHITE
 10
183.951414
 20
14.479150
 30
0.000000
 40
0.968170
 50
179.281000
 51
284.321866
  6
CONTINUOUS
  0
ARC
  8
WHITE
 10
184.190914
 20
12.816429
 30
0.000000
 40
0.724621
 50
0.005664
 51
90.000000
  6
CONTINUOUS
  0
ARC
  8
WHITE
 10
185.902914
 20
12.716450
 30
0.000000
 40
0.992435
 50
174.214000
 51
287.847107
  6
CONTINUOUS
  0
ARC
  8
WHITE
 10
186.206946
 20
11.047719
 30
0.000000
 40
0.724051
 50
-6.697364
 51
89.989790
  6
CONTINUOUS
  0
ARC
  8
WHITE
 10
187.553293
 20
11.651405
 30
0.000000
 40
0.931100
 50
-132.349513
 51
-10.080701
  6
CONTINUOUS
  0
ARC
  8
WHITE
 10
157.079631
 20
23.619016
 30
0.000000
 40
33.652750
 50
-21.128660
 51
-6.481813
  6
CONTINUOUS
  0
ARC
  8
WHITE
 10
189.676914
 20
20.210000
 30
0.000000
 40
0.926425
 50
-24.894000
 51
51.826532
  6
CONTINUOUS
  0
ARC
  8
WHITE
 10
191.981914
 20
22.896800
 30
0.000000
 40
2.614780
 50
162.115844
 51
228.505000
  6
CONTINUOUS
  0
ARC
  8
WHITE
 10
194.276914
 20
21.668750
 30
0.000000
 40
5.196700
 50
121.290153
 51
156.994000
  6
CONTINUOUS
  0
ARC
  8
WHITE
 10
191.063235
 20
27.358976
 30
0.000000
 40
1.351280
 50
-67.611764
 51
67.622877
  6
CONTINUOUS
  0
ARC
  8
WHITE
 10
191.446414
 20
31.742750
 30
0.000000
 40
3.136995
 50
-141.249134
 51
-87.602000
  6
CONTINUOUS
  0
ARC
  8
WHITE
 10
200.981121
 20
37.358818
 30
0.000000
 40
14.177363
 50
-160.470919
 51
-147.681432
  6
CONTINUOUS
  0
ARC
  8
WHITE
 10
181.478414
 20
30.806450
 30
0.000000
 40
6.403000
 50
16.449000
 51
64.777474
  6
CONTINUOUS
  0
ARC
  8
WHITE
 10
180.615914
 20
30.089050
 30
0.000000
 40
7.434750
 50
61.117800
 51
99.183722
  6
CONTINUOUS
  0
ARC
  8
WHITE
 10
180.477914
 20
27.526450
 30
0.000000
 40
9.957450
 50
96.044900
 51
129.944487
  6
CONTINUOUS
  0
ARC
  8
WHITE
 10
202.633914
 20
22.319000
 30
0.000000
 40
9.958950
 50
-78.073000
 51
-68.669000
  6
CONTINUOUS
  0
ARC
  8
WHITE
 10
202.606784
 20
22.307546
 30
0.000000
 40
9.958193
 50
-68.499625
 51
-44.008003
  6
CONTINUOUS
  0
ARC
  8
WHITE
 10
204.708244
 20
20.838842
 30
0.000000
 40
7.437300
 50
-47.119210
 51
-9.059540
  6
CONTINUOUS
  0
ARC
  8
WHITE
 10
205.805357
 20
21.084348
 30
0.000000
 40
6.406000
 50
-12.775688
 51
35.535737
  6
CONTINUOUS
  0
ARC
  8
WHITE
 10
222.967414
 20
32.430300
 30
0.000000
 40
14.173500
 50
-160.257017
 51
-147.465000
  6
CONTINUOUS
  0
ARC
  8
WHITE
 10
212.677914
 20
28.363950
 30
0.000000
 40
3.134920
 50
139.652985
 51
193.305000
  6
CONTINUOUS
  0
ARC
  8
WHITE
 10
208.983414
 20
30.754250
 30
0.000000
 40
1.354185
 50
-15.448000
 51
119.599148
  6
CONTINUOUS
  0
ARC
  8
WHITE
 10
206.470914
 20
36.793250
 30
0.000000
 40
5.199300
 50
-104.908355
 51
-69.232000
  6
CONTINUOUS
  0
ARC
  8
WHITE
 10
206.035428
 20
34.226934
 30
0.000000
 40
2.618262
 50
-176.530927
 51
-110.154898
  6
CONTINUOUS
  0
ARC
  8
WHITE
 10
202.496414
 20
34.065200
 30
0.000000
 40
0.925555
 50
0.204505
 51
76.795961
  6
CONTINUOUS
  0
ARC
  8
WHITE
 10
185.146914
 20
6.259120
 30
0.000000
 40
33.652450
 50
58.544800
 51
73.188687
  6
CONTINUOUS
  0
ARC
  8
WHITE
 10
194.442113
 20
37.647494
 30
0.000000
 40
0.934665
 50
62.071014
 51
184.094316
  6
CONTINUOUS
  0
ARC
  8
WHITE
 10
193.137507
 20
36.959619
 30
0.000000
 40
0.724186
 50
-37.872919
 51
59.060536
  6
CONTINUOUS
  0
ARC
  8
WHITE
 10
194.270914
 20
35.695900
 30
0.000000
 40
0.993250
 50
124.442000
 51
237.733225
  6
CONTINUOUS
  0
ARC
  8
WHITE
 10
193.294291
 20
34.283641
 30
0.000000
 40
0.725881
 50
-37.919834
 51
52.052305
  6
CONTINUOUS
  0
ARC
  8
WHITE
 10
194.454746
 20
33.072921
 30
0.000000
 40
0.964465
 50
127.552389
 51
232.816035
  6
CONTINUOUS
  0
ARC
  8
WHITE
 10
193.435914
 20
31.723150
 30
0.000000
 40
0.726665
 50
-38.020546
 51
53.136700
  6
CONTINUOUS
  0
ARC
  8
WHITE
 10
194.622914
 20
30.468400
 30
0.000000
 40
1.014410
 50
127.283000
 51
214.074748
  6
CONTINUOUS
  0
ARC
  8
WHITE
 10
194.575414
 20
30.435550
 30
0.000000
 40
0.956670
 50
-145.961000
 51
-87.171490
  6
CONTINUOUS
  0
ARC
  8
WHITE
 10
194.843914
 20
20.733500
 30
0.000000
 40
8.749350
 50
81.446114
 51
91.449300
  6
CONTINUOUS
  0
ARC
  8
WHITE
 10
195.641733
 20
27.910365
 30
0.000000
 40
1.558743
 50
-34.442537
 51
71.152360
  6
CONTINUOUS
  0
ARC
  8
WHITE
 10
147.141282
 20
48.135762
 30
0.000000
 40
54.075359
 50
-26.460232
 51
-22.974753
  6
CONTINUOUS
  0
LINE
  8
WHITE
 10
195.551914
 20
24.041050
 30
0.000000
 11
203.762914
 21
21.321550
 31
0.000000
  6
CONTINUOUS
  0
LINE
  8
WHITE
 10
203.762914
 20
21.321550
 30
0.000000
 11
203.432414
 21
20.324050
 31
0.000000
  6
CONTINUOUS
  0
LINE
  8
WHITE
 10
203.432414
 20
20.324050
 30
0.000000
 11
196.208414
 21
22.718050
 31
0.000000
  6
CONTINUOUS
  0
LINE
  8
WHITE
 10
196.208414
 20
22.718050
 30
0.000000
 11
195.016285
 21
23.111815
 31
0.000000
  6
CONTINUOUS
  0
ARC
  8
WHITE
 10
197.803949
 20
22.451245
 30
0.000000
 40
2.864860
 50
166.668975
 51
209.919946
  6
CONTINUOUS
  0
ARC
  8
WHITE
 10
196.953914
 20
21.715150
 30
0.000000
 40
1.773915
 50
-157.009000
 51
-79.253980
  6
CONTINUOUS
  0
ARC
  8
WHITE
 10
197.242414
 20
17.788950
 30
0.000000
 40
2.183720
 50
-45.786983
 51
88.890800
  6
CONTINUOUS
  0
ARC
  8
WHITE
 10
202.848915
 20
16.219179
 30
0.000000
 40
4.083745
 50
179.935515
 51
296.829870
  6
CONTINUOUS
  0
ARC
  8
WHITE
 10
45.597264
 20
109.963100
 30
0.000000
 40
6.209151
 50
93.936838
 51
139.193000
  6
CONTINUOUS
  0
ARC
  8
WHITE
 10
51.628364
 20
106.979600
 30
0.000000
 40
12.834780
 50
146.728443
 51
198.082000
  6
CONTINUOUS
  0
ARC
  8
WHITE
 10
44.111114
 20
103.709600
 30
0.000000
 40
4.737687
 50
-171.336763
 51
-51.572000
  6
CONTINUOUS
  0
ARC
  8
WHITE
 10
47.599754
 20
98.987450
 30
0.000000
 40
1.147780
 50
-34.406190
 51
118.291811
  6
CONTINUOUS
  0
ARC
  8
WHITE
 10
40.943864
 20
109.809600
 30
0.000000
 40
13.761569
 50
-70.566000
 51
-56.463298
  6
CONTINUOUS
  0
ARC
  8
WHITE
 10
42.944914
 20
101.221100
 30
0.000000
 40
5.090069
 50
-137.340000
 51
-59.574019
  6
CONTINUOUS
  0
ARC
  8
WHITE
 10
48.930473
 20
107.262296
 30
0.000000
 40
13.591050
 50
172.243708
 51
224.289714
  6
CONTINUOUS
  0
ARC
  8
WHITE
 10
45.665164
 20
109.916600
 30
0.000000
 40
10.234306
 50
123.225000
 51
184.595949
  6
CONTINUOUS
  0
ARC
  8
WHITE
 10
85.011914
 20
2.181155
 30
0.000000
 40
124.682978
 50
107.485000
 51
111.133987
  6
CONTINUOUS
  0
ARC
  8
WHITE
 10
47.176664
 20
121.838100
 30
0.000000
 40
0.824307
 50
-63.058210
 51
1.437380
  6
CONTINUOUS
  0
LINE
  8
WHITE
 10
48.000720
 20
121.858777
 30
0.000000
 11
47.643714
 21
123.276600
 31
0.000000
  6
CONTINUOUS
  0
ARC
  8
WHITE
 10
92.655914
 20
132.924600
 30
0.000000
 40
46.034575
 50
-170.762000
 51
-167.902166
  6
CONTINUOUS
  0
ARC
  8
WHITE
 10
48.233716
 20
125.110535
 30
0.000000
 40
1.100170
 50
104.755624
 51
157.338620
  6
CONTINUOUS
  0
ARC
  8
WHITE
 10
50.768102
 20
113.343501
 30
0.000000
 40
13.136000
 50
77.210759
 51
102.372460
  6
CONTINUOUS
  0
ARC
  8
WHITE
 10
52.968553
 20
125.007316
 30
0.000000
 40
1.347000
 50
15.902943
 51
58.320251
  6
CONTINUOUS
  0
ARC
  8
WHITE
 10
42.047514
 20
125.725100
 30
0.000000
 40
12.221460
 50
-13.979000
 51
-1.634946
  6
CONTINUOUS
  0
ARC
  8
WHITE
 10
54.793826
 20
122.252949
 30
0.000000
 40
1.027951
 50
149.620482
 51
260.306443
  6
CONTINUOUS
  0
ARC
  8
WHITE
 10
51.208774
 20
98.895427
 30
0.000000
 40
22.603250
 50
64.655763
 51
81.317999
  6
CONTINUOUS
  0
ARC
  8
WHITE
 10
58.416081
 20
113.286326
 30
0.000000
 40
6.521900
 50
31.328115
 51
67.762949
  6
CONTINUOUS
  0
ARC
  8
WHITE
 10
51.843108
 20
108.925316
 30
0.000000
 40
14.407300
 50
1.640532
 51
32.551693
  6
CONTINUOUS
  0
ARC
  8
WHITE
 10
53.208264
 20
107.063100
 30
0.000000
 40
13.233204
 50
-41.181000
 51
9.897830
  6
CONTINUOUS
  0
ARC
  8
WHITE
 10
59.010608
 20
101.557644
 30
0.000000
 40
5.251100
 50
-98.166626
 51
-37.653422
  6
CONTINUOUS
  0
ARC
  8
WHITE
 10
66.740414
 20
123.611600
 30
0.000000
 40
28.539429
 50
-117.018000
 51
-107.276510
  6
CONTINUOUS
  0
ARC
  8
WHITE
 10
54.253628
 20
99.125061
 30
0.000000
 40
1.052900
 50
86.875686
 51
243.010128
  6
CONTINUOUS
  0
ARC
  8
WHITE
 10
77.333414
 20
174.571100
 30
0.000000
 40
77.875561
 50
-107.195356
 51
-104.353000
  6
CONTINUOUS
  0
ARC
  8
WHITE
 10
58.357914
 20
103.047600
 30
0.000000
 40
3.935076
 50
-94.802768
 51
-20.696000
  6
CONTINUOUS
  0
ARC
  8
WHITE
 10
50.127014
 20
106.891600
 30
0.000000
 40
13.011463
 50
-23.722880
 51
15.948100
  6
CONTINUOUS
  0
ARC
  8
WHITE
 10
56.183932
 20
109.717950
 30
0.000000
 40
6.497124
 50
6.618000
 51
61.406670
  6
CONTINUOUS
  0
ARC
  8
WHITE
 10
52.592017
 20
98.171715
 30
0.000000
 40
18.506864
 50
68.770663
 51
94.140509
  6
CONTINUOUS
  0
LINE
  8
WHITE
 10
51.255773
 20
116.630276
 30
0.000000
 11
51.213714
 21
120.504600
 31
0.000000
  6
CONTINUOUS
  0
LINE
  8
WHITE
 10
51.213714
 20
120.504600
 30
0.000000
 11
50.163714
 21
120.488600
 31
0.000000
  6
CONTINUOUS
  0
LINE
  8
WHITE
 10
50.163714
 20
120.488600
 30
0.000000
 11
50.205714
 21
116.551100
 31
0.000000
  6
CONTINUOUS
  0
ARC
  8
WHITE
 10
48.752497
 20
102.738675
 30
0.000000
 40
13.888661
 50
83.993957
 51
104.943985
  6
CONTINUOUS
  0
ARC
  8
WHITE
 10
216.467414
 20
90.926600
 30
0.000000
 40
3.471090
 50
30.939800
 51
65.984400
  6
CONTINUOUS
  0
ARC
  8
WHITE
 10
218.457414
 20
95.458100
 30
0.000000
 40
1.478278
 50
132.149000
 51
247.012296
  6
CONTINUOUS
  0
ARC
  8
WHITE
 10
216.301147
 20
98.875717
 30
0.000000
 40
2.597135
 50
-63.367334
 51
-13.112670
  6
CONTINUOUS
  0
ARC
  8
WHITE
 10
217.348406
 20
98.372952
 30
0.000000
 40
1.484676
 50
-3.337667
 51
63.249179
  6
CONTINUOUS
  0
ARC
  8
WHITE
 10
219.066801
 20
101.128149
 30
0.000000
 40
1.773700
 50
85.410612
 51
233.697128
  6
CONTINUOUS
  0
ARC
  8
WHITE
 10
218.566884
 20
104.108320
 30
0.000000
 40
1.371598
 50
-62.098767
 51
-42.314427
  6
CONTINUOUS
  0
ARC
  8
WHITE
 10
242.471844
 20
91.861764
 30
0.000000
 40
25.538200
 50
145.692729
 51
153.680086
  6
CONTINUOUS
  0
ARC
  8
WHITE
 10
241.077110
 20
89.043620
 30
0.000000
 40
26.160500
 50
126.807902
 51
138.856399
  6
CONTINUOUS
  0
ARC
  8
WHITE
 10
224.226914
 20
111.341600
 30
0.000000
 40
1.792712
 50
-48.982022
 51
23.531300
  6
CONTINUOUS
  0
ARC
  8
WHITE
 10
222.883914
 20
108.019600
 30
0.000000
 40
5.022290
 50
53.510379
 51
73.047700
  6
CONTINUOUS
  0
ARC
  8
WHITE
 10
225.708174
 20
115.863286
 30
0.000000
 40
3.330045
 50
-140.442002
 51
-114.102830
  6
CONTINUOUS
  0
ARC
  8
WHITE
 10
225.503341
 20
115.102458
 30
0.000000
 40
2.726015
 50
152.598634
 51
209.925596
  6
CONTINUOUS
  0
LINE
  8
WHITE
 10
223.083173
 20
116.357027
 30
0.000000
 11
223.996414
 21
115.874100
 31
0.000000
  6
CONTINUOUS
  0
LINE
  8
WHITE
 10
223.996414
 20
115.874100
 30
0.000000
 11
227.482414
 21
114.031100
 31
0.000000
  6
CONTINUOUS
  0
LINE
  8
WHITE
 10
227.482414
 20
114.031100
 30
0.000000
 11
227.970914
 21
114.960600
 31
0.000000
  6
CONTINUOUS
  0
LINE
  8
WHITE
 10
227.970914
 20
114.960600
 30
0.000000
 11
224.547914
 21
116.771600
 31
0.000000
  6
CONTINUOUS
  0
LINE
  8
WHITE
 10
224.547914
 20
116.771600
 30
0.000000
 11
223.492414
 21
117.328100
 31
0.000000
  6
CONTINUOUS
  0
ARC
  8
WHITE
 10
225.891273
 20
116.509143
 30
0.000000
 40
2.534800
 50
73.129250
 51
161.150377
  6
CONTINUOUS
  0
ARC
  8
WHITE
 10
248.621461
 20
148.574211
 30
0.000000
 40
36.908700
 50
-126.578094
 51
-120.238892
  6
CONTINUOUS
  0
ARC
  8
WHITE
 10
232.381201
 20
121.465451
 30
0.000000
 40
5.323306
 50
-116.163183
 51
-93.568097
  6
CONTINUOUS
  0
ARC
  8
WHITE
 10
231.924914
 20
113.626100
 30
0.000000
 40
2.529454
 50
8.257430
 51
87.167612
  6
CONTINUOUS
  0
ARC
  8
WHITE
 10
231.184992
 20
113.313667
 30
0.000000
 40
3.312700
 50
-98.952597
 51
11.769393
  6
CONTINUOUS
  0
ARC
  8
WHITE
 10
230.065914
 20
109.028100
 30
0.000000
 40
1.179369
 50
59.218308
 51
143.699000
  6
CONTINUOUS
  0
ARC
  8
WHITE
 10
209.171914
 20
121.650600
 30
0.000000
 40
23.236476
 50
-46.140000
 51
-30.875309
  6
CONTINUOUS
  0
ARC
  8
WHITE
 10
226.385414
 20
103.505100
 30
0.000000
 40
1.781632
 50
128.660593
 51
169.820000
  6
CONTINUOUS
  0
ARC
  8
WHITE
 10
226.007414
 20
102.912600
 30
0.000000
 40
1.647892
 50
146.589475
 51
219.847000
  6
CONTINUOUS
  0
ARC
  8
WHITE
 10
225.192646
 20
105.095498
 30
0.000000
 40
3.269962
 50
-97.917710
 51
-76.236028
  6
CONTINUOUS
  0
ARC
  8
WHITE
 10
226.134414
 20
100.118100
 30
0.000000
 40
1.808766
 50
35.713300
 51
95.194809
  6
CONTINUOUS
  0
ARC
  8
WHITE
 10
225.125414
 20
98.611600
 30
0.000000
 40
3.564338
 50
3.043510
 51
45.962738
  6
CONTINUOUS
  0
LINE
  8
WHITE
 10
228.684802
 20
98.800850
 30
0.000000
 11
224.747414
 21
98.722100
 31
0.000000
  6
CONTINUOUS
  0
LINE
  8
WHITE
 10
224.747414
 20
98.722100
 30
0.000000
 11
224.768414
 21
97.672100
 31
0.000000
  6
CONTINUOUS
  0
LINE
  8
WHITE
 10
224.768414
 20
97.672100
 30
0.000000
 11
228.642914
 21
97.745600
 31
0.000000
  6
CONTINUOUS
  0
ARC
  8
WHITE
 10
225.418577
 20
97.650140
 30
0.000000
 40
3.225750
 50
-76.241977
 51
1.695811
  6
CONTINUOUS
  0
ARC
  8
WHITE
 10
225.834414
 20
92.874100
 30
0.000000
 40
1.679985
 50
77.929269
 51
169.933000
  6
CONTINUOUS
  0
ARC
  8
WHITE
 10
228.626414
 20
93.494600
 30
0.000000
 40
4.458209
 50
-175.795987
 51
-141.535000
  6
CONTINUOUS
  0
ARC
  8
WHITE
 10
212.850414
 20
78.552100
 30
0.000000
 40
17.292152
 50
26.564400
 51
44.728376
  6
CONTINUOUS
  0
ARC
  8
WHITE
 10
230.985270
 20
87.937833
 30
0.000000
 40
3.138593
 50
-148.226901
 51
-125.153390
  6
CONTINUOUS
  0
ARC
  8
WHITE
 10
230.628914
 20
82.289600
 30
0.000000
 40
3.406444
 50
35.423500
 51
115.206516
  6
CONTINUOUS
  0
ARC
  8
WHITE
 10
230.852788
 20
82.388180
 30
0.000000
 40
3.167175
 50
-77.843905
 51
36.317716
  6
CONTINUOUS
  0
ARC
  8
WHITE
 10
232.797414
 20
66.524600
 30
0.000000
 40
12.831195
 50
95.714834
 51
120.498000
  6
CONTINUOUS
  0
ARC
  8
WHITE
 10
224.746914
 20
79.601600
 30
0.000000
 40
2.540080
 50
-140.616000
 51
-52.719111
  6
CONTINUOUS
  0
ARC
  8
WHITE
 10
223.045942
 20
78.522406
 30
0.000000
 40
0.593675
 50
112.307730
 51
243.775674
  6
CONTINUOUS
  0
LINE
  8
WHITE
 10
222.820594
 20
79.071649
 30
0.000000
 11
226.568914
 21
80.279100
 31
0.000000
  6
CONTINUOUS
  0
LINE
  8
WHITE
 10
226.568914
 20
80.279100
 30
0.000000
 11
226.248914
 21
81.281600
 31
0.000000
  6
CONTINUOUS
  0
LINE
  8
WHITE
 10
226.248914
 20
81.281600
 30
0.000000
 11
222.563414
 21
80.090100
 31
0.000000
  6
CONTINUOUS
  0
ARC
  8
WHITE
 10
222.315469
 20
80.605257
 30
0.000000
 40
0.571720
 50
160.797681
 51
295.701519
  6
CONTINUOUS
  0
ARC
  8
WHITE
 10
223.984264
 20
80.964554
 30
0.000000
 40
2.215335
 50
107.043921
 51
184.433638
  6
CONTINUOUS
  0
ARC
  8
WHITE
 10
223.053414
 20
85.566600
 30
0.000000
 40
2.499910
 50
-83.533994
 51
-48.958000
  6
CONTINUOUS
  0
ARC
  8
WHITE
 10
223.786275
 20
84.751982
 30
0.000000
 40
1.404445
 50
-49.686489
 51
49.699485
  6
CONTINUOUS
  0
ARC
  8
WHITE
 10
213.893774
 20
76.800366
 30
0.000000
 40
14.073698
 50
39.874348
 51
54.509068
  6
CONTINUOUS
  0
ARC
  8
WHITE
 10
225.303353
 20
92.974208
 30
0.000000
 40
5.720150
 50
-174.197881
 51
-124.485722
  6
CONTINUOUS
  0
ARC
  8
WHITE
 10
216.467003
 20
90.923045
 30
0.000000
 40
3.473272
 50
25.091527
 51
30.986603
  6
CONTINUOUS
  0
ARC
  8
WHITE
 10
235.948414
 20
17.823900
 30
0.000000
 40
18.629550
 50
146.021000
 51
147.584000
  6
CONTINUOUS
  0
ARC
  8
WHITE
 10
235.954649
 20
17.832931
 30
0.000000
 40
18.629975
 50
147.617725
 51
166.448849
  6
CONTINUOUS
  0
ARC
  8
WHITE
 10
209.495414
 20
23.399200
 30
0.000000
 40
8.433850
 50
-25.071853
 51
-8.187000
  6
CONTINUOUS
  0
ARC
  8
WHITE
 10
218.527109
 20
17.947945
 30
0.000000
 40
2.337395
 50
126.564951
 51
179.409963
  6
CONTINUOUS
  0
ARC
  8
WHITE
 10
213.376018
 20
17.395552
 30
0.000000
 40
2.872263
 50
-22.367494
 51
11.577895
  6
CONTINUOUS
  0
ARC
  8
WHITE
 10
217.732599
 20
14.578382
 30
0.000000
 40
2.421590
 50
134.603125
 51
189.558059
  6
CONTINUOUS
  0
ARC
  8
WHITE
 10
212.567414
 20
13.557000
 30
0.000000
 40
2.845420
 50
-34.252151
 51
12.570600
  6
CONTINUOUS
  0
ARC
  8
WHITE
 10
215.990414
 20
11.325300
 30
0.000000
 40
1.242780
 50
149.528000
 51
265.384718
  6
CONTINUOUS
  0
LINE
  8
WHITE
 10
215.890414
 20
10.086550
 30
0.000000
 11
219.470914
 21
20.780800
 31
0.000000
  6
CONTINUOUS
  0
LINE
  8
WHITE
 10
219.470914
 20
20.780800
 30
0.000000
 11
219.896414
 21
20.560300
 31
0.000000
  6
CONTINUOUS
  0
LINE
  8
WHITE
 10
219.896414
 20
20.560300
 30
0.000000
 11
215.927384
 21
8.700759
 31
0.000000
  6
CONTINUOUS
  0
ARC
  8
WHITE
 10
182.348914
 20
12.578200
 30
0.000000
 40
33.801600
 50
-7.861205
 51
-6.587000
  6
CONTINUOUS
  0
ARC
  8
WHITE
 10
216.562414
 20
7.519415
 30
0.000000
 40
0.849745
 50
149.160000
 51
307.727269
  6
CONTINUOUS
  0
LINE
  8
WHITE
 10
217.082414
 20
6.847275
 30
0.000000
 11
221.518414
 21
20.171800
 31
0.000000
  6
CONTINUOUS
  0
LINE
  8
WHITE
 10
221.518414
 20
20.171800
 30
0.000000
 11
221.959414
 21
20.014300
 31
0.000000
  6
CONTINUOUS
  0
LINE
  8
WHITE
 10
221.959414
 20
20.014300
 30
0.000000
 11
216.945673
 21
4.957281
 31
0.000000
  6
CONTINUOUS
  0
ARC
  8
WHITE
 10
217.944414
 20
4.846790
 30
0.000000
 40
1.004835
 50
173.687000
 51
344.869726
  6
CONTINUOUS
  0
ARC
  8
WHITE
 10
221.760202
 20
4.054997
 30
0.000000
 40
2.894641
 50
132.290837
 51
169.459469
  6
CONTINUOUS
  0
LINE
  8
WHITE
 10
219.812414
 20
6.196275
 30
0.000000
 11
223.817914
 21
18.817300
 31
0.000000
  6
CONTINUOUS
  0
LINE
  8
WHITE
 10
223.817914
 20
18.817300
 30
0.000000
 11
224.258914
 21
18.659800
 31
0.000000
  6
CONTINUOUS
  0
LINE
  8
WHITE
 10
224.258914
 20
18.659800
 30
0.000000
 11
220.253164
 21
6.033528
 31
0.000000
  6
CONTINUOUS
  0
ARC
  8
WHITE
 10
219.843840
 20
5.669747
 30
0.000000
 40
0.547615
 50
-20.019088
 51
41.628751
  6
CONTINUOUS
  0
ARC
  8
WHITE
 10
221.002826
 20
5.270655
 30
0.000000
 40
0.678315
 50
161.821070
 51
349.886442
  6
CONTINUOUS
  0
ARC
  8
WHITE
 10
227.241279
 20
1.345938
 30
0.000000
 40
6.746487
 50
130.997423
 51
145.661083
  6
CONTINUOUS
  0
LINE
  8
WHITE
 10
222.815414
 20
6.437775
 30
0.000000
 11
225.902414
 21
17.373550
 31
0.000000
  6
CONTINUOUS
  0
LINE
  8
WHITE
 10
225.902414
 20
17.373550
 30
0.000000
 11
226.358914
 21
17.279050
 31
0.000000
  6
CONTINUOUS
  0
LINE
  8
WHITE
 10
226.358914
 20
17.279050
 30
0.000000
 11
223.219647
 21
6.164772
 31
0.000000
  6
CONTINUOUS
  0
ARC
  8
WHITE
 10
223.534291
 20
5.898674
 30
0.000000
 40
0.412079
 50
139.778351
 51
235.022611
  6
CONTINUOUS
  0
ARC
  8
WHITE
 10
224.046914
 20
6.411295
 30
0.000000
 40
1.133020
 50
-131.371000
 51
-34.733745
  6
CONTINUOUS
  0
ARC
  8
WHITE
 10
231.094914
 20
4.076640
 30
0.000000
 40
6.345850
 50
144.916391
 51
164.563000
  6
CONTINUOUS
  0
ARC
  8
WHITE
 10
222.431426
 20
10.894060
 30
0.000000
 40
4.700470
 50
-42.408240
 51
-18.077405
  6
CONTINUOUS
  0
ARC
  8
WHITE
 10
229.887600
 20
9.915574
 30
0.000000
 40
3.026053
 50
153.568521
 51
189.128430
  6
CONTINUOUS
  0
ARC
  8
WHITE
 10
220.689919
 20
14.792878
 30
0.000000
 40
7.386250
 50
-28.552193
 51
-12.998617
  6
CONTINUOUS
  0
ARC
  8
WHITE
 10
229.949914
 20
13.445350
 30
0.000000
 40
2.086750
 50
148.238830
 51
188.650000
  6
CONTINUOUS
  0
ARC
  8
WHITE
 10
225.031306
 20
16.845202
 30
0.000000
 40
3.896635
 50
-36.201296
 51
10.449828
  6
CONTINUOUS
  0
ARC
  8
WHITE
 10
165.196106
 20
30.937035
 30
0.000000
 40
65.059000
 50
-11.872682
 51
-5.921819
  6
CONTINUOUS
  0
ARC
  8
WHITE
 10
316.005361
 20
40.725314
 30
0.000000
 40
87.664331
 50
-170.784960
 51
-169.150862
  6
CONTINUOUS
  0
ARC
  8
WHITE
 10
99.587414
 20
46.812550
 30
0.000000
 40
131.435000
 50
-8.808000
 51
-6.259038
  6
CONTINUOUS
  0
ARC
  8
WHITE
 10
227.570414
 20
33.194100
 30
0.000000
 40
2.761565
 50
-14.921000
 51
79.125248
  6
CONTINUOUS
  0
LINE
  8
WHITE
 10
228.091414
 20
35.906050
 30
0.000000
 11
227.650414
 21
34.346800
 31
0.000000
  6
CONTINUOUS
  0
LINE
  8
WHITE
 10
227.650414
 20
34.346800
 30
0.000000
 11
226.574414
 21
30.556300
 31
0.000000
  6
CONTINUOUS
  0
LINE
  8
WHITE
 10
226.574414
 20
30.556300
 30
0.000000
 11
225.560914
 21
30.845050
 31
0.000000
  6
CONTINUOUS
  0
LINE
  8
WHITE
 10
225.560914
 20
30.845050
 30
0.000000
 11
226.621414
 21
34.572550
 31
0.000000
  6
CONTINUOUS
  0
LINE
  8
WHITE
 10
226.621414
 20
34.572550
 30
0.000000
 11
227.094082
 21
36.242011
 31
0.000000
  6
CONTINUOUS
  0
ARC
  8
WHITE
 10
226.308914
 20
33.550200
 30
0.000000
 40
2.803985
 50
73.738700
 51
169.680474
  6
CONTINUOUS
  0
ARC
  8
WHITE
 10
179.529414
 20
50.585700
 30
0.000000
 40
47.023200
 50
-26.568760
 51
-20.585000
  6
CONTINUOUS
  0
ARC
  8
WHITE
 10
222.746661
 20
27.489758
 30
0.000000
 40
2.367275
 50
119.332972
 51
161.631501
  6
CONTINUOUS
  0
ARC
  8
WHITE
 10
144.819914
 20
69.160600
 30
0.000000
 40
47.021050
 50
76.885100
 51
80.986000
  6
CONTINUOUS
  0
ARC
  8
WHITE
 10
152.124900
 20
118.403417
 30
0.000000
 40
2.803160
 50
175.356241
 51
271.268907
  6
CONTINUOUS
  0
LINE
  8
WHITE
 10
149.330941
 20
118.630361
 30
0.000000
 11
151.058414
 21
118.504100
 31
0.000000
  6
CONTINUOUS
  0
LINE
  8
WHITE
 10
151.058414
 20
118.504100
 30
0.000000
 11
154.922414
 21
118.220600
 31
0.000000
  6
CONTINUOUS
  0
LINE
  8
WHITE
 10
154.922414
 20
118.220600
 30
0.000000
 11
155.000914
 21
119.265600
 31
0.000000
  6
CONTINUOUS
  0
LINE
  8
WHITE
 10
155.000914
 20
119.265600
 30
0.000000
 11
151.073914
 21
119.554100
 31
0.000000
  6
CONTINUOUS
  0
LINE
  8
WHITE
 10
151.073914
 20
119.554100
 30
0.000000
 11
149.456914
 21
119.675100
 31
0.000000
  6
CONTINUOUS
  0
ARC
  8
WHITE
 10
152.217914
 20
119.711100
 30
0.000000
 40
2.761235
 50
86.719900
 51
180.747023
  6
CONTINUOUS
  0
ARC
  8
WHITE
 10
164.611914
 20
-8.391350
 30
0.000000
 40
131.429991
 50
92.792600
 51
95.341919
  6
CONTINUOUS
  0
ARC
  8
WHITE
 10
126.946742
 20
204.786515
 30
0.000000
 40
87.667307
 50
-69.108715
 51
-67.476424
  6
CONTINUOUS
  0
ARC
  8
WHITE
 10
166.935800
 20
59.073082
 30
0.000000
 40
65.049500
 50
89.696282
 51
95.652386
  6
CONTINUOUS
  0
ARC
  8
WHITE
 10
168.751414
 20
120.515100
 30
0.000000
 40
3.894942
 50
65.480200
 51
112.186154
  6
CONTINUOUS
  0
ARC
  8
WHITE
 10
171.086914
 20
126.017100
 30
0.000000
 40
2.086078
 50
-110.162479
 51
-69.832000
  6
CONTINUOUS
  0
ARC
  8
WHITE
 10
171.638403
 20
116.671906
 30
0.000000
 40
7.388850
 50
73.151106
 51
88.698978
  6
CONTINUOUS
  0
ARC
  8
WHITE
 10
174.556463
 20
126.668220
 30
0.000000
 40
3.025952
 50
-104.867490
 51
-69.259813
  6
CONTINUOUS
  0
ARC
  8
WHITE
 10
175.088491
 20
119.165353
 30
0.000000
 40
4.704055
 50
59.127891
 51
83.413677
  6
CONTINUOUS
  0
ARC
  8
WHITE
 10
180.023922
 20
129.020030
 30
0.000000
 40
6.340163
 50
-113.436313
 51
-93.809791
  6
CONTINUOUS
  0
ARC
  8
WHITE
 10
179.160914
 20
121.651100
 30
0.000000
 40
1.132484
 50
-29.843000
 51
67.041633
  6
CONTINUOUS
  0
ARC
  8
WHITE
 10
179.765414
 20
121.250100
 30
0.000000
 40
0.411364
 50
-118.234000
 51
-23.281001
  6
CONTINUOUS
  0
LINE
  8
WHITE
 10
179.570841
 20
120.887738
 30
0.000000
 11
168.052414
 21
121.727600
 31
0.000000
  6
CONTINUOUS
  0
LINE
  8
WHITE
 10
168.052414
 20
121.727600
 30
0.000000
 11
168.052414
 21
121.260600
 31
0.000000
  6
CONTINUOUS
  0
LINE
  8
WHITE
 10
168.052414
 20
121.260600
 30
0.000000
 11
179.381914
 21
120.436100
 31
0.000000
  6
CONTINUOUS
  0
ARC
  8
WHITE
 10
183.473056
 20
125.801255
 30
0.000000
 40
6.747023
 50
-127.326943
 51
-112.665127
  6
CONTINUOUS
  0
ARC
  8
WHITE
 10
180.886713
 20
118.895796
 30
0.000000
 40
0.679625
 50
-96.500575
 51
91.145362
  6
CONTINUOUS
  0
ARC
  8
WHITE
 10
180.734126
 20
117.679140
 30
0.000000
 40
0.546659
 50
82.046132
 51
143.343324
  6
CONTINUOUS
  0
LINE
  8
WHITE
 10
180.295581
 20
118.005506
 30
0.000000
 11
167.117914
 21
119.396600
 31
0.000000
  6
CONTINUOUS
  0
LINE
  8
WHITE
 10
167.117914
 20
119.396600
 30
0.000000
 11
167.054914
 21
118.929600
 31
0.000000
  6
CONTINUOUS
  0
LINE
  8
WHITE
 10
167.054914
 20
118.929600
 30
0.000000
 11
180.227414
 21
117.543600
 31
0.000000
  6
CONTINUOUS
  0
ARC
  8
WHITE
 10
181.934150
 20
119.879428
 30
0.000000
 40
2.892929
 50
-126.154727
 51
-88.971595
  6
CONTINUOUS
  0
ARC
  8
WHITE
 10
181.918919
 20
115.985695
 30
0.000000
 40
1.003520
 50
-84.652623
 51
86.163052
  6
CONTINUOUS
  0
LINE
  8
WHITE
 10
182.012441
 20
114.986542
 30
0.000000
 11
166.256914
 21
116.871600
 31
0.000000
  6
CONTINUOUS
  0
LINE
  8
WHITE
 10
166.256914
 20
116.871600
 30
0.000000
 11
166.188914
 21
116.404100
 31
0.000000
  6
CONTINUOUS
  0
LINE
  8
WHITE
 10
166.188914
 20
116.404100
 30
0.000000
 11
180.132914
 21
114.740100
 31
0.000000
  6
CONTINUOUS
  0
ARC
  8
WHITE
 10
179.580914
 20
114.093100
 30
0.000000
 40
0.850478
 50
-109.423000
 51
49.530235
  6
CONTINUOUS
  0
ARC
  8
WHITE
 10
181.535414
 20
79.565600
 30
0.000000
 40
33.799602
 50
93.795360
 51
95.063300
  6
CONTINUOUS
  0
LINE
  8
WHITE
 10
178.552379
 20
113.233407
 30
0.000000
 11
166.136414
 21
114.734600
 31
0.000000
  6
CONTINUOUS
  0
LINE
  8
WHITE
 10
166.136414
 20
114.734600
 30
0.000000
 11
166.004914
 21
114.278100
 31
0.000000
  6
CONTINUOUS
  0
LINE
  8
WHITE
 10
166.004914
 20
114.278100
 30
0.000000
 11
177.203414
 21
112.918100
 31
0.000000
  6
CONTINUOUS
  0
ARC
  8
WHITE
 10
175.969136
 20
112.771024
 30
0.000000
 40
1.243010
 50
-108.965815
 51
6.795308
  6
CONTINUOUS
  0
ARC
  8
WHITE
 10
174.470754
 20
108.969958
 30
0.000000
 40
2.844494
 50
67.372213
 51
114.244068
  6
CONTINUOUS
  0
ARC
  8
WHITE
 10
172.429760
 20
113.821368
 30
0.000000
 40
2.420680
 50
-123.835847
 51
-68.860966
  6
CONTINUOUS
  0
ARC
  8
WHITE
 10
170.551414
 20
108.986100
 30
0.000000
 40
2.873946
 50
79.363338
 51
113.237000
  6
CONTINUOUS
  0
ARC
  8
WHITE
 10
168.969914
 20
113.921600
 30
0.000000
 40
2.337993
 50
-131.780000
 51
-78.961585
  6
CONTINUOUS
  0
ARC
  8
WHITE
 10
165.436632
 20
103.977307
 30
0.000000
 40
8.435464
 50
76.455631
 51
93.345941
  6
CONTINUOUS
  0
ARC
  8
WHITE
 10
165.574865
 20
131.014915
 30
0.000000
 40
18.627200
 50
-112.329498
 51
-91.939937
  6
CONTINUOUS
  0
ARC
  8
WHITE
 10
158.771727
 20
116.135816
 30
0.000000
 40
2.367230
 50
-138.985071
 51
-96.645237
  6
CONTINUOUS
  0
ARC
  8
WHITE
 10
144.869289
 20
69.150433
 30
0.000000
 40
47.019775
 50
75.067282
 51
76.946507
  6
CONTINUOUS
  0
ARC
  8
WHITE
 10
19.587514
 20
16.106950
 30
0.000000
 40
9.747350
 50
122.478000
 51
220.824000
  6
CONTINUOUS
  0
ARC
  8
WHITE
 10
14.958764
 20
11.398550
 30
0.000000
 40
3.211821
 50
-148.800010
 51
-64.880000
  6
CONTINUOUS
  0
ARC
  8
WHITE
 10
16.400664
 20
7.242625
 30
0.000000
 40
1.250349
 50
-70.357000
 51
93.596641
  6
CONTINUOUS
  0
ARC
  8
WHITE
 10
14.953214
 20
13.687000
 30
0.000000
 40
7.847489
 50
175.541000
 51
283.769044
  6
CONTINUOUS
  0
ARC
  8
WHITE
 10
17.965814
 20
18.040900
 30
0.000000
 40
11.464787
 50
104.535000
 51
199.059340
  6
CONTINUOUS
  0
ARC
  8
WHITE
 10
23.170114
 20
11.074200
 30
0.000000
 40
19.789979
 50
105.012000
 51
114.102531
  6
CONTINUOUS
  0
ARC
  8
WHITE
 10
16.448614
 20
31.430250
 30
0.000000
 40
2.021603
 50
-37.887736
 51
19.971700
  6
CONTINUOUS
  0
ARC
  8
WHITE
 10
62.514914
 20
45.108950
 30
0.000000
 40
46.036347
 50
-166.474000
 51
-163.612700
  6
CONTINUOUS
  0
ARC
  8
WHITE
 10
18.797614
 20
33.987150
 30
0.000000
 40
1.100828
 50
108.781000
 51
161.213401
  6
CONTINUOUS
  0
ARC
  8
WHITE
 10
22.214314
 20
22.445150
 30
0.000000
 40
13.137017
 50
81.526900
 51
106.681887
  6
CONTINUOUS
  0
ARC
  8
WHITE
 10
23.536214
 20
34.236000
 30
0.000000
 40
1.350363
 50
20.506300
 51
62.965350
  6
CONTINUOUS
  0
ARC
  8
WHITE
 10
12.589564
 20
34.148600
 30
0.000000
 40
12.224273
 50
-9.723000
 51
2.627714
  6
CONTINUOUS
  0
ARC
  8
WHITE
 10
25.992764
 20
31.690100
 30
0.000000
 40
1.410683
 50
163.781434
 51
225.597000
  6
CONTINUOUS
  0
ARC
  8
WHITE
 10
20.969364
 20
6.537310
 30
0.000000
 40
24.480018
 50
71.936300
 51
80.509520
  6
CONTINUOUS
  0
ARC
  8
WHITE
 10
25.861914
 20
16.736900
 30
0.000000
 40
13.349397
 50
-42.192000
 51
78.339476
  6
CONTINUOUS
  0
ARC
  8
WHITE
 10
32.204614
 20
12.606650
 30
0.000000
 40
5.997340
 50
-112.938000
 51
-53.731909
  6
CONTINUOUS
  0
ARC
  8
WHITE
 10
29.867264
 20
8.149450
 30
0.000000
 40
1.065922
 50
64.316400
 51
269.998597
  6
CONTINUOUS
  0
ARC
  8
WHITE
 10
30.953314
 20
12.385700
 30
0.000000
 40
3.334576
 50
-100.786850
 51
-27.160000
  6
CONTINUOUS
  0
ARC
  8
WHITE
 10
26.670164
 20
16.601300
 30
0.000000
 40
9.245830
 50
-38.358429
 51
76.873000
  6
CONTINUOUS
  0
ARC
  8
WHITE
 10
21.951414
 20
-10.504100
 30
0.000000
 40
36.747784
 50
79.306758
 51
89.281500
  6
CONTINUOUS
  0
LINE
  8
WHITE
 10
22.412226
 20
26.240761
 30
0.000000
 11
22.154964
 21
30.104800
 31
0.000000
  6
CONTINUOUS
  0
LINE
  8
WHITE
 10
22.154964
 20
30.104800
 30
0.000000
 11
21.104964
 21
30.036550
 31
0.000000
  6
CONTINUOUS
  0
LINE
  8
WHITE
 10
21.104964
 20
30.036550
 30
0.000000
 11
21.367464
 21
26.104300
 31
0.000000
  6
CONTINUOUS
  0
ARC
  8
WHITE
 10
24.768314
 20
-6.619200
 30
0.000000
 40
32.899745
 50
95.933269
 51
106.452000
  6
CONTINUOUS
  0
ARC
  8
WHITE
 10
19.592214
 20
16.107850
 30
0.000000
 40
9.749101
 50
115.138559
 51
122.504142
  6
CONTINUOUS
  0
ARC
  8
WHITE
 10
111.516414
 20
49.015700
 30
0.000000
 40
6.095250
 50
101.689000
 51
116.731000
  6
CONTINUOUS
  0
ARC
  8
WHITE
 10
111.541792
 20
49.025942
 30
0.000000
 40
6.097578
 50
116.987263
 51
133.536926
  6
CONTINUOUS
  0
ARC
  8
WHITE
 10
114.239414
 20
46.797950
 30
0.000000
 40
9.580150
 50
136.055000
 51
178.167064
  6
CONTINUOUS
  0
ARC
  8
WHITE
 10
116.366365
 20
45.082761
 30
0.000000
 40
11.875500
 50
170.198587
 51
191.318518
  6
CONTINUOUS
  0
ARC
  8
WHITE
 10
109.073914
 20
43.350600
 30
0.000000
 40
4.393055
 50
-172.169000
 51
-63.218794
  6
CONTINUOUS
  0
ARC
  8
WHITE
 10
110.537914
 20
49.681900
 30
0.000000
 40
10.266100
 50
-87.122000
 51
-80.041706
  6
CONTINUOUS
  0
ARC
  8
WHITE
 10
112.408414
 20
38.580900
 30
0.000000
 40
0.994175
 50
-66.375957
 51
95.493600
  6
CONTINUOUS
  0
ARC
  8
WHITE
 10
107.808414
 20
46.153950
 30
0.000000
 40
9.846850
 50
-94.431068
 51
-59.495000
  6
CONTINUOUS
  0
ARC
  8
WHITE
 10
108.107414
 20
42.406200
 30
0.000000
 40
6.161500
 50
-165.234800
 51
-99.904000
  6
CONTINUOUS
  0
ARC
  8
WHITE
 10
117.384914
 20
46.715100
 30
0.000000
 40
16.330550
 50
160.601753
 51
201.101000
  6
CONTINUOUS
  0
ARC
  8
WHITE
 10
110.521671
 20
49.853783
 30
0.000000
 40
8.840739
 50
97.284187
 51
165.019635
  6
CONTINUOUS
  0
ARC
  8
WHITE
 10
77.162914
 20
195.297100
 30
0.000000
 40
140.424500
 50
-76.728000
 51
-75.634463
  6
CONTINUOUS
  0
ARC
  8
WHITE
 10
112.099092
 20
60.593087
 30
0.000000
 40
1.333205
 50
-94.122644
 51
18.549628
  6
CONTINUOUS
  0
ARC
  8
WHITE
 10
158.398914
 20
70.563600
 30
0.000000
 40
46.036550
 50
-170.889439
 51
-168.032000
  6
CONTINUOUS
  0
ARC
  8
WHITE
 10
113.956914
 20
62.844100
 30
0.000000
 40
1.101195
 50
104.652039
 51
157.011000
  6
CONTINUOUS
  0
ARC
  8
WHITE
 10
116.457414
 20
51.073250
 30
0.000000
 40
13.133600
 50
77.048735
 51
102.216000
  6
CONTINUOUS
  0
ARC
  8
WHITE
 10
118.701795
 20
62.724514
 30
0.000000
 40
1.344399
 50
16.041566
 51
58.663907
  6
CONTINUOUS
  0
ARC
  8
WHITE
 10
107.776924
 20
63.490163
 30
0.000000
 40
12.223278
 50
-14.200761
 51
-1.847849
  6
CONTINUOUS
  0
ARC
  8
WHITE
 10
120.577006
 20
59.966766
 30
0.000000
 40
1.085590
 50
151.092034
 51
262.476006
  6
CONTINUOUS
  0
ARC
  8
WHITE
 10
116.708414
 20
42.840800
 30
0.000000
 40
16.476650
 50
53.477380
 51
76.928600
  6
CONTINUOUS
  0
ARC
  8
WHITE
 10
118.597342
 20
47.402657
 30
0.000000
 40
11.747563
 50
-8.321090
 51
47.629360
  6
CONTINUOUS
  0
ARC
  8
WHITE
 10
117.874232
 20
45.148788
 30
0.000000
 40
12.359413
 50
-35.993159
 51
2.567968
  6
CONTINUOUS
  0
ARC
  8
WHITE
 10
123.046414
 20
40.924500
 30
0.000000
 40
5.704650
 50
-127.163254
 51
-32.192000
  6
CONTINUOUS
  0
ARC
  8
WHITE
 10
161.659975
 20
110.438454
 30
0.000000
 40
85.169892
 50
-121.082414
 51
-119.592795
  6
CONTINUOUS
  0
ARC
  8
WHITE
 10
118.462414
 20
38.176000
 30
0.000000
 40
1.029120
 50
67.900949
 51
221.300000
  6
CONTINUOUS
  0
ARC
  8
WHITE
 10
123.509914
 20
48.963200
 30
0.000000
 40
10.882100
 50
-115.357000
 51
-92.924003
  6
CONTINUOUS
  0
ARC
  8
WHITE
 10
120.945110
 20
43.693070
 30
0.000000
 40
5.947600
 50
-70.251002
 51
-0.518082
  6
CONTINUOUS
  0
ARC
  8
WHITE
 10
111.982414
 20
45.161950
 30
0.000000
 40
14.987600
 50
-5.831000
 51
21.342260
  6
CONTINUOUS
  0
ARC
  8
WHITE
 10
120.566414
 20
48.700100
 30
0.000000
 40
5.707200
 50
19.620600
 51
76.271066
  6
CONTINUOUS
  0
ARC
  8
WHITE
 10
107.619414
 20
-5.468950
 30
0.000000
 40
61.402000
 50
76.531200
 51
81.627156
  6
CONTINUOUS
  0
LINE
  8
WHITE
 10
116.560414
 20
55.278600
 30
0.000000
 11
116.597414
 21
58.743600
 31
0.000000
  6
CONTINUOUS
  0
LINE
  8
WHITE
 10
116.597414
 20
58.743600
 30
0.000000
 11
115.547414
 21
58.754100
 31
0.000000
  6
CONTINUOUS
  0
LINE
  8
WHITE
 10
115.547414
 20
58.754100
 30
0.000000
 11
115.515657
 21
55.457010
 31
0.000000
  6
CONTINUOUS
  0
ARC
  8
WHITE
 10
115.399914
 20
27.511250
 30
0.000000
 40
27.946000
 50
89.762700
 51
100.553460
  6
CONTINUOUS
  0
ARC
  8
WHITE
 10
105.914414
 20
111.600600
 30
0.000000
 40
6.092350
 50
102.499000
 51
121.547000
  6
CONTINUOUS
  0
ARC
  8
WHITE
 10
105.912213
 20
111.599249
 30
0.000000
 40
6.092350
 50
121.522707
 51
134.109349
  6
CONTINUOUS
  0
ARC
  8
WHITE
 10
108.642620
 20
109.398288
 30
0.000000
 40
9.582700
 50
136.672433
 51
178.760048
  6
CONTINUOUS
  0
ARC
  8
WHITE
 10
110.785414
 20
107.711100
 30
0.000000
 40
11.875350
 50
170.820000
 51
191.943861
  6
CONTINUOUS
  0
ARC
  8
WHITE
 10
103.513474
 20
105.899198
 30
0.000000
 40
4.394015
 50
-171.549298
 51
-62.601747
  6
CONTINUOUS
  0
ARC
  8
WHITE
 10
104.884408
 20
112.240941
 30
0.000000
 40
10.263550
 50
-86.362980
 51
-79.297655
  6
CONTINUOUS
  0
ARC
  8
WHITE
 10
106.895578
 20
101.166948
 30
0.000000
 40
0.994550
 50
-65.722640
 51
96.069477
  6
CONTINUOUS
  0
ARC
  8
WHITE
 10
102.213506
 20
108.692061
 30
0.000000
 40
9.849461
 50
-93.796220
 51
-58.876826
  6
CONTINUOUS
  0
ARC
  8
WHITE
 10
102.554871
 20
104.942759
 30
0.000000
 40
6.159200
 50
-164.634675
 51
-99.282361
  6
CONTINUOUS
  0
ARC
  8
WHITE
 10
111.788494
 20
109.351333
 30
0.000000
 40
16.330910
 50
161.219196
 51
201.708658
  6
CONTINUOUS
  0
ARC
  8
WHITE
 10
104.891914
 20
112.421600
 30
0.000000
 40
8.839750
 50
97.928093
 51
165.673000
  6
CONTINUOUS
  0
ARC
  8
WHITE
 10
70.133056
 20
257.539176
 30
0.000000
 40
140.426500
 50
-76.181858
 51
-75.085567
  6
CONTINUOUS
  0
ARC
  8
WHITE
 10
106.353817
 20
123.170576
 30
0.000000
 40
1.329420
 50
-93.377396
 51
19.188973
  6
CONTINUOUS
  0
ARC
  8
WHITE
 10
152.554804
 20
133.566146
 30
0.000000
 40
46.035482
 50
-170.369290
 51
-167.506747
  6
CONTINUOUS
  0
ARC
  8
WHITE
 10
108.184805
 20
125.442705
 30
0.000000
 40
1.100720
 50
105.107353
 51
157.465859
  6
CONTINUOUS
  0
ARC
  8
WHITE
 10
110.817447
 20
113.700702
 30
0.000000
 40
13.133296
 50
77.675470
 51
102.844110
  6
CONTINUOUS
  0
ARC
  8
WHITE
 10
112.927750
 20
125.376653
 30
0.000000
 40
1.346666
 50
16.532712
 51
59.029916
  6
CONTINUOUS
  0
ARC
  8
WHITE
 10
101.996914
 20
126.013100
 30
0.000000
 40
12.224450
 50
-13.516185
 51
-1.187000
  6
CONTINUOUS
  0
ARC
  8
WHITE
 10
114.837186
 20
122.637679
 30
0.000000
 40
1.085970
 50
151.492731
 51
263.126126
  6
CONTINUOUS
  0
ARC
  8
WHITE
 10
111.144309
 20
105.472451
 30
0.000000
 40
16.476890
 50
54.068851
 51
77.511926
  6
CONTINUOUS
  0
ARC
  8
WHITE
 10
112.990449
 20
110.052859
 30
0.000000
 40
11.745433
 50
-7.712635
 51
48.239286
  6
CONTINUOUS
  0
ARC
  8
WHITE
 10
112.291414
 20
107.781100
 30
0.000000
 40
12.357800
 50
-35.339448
 51
3.226170
  6
CONTINUOUS
  0
ARC
  8
WHITE
 10
117.514667
 20
103.619912
 30
0.000000
 40
5.702236
 50
-126.617342
 51
-31.586722
  6
CONTINUOUS
  0
ARC
  8
WHITE
 10
155.378031
 20
173.548267
 30
0.000000
 40
85.169162
 50
-120.467861
 51
-118.979800
  6
CONTINUOUS
  0
ARC
  8
WHITE
 10
112.958414
 20
100.826600
 30
0.000000
 40
1.028685
 50
68.396290
 51
221.886000
  6
CONTINUOUS
  0
ARC
  8
WHITE
 10
117.898044
 20
111.663809
 30
0.000000
 40
10.882550
 50
-114.777651
 51
-92.371641
  6
CONTINUOUS
  0
ARC
  8
WHITE
 10
115.380169
 20
106.367195
 30
0.000000
 40
5.947550
 50
-69.657619
 51
0.093657
  6
CONTINUOUS
  0
ARC
  8
WHITE
 10
106.401833
 20
107.741210
 30
0.000000
 40
14.988100
 50
-5.222582
 51
21.948383
  6
CONTINUOUS
  0
ARC
  8
WHITE
 10
114.945703
 20
111.367673
 30
0.000000
 40
5.710550
 50
20.240777
 51
76.894303
  6
CONTINUOUS
  0
ARC
  8
WHITE
 10
102.579335
 20
57.070091
 30
0.000000
 40
61.398500
 50
77.144032
 51
82.234993
  6
CONTINUOUS
  0
LINE
  8
WHITE
 10
110.874914
 20
117.905600
 30
0.000000
 11
110.874914
 21
121.370600
 31
0.000000
  6
CONTINUOUS
  0
LINE
  8
WHITE
 10
110.874914
 20
121.370600
 30
0.000000
 11
109.824914
 21
121.370600
 31
0.000000
  6
CONTINUOUS
  0
LINE
  8
WHITE
 10
109.824914
 20
121.370600
 30
0.000000
 11
109.824507
 21
118.073613
 31
0.000000
  6
CONTINUOUS
  0
ARC
  8
WHITE
 10
109.990103
 20
90.128104
 30
0.000000
 40
27.946000
 50
90.339513
 51
101.129236
  6
CONTINUOUS
  0
ARC
  8
WHITE
 10
12.744985
 20
110.449054
 30
0.000000
 40
5.545272
 50
97.869779
 51
178.027412
  6
CONTINUOUS
  0
ARC
  8
WHITE
 10
17.162264
 20
107.609600
 30
0.000000
 40
10.410085
 50
163.076440
 51
202.189000
  6
CONTINUOUS
  0
ARC
  8
WHITE
 10
11.675664
 20
105.043600
 30
0.000000
 40
4.371213
 50
-161.797383
 51
-96.617000
  6
CONTINUOUS
  0
ARC
  8
WHITE
 10
10.914564
 20
99.771600
 30
0.000000
 40
0.964963
 50
-95.923000
 51
74.528813
  6
CONTINUOUS
  0
ARC
  8
WHITE
 10
10.124114
 20
104.716600
 30
0.000000
 40
5.945186
 50
-161.264000
 51
-83.326834
  6
CONTINUOUS
  0
ARC
  8
WHITE
 10
16.437794
 20
108.596253
 30
0.000000
 40
13.272950
 50
152.376746
 51
205.859942
  6
CONTINUOUS
  0
ARC
  8
WHITE
 10
14.833470
 20
108.651650
 30
0.000000
 40
11.846200
 50
103.648023
 51
149.014457
  6
CONTINUOUS
  0
ARC
  8
WHITE
 10
18.308538
 20
101.388315
 30
0.000000
 40
19.794400
 50
99.362234
 51
108.467656
  6
CONTINUOUS
  0
ARC
  8
WHITE
 10
13.618568
 20
122.310999
 30
0.000000
 40
2.024388
 50
-43.439793
 51
14.095120
  6
CONTINUOUS
  0
ARC
  8
WHITE
 10
60.827828
 20
131.296071
 30
0.000000
 40
46.035850
 50
-172.229805
 51
-169.369975
  6
CONTINUOUS
  0
ARC
  8
WHITE
 10
16.218764
 20
124.621600
 30
0.000000
 40
1.100495
 50
103.599000
 51
155.840087
  6
CONTINUOUS
  0
ARC
  8
WHITE
 10
18.457285
 20
112.797494
 30
0.000000
 40
13.133450
 50
75.784291
 51
100.961405
  6
CONTINUOUS
  0
ARC
  8
WHITE
 10
20.954317
 20
124.397900
 30
0.000000
 40
1.345040
 50
14.798321
 51
57.221734
  6
CONTINUOUS
  0
ARC
  8
WHITE
 10
10.048514
 20
125.387100
 30
0.000000
 40
12.223293
 50
-15.368000
 51
-3.027862
  6
CONTINUOUS
  0
ARC
  8
WHITE
 10
23.141914
 20
121.623100
 30
0.000000
 40
1.408505
 50
158.132667
 51
220.177000
  6
CONTINUOUS
  0
ARC
  8
WHITE
 10
15.647614
 20
97.088600
 30
0.000000
 40
24.482051
 50
66.244800
 51
74.801950
  6
CONTINUOUS
  0
ARC
  8
WHITE
 10
22.466860
 20
109.130796
 30
0.000000
 40
10.803100
 50
15.427221
 51
73.640190
  6
CONTINUOUS
  0
ARC
  8
WHITE
 10
20.585384
 20
108.163479
 30
0.000000
 40
12.881350
 50
-33.586353
 51
17.348945
  6
CONTINUOUS
  0
ARC
  8
WHITE
 10
26.425864
 20
103.207100
 30
0.000000
 40
5.349991
 50
-107.622000
 51
-23.923335
  6
CONTINUOUS
  0
ARC
  8
WHITE
 10
24.965556
 20
99.139841
 30
0.000000
 40
1.043920
 50
83.169340
 51
261.220927
  6
CONTINUOUS
  0
ARC
  8
WHITE
 10
25.388764
 20
103.741634
 30
0.000000
 40
3.577802
 50
-94.794650
 51
-20.084305
  6
CONTINUOUS
  0
ARC
  8
WHITE
 10
14.516314
 20
107.701100
 30
0.000000
 40
15.148778
 50
-20.027795
 51
13.136000
  6
CONTINUOUS
  0
ARC
  8
WHITE
 10
23.677614
 20
109.768100
 30
0.000000
 40
5.757882
 50
13.823750
 51
73.582300
  6
CONTINUOUS
  0
ARC
  8
WHITE
 10
14.952732
 20
80.032286
 30
0.000000
 40
36.747286
 50
73.637377
 51
83.611287
  6
CONTINUOUS
  0
LINE
  8
WHITE
 10
19.041718
 20
116.551366
 30
0.000000
 11
19.167714
 21
120.425600
 31
0.000000
  6
CONTINUOUS
  0
LINE
  8
WHITE
 10
19.167714
 20
120.425600
 30
0.000000
 11
18.117714
 21
120.457100
 31
0.000000
  6
CONTINUOUS
  0
LINE
  8
WHITE
 10
18.117714
 20
120.457100
 30
0.000000
 11
17.991714
 21
116.519600
 31
0.000000
  6
CONTINUOUS
  0
ARC
  8
WHITE
 10
18.124064
 20
83.623600
 30
0.000000
 40
32.896266
 50
90.230516
 51
100.754263
  6
CONTINUOUS
  0
ARC
  8
WHITE
 10
79.575414
 20
105.321600
 30
0.000000
 40
10.201650
 50
84.425500
 51
106.204000
  6
CONTINUOUS
  0
ARC
  8
WHITE
 10
79.574564
 20
105.321353
 30
0.000000
 40
10.201650
 50
106.199027
 51
123.517630
  6
CONTINUOUS
  0
ARC
  8
WHITE
 10
78.823914
 20
108.057600
 30
0.000000
 40
7.557900
 50
130.243000
 51
199.736357
  6
CONTINUOUS
  0
ARC
  8
WHITE
 10
80.670519
 20
108.352770
 30
0.000000
 40
9.402150
 50
-162.371112
 51
-139.697698
  6
CONTINUOUS
  0
ARC
  8
WHITE
 10
75.111302
 20
103.904211
 30
0.000000
 40
2.294050
 50
-134.617058
 51
-69.754792
  6
CONTINUOUS
  0
ARC
  8
WHITE
 10
52.925602
 20
182.186740
 30
0.000000
 40
83.653000
 50
-74.055827
 51
-71.988253
  6
CONTINUOUS
  0
ARC
  8
WHITE
 10
79.226591
 20
101.733603
 30
0.000000
 40
0.999123
 50
-74.704975
 51
115.776477
  6
CONTINUOUS
  0
ARC
  8
WHITE
 10
73.132414
 20
110.498100
 30
0.000000
 40
11.621500
 50
-76.013415
 51
-56.834000
  6
CONTINUOUS
  0
ARC
  8
WHITE
 10
74.811914
 20
103.342600
 30
0.000000
 40
4.273305
 50
-131.450955
 51
-74.676000
  6
CONTINUOUS
  0
ARC
  8
WHITE
 10
81.380502
 20
109.112355
 30
0.000000
 40
12.993189
 50
161.142722
 51
223.675549
  6
CONTINUOUS
  0
ARC
  8
WHITE
 10
77.512129
 20
110.488567
 30
0.000000
 40
8.887790
 50
96.588260
 51
161.478213
  6
CONTINUOUS
  0
ARC
  8
WHITE
 10
58.216904
 20
166.477384
 30
0.000000
 40
50.577000
 50
-68.817483
 51
-67.058830
  6
CONTINUOUS
  0
ARC
  8
WHITE
 10
77.568730
 20
120.641010
 30
0.000000
 40
0.824200
 50
-63.917738
 51
0.353855
  6
CONTINUOUS
  0
LINE
  8
WHITE
 10
78.392914
 20
120.646100
 30
0.000000
 11
78.051866
 21
122.074440
 31
0.000000
  6
CONTINUOUS
  0
ARC
  8
WHITE
 10
123.218560
 20
130.999947
 30
0.000000
 40
46.040145
 50
-171.678789
 51
-168.821656
  6
CONTINUOUS
  0
ARC
  8
WHITE
 10
78.675678
 20
123.895166
 30
0.000000
 40
1.104725
 50
103.993069
 51
156.430591
  6
CONTINUOUS
  0
ARC
  8
WHITE
 10
81.022914
 20
112.094100
 30
0.000000
 40
13.135800
 50
76.313027
 51
101.480000
  6
CONTINUOUS
  0
ARC
  8
WHITE
 10
83.407983
 20
123.720845
 30
0.000000
 40
1.346679
 50
14.990796
 51
57.523786
  6
CONTINUOUS
  0
ARC
  8
WHITE
 10
72.497284
 20
124.597999
 30
0.000000
 40
12.222991
 50
-14.798576
 51
-2.479625
  6
CONTINUOUS
  0
ARC
  8
WHITE
 10
85.192414
 20
120.938600
 30
0.000000
 40
1.029040
 50
148.519000
 51
259.368693
  6
CONTINUOUS
  0
ARC
  8
WHITE
 10
81.611775
 20
104.250342
 30
0.000000
 40
16.039426
 50
54.366205
 51
77.795353
  6
CONTINUOUS
  0
ARC
  8
WHITE
 10
85.260877
 20
110.386940
 30
0.000000
 40
8.946662
 50
6.303845
 51
50.460727
  6
CONTINUOUS
  0
ARC
  8
WHITE
 10
85.065836
 20
108.678448
 30
0.000000
 40
9.477618
 50
-27.172438
 51
16.494047
  6
CONTINUOUS
  0
ARC
  8
WHITE
 10
85.763414
 20
106.622600
 30
0.000000
 40
8.060950
 50
-60.839991
 51
-16.373000
  6
CONTINUOUS
  0
ARC
  8
WHITE
 10
87.795914
 20
104.145600
 30
0.000000
 40
4.940220
 50
-115.966256
 51
-67.442000
  6
CONTINUOUS
  0
ARC
  8
WHITE
 10
108.382350
 20
147.375776
 30
0.000000
 40
52.821713
 50
-118.159804
 51
-115.511004
  6
CONTINUOUS
  0
ARC
  8
WHITE
 10
83.940734
 20
101.729960
 30
0.000000
 40
1.044008
 50
71.145253
 51
242.215573
  6
CONTINUOUS
  0
ARC
  8
WHITE
 10
115.618022
 20
204.367871
 30
0.000000
 40
106.371500
 50
-107.135161
 51
-105.546557
  6
CONTINUOUS
  0
ARC
  8
WHITE
 10
87.709217
 20
104.646143
 30
0.000000
 40
2.822685
 50
-102.293906
 51
-15.349179
  6
CONTINUOUS
  0
ARC
  8
WHITE
 10
81.201914
 20
108.567100
 30
0.000000
 40
10.342700
 50
-26.830000
 51
0.488251
  6
CONTINUOUS
  0
ARC
  8
WHITE
 10
84.298426
 20
108.151930
 30
0.000000
 40
7.263200
 50
3.973502
 51
77.723902
  6
CONTINUOUS
  0
ARC
  8
WHITE
 10
82.454475
 20
95.278344
 30
0.000000
 40
20.256100
 50
80.370772
 51
92.371190
  6
CONTINUOUS
  0
LINE
  8
WHITE
 10
81.616414
 20
115.517100
 30
0.000000
 11
81.710914
 21
119.391600
 31
0.000000
  6
CONTINUOUS
  0
LINE
  8
WHITE
 10
81.710914
 20
119.391600
 30
0.000000
 11
80.660914
 21
119.412600
 31
0.000000
  6
CONTINUOUS
  0
LINE
  8
WHITE
 10
80.660914
 20
119.412600
 30
0.000000
 11
80.566402
 21
115.475004
 31
0.000000
  6
CONTINUOUS
  0
ARC
  8
WHITE
 10
34.442764
 20
48.243450
 30
0.000000
 40
32.897450
 50
87.672600
 51
96.409600
  6
CONTINUOUS
  0
ARC
  8
WHITE
 10
34.489064
 20
48.249200
 30
0.000000
 40
32.896938
 50
96.490854
 51
98.270430
  6
CONTINUOUS
  0
ARC
  8
WHITE
 10
32.038614
 20
73.541100
 30
0.000000
 40
7.612850
 50
107.440000
 51
163.393000
  6
CONTINUOUS
  0
ARC
  8
WHITE
 10
29.063841
 20
73.438461
 30
0.000000
 40
4.884535
 50
152.195152
 51
248.567502
  6
CONTINUOUS
  0
ARC
  8
WHITE
 10
26.654430
 20
67.901081
 30
0.000000
 40
1.171076
 50
-85.379996
 51
57.768781
  6
CONTINUOUS
  0
ARC
  8
WHITE
 10
29.772064
 20
75.046600
 30
0.000000
 40
8.845500
 50
146.430687
 51
250.014000
  6
CONTINUOUS
  0
ARC
  8
WHITE
 10
32.279244
 20
73.392194
 30
0.000000
 40
11.849398
 50
101.098303
 51
146.468661
  6
CONTINUOUS
  0
ARC
  8
WHITE
 10
35.398006
 20
65.977874
 30
0.000000
 40
19.792896
 50
96.740170
 51
105.831506
  6
CONTINUOUS
  0
ARC
  8
WHITE
 10
31.673869
 20
87.090509
 30
0.000000
 40
2.021035
 50
-46.111259
 51
11.775680
  6
CONTINUOUS
  0
ARC
  8
WHITE
 10
79.224128
 20
94.010786
 30
0.000000
 40
46.034084
 50
-174.728388
 51
-171.872888
  6
CONTINUOUS
  0
ARC
  8
WHITE
 10
34.368482
 20
89.289151
 30
0.000000
 40
1.099971
 50
100.833690
 51
153.421622
  6
CONTINUOUS
  0
ARC
  8
WHITE
 10
36.086314
 20
77.375450
 30
0.000000
 40
13.135822
 50
73.266117
 51
98.424960
  6
CONTINUOUS
  0
ARC
  8
WHITE
 10
39.085664
 20
88.858600
 30
0.000000
 40
1.347175
 50
11.879749
 51
54.474000
  6
CONTINUOUS
  0
ARC
  8
WHITE
 10
28.239414
 20
90.326100
 30
0.000000
 40
12.222650
 50
-17.929307
 51
-5.588000
  6
CONTINUOUS
  0
ARC
  8
WHITE
 10
41.154854
 20
85.984466
 30
0.000000
 40
1.410630
 50
155.768040
 51
217.552587
  6
CONTINUOUS
  0
ARC
  8
WHITE
 10
32.586964
 20
61.804100
 30
0.000000
 40
24.481550
 50
63.715746
 51
72.284400
  6
CONTINUOUS
  0
ARC
  8
WHITE
 10
39.926264
 20
73.543100
 30
0.000000
 40
10.795000
 50
12.814354
 51
71.071900
  6
CONTINUOUS
  0
ARC
  8
WHITE
 10
42.325085
 20
73.973119
 30
0.000000
 40
8.361379
 50
-81.184595
 51
13.586869
  6
CONTINUOUS
  0
ARC
  8
WHITE
 10
43.716464
 20
66.767600
 30
0.000000
 40
1.062795
 50
112.035653
 51
264.060000
  6
CONTINUOUS
  0
ARC
  8
WHITE
 10
41.564414
 20
73.129100
 30
0.000000
 40
5.655100
 50
-71.938000
 51
21.965728
  6
CONTINUOUS
  0
ARC
  8
WHITE
 10
41.164814
 20
74.116100
 30
0.000000
 40
5.755800
 50
11.304600
 51
71.047068
  6
CONTINUOUS
  0
ARC
  8
WHITE
 10
31.122914
 20
44.794050
 30
0.000000
 40
36.749650
 50
71.087700
 51
81.068058
  6
CONTINUOUS
  0
LINE
  8
WHITE
 10
36.828714
 20
81.098100
 30
0.000000
 11
37.127964
 21
84.962100
 31
0.000000
  6
CONTINUOUS
  0
LINE
  8
WHITE
 10
37.127964
 20
84.962100
 30
0.000000
 11
36.083214
 21
85.040600
 31
0.000000
  6
CONTINUOUS
  0
LINE
  8
WHITE
 10
36.083214
 20
85.040600
 30
0.000000
 11
35.778717
 21
81.113763
 31
0.000000
  6
CONTINUOUS
  0
ARC
  8
WHITE
 10
133.744914
 20
112.835100
 30
0.000000
 40
4.340505
 50
102.590000
 51
134.183000
  6
CONTINUOUS
  0
ARC
  8
WHITE
 10
133.738914
 20
112.829600
 30
0.000000
 40
4.340275
 50
134.075598
 51
159.843309
  6
CONTINUOUS
  0
ARC
  8
WHITE
 10
137.434495
 20
112.398925
 30
0.000000
 40
8.005250
 50
166.076395
 51
211.076588
  6
CONTINUOUS
  0
ARC
  8
WHITE
 10
133.605851
 20
109.160314
 30
0.000000
 40
3.156785
 50
-163.556948
 51
-75.130906
  6
CONTINUOUS
  0
ARC
  8
WHITE
 10
134.976914
 20
105.196600
 30
0.000000
 40
1.071270
 50
-39.649449
 51
121.579000
  6
CONTINUOUS
  0
ARC
  8
WHITE
 10
132.651914
 20
108.135600
 30
0.000000
 40
4.800405
 50
-110.221390
 51
-48.993000
  6
CONTINUOUS
  0
ARC
  8
WHITE
 10
136.236414
 20
112.385100
 30
0.000000
 40
10.204450
 50
166.991402
 51
239.078000
  6
CONTINUOUS
  0
ARC
  8
WHITE
 10
136.574185
 20
111.774177
 30
0.000000
 40
10.683639
 50
105.917258
 51
164.205793
  6
CONTINUOUS
  0
ARC
  8
WHITE
 10
133.146914
 20
123.400600
 30
0.000000
 40
1.440940
 50
-69.811000
 51
20.115947
  6
CONTINUOUS
  0
ARC
  8
WHITE
 10
179.393624
 20
134.071624
 30
0.000000
 40
46.032429
 50
-170.088391
 51
-167.229291
  6
CONTINUOUS
  0
ARC
  8
WHITE
 10
135.071414
 20
125.738100
 30
0.000000
 40
1.102260
 50
105.725210
 51
158.162000
  6
CONTINUOUS
  0
ARC
  8
WHITE
 10
137.740808
 20
113.999408
 30
0.000000
 40
13.139289
 50
77.899091
 51
103.055608
  6
CONTINUOUS
  0
ARC
  8
WHITE
 10
139.807458
 20
125.686454
 30
0.000000
 40
1.348823
 50
16.733314
 51
59.341458
  6
CONTINUOUS
  0
ARC
  8
WHITE
 10
128.876914
 20
126.298600
 30
0.000000
 40
12.224300
 50
-13.400261
 51
-1.049000
  6
CONTINUOUS
  0
ARC
  8
WHITE
 10
141.617468
 20
123.179259
 30
0.000000
 40
0.896125
 50
161.364741
 51
263.028548
  6
CONTINUOUS
  0
ARC
  8
WHITE
 10
139.137415
 20
112.376060
 30
0.000000
 40
10.193352
 50
-0.110539
 51
76.548003
  6
CONTINUOUS
  0
ARC
  8
WHITE
 10
168.316379
 20
108.111912
 30
0.000000
 40
19.454300
 50
167.398013
 51
172.783018
  6
CONTINUOUS
  0
ARC
  8
WHITE
 10
140.175914
 20
111.496600
 30
0.000000
 40
8.890200
 50
-64.094096
 51
-6.074000
  6
CONTINUOUS
  0
ARC
  8
WHITE
 10
142.938914
 20
108.623100
 30
0.000000
 40
5.244650
 50
-131.008100
 51
-77.657000
  6
CONTINUOUS
  0
ARC
  8
WHITE
 10
140.233581
 20
105.360609
 30
0.000000
 40
1.012522
 50
93.017863
 51
223.366870
  6
CONTINUOUS
  0
ARC
  8
WHITE
 10
141.706914
 20
109.190600
 30
0.000000
 40
3.205725
 50
-118.439000
 51
-23.446579
  6
CONTINUOUS
  0
ARC
  8
WHITE
 10
139.382137
 20
111.825399
 30
0.000000
 40
6.558900
 50
-36.597255
 51
16.468754
  6
CONTINUOUS
  0
ARC
  8
WHITE
 10
141.672453
 20
113.174294
 30
0.000000
 40
4.031950
 50
7.274007
 51
83.591031
  6
CONTINUOUS
  0
ARC
  8
WHITE
 10
137.824414
 20
98.842600
 30
0.000000
 40
18.835400
 50
76.809300
 51
88.901803
  6
CONTINUOUS
  0
LINE
  8
WHITE
 10
138.185414
 20
117.674600
 30
0.000000
 11
138.185414
 21
118.220600
 31
0.000000
  6
CONTINUOUS
  0
LINE
  8
WHITE
 10
138.185414
 20
118.220600
 30
0.000000
 11
138.169414
 21
121.649100
 31
0.000000
  6
CONTINUOUS
  0
LINE
  8
WHITE
 10
138.169414
 20
121.649100
 30
0.000000
 11
137.119414
 21
121.643600
 31
0.000000
  6
CONTINUOUS
  0
LINE
  8
WHITE
 10
137.119414
 20
121.643600
 30
0.000000
 11
137.135414
 21
118.268100
 31
0.000000
  6
CONTINUOUS
  0
LINE
  8
WHITE
 10
137.135414
 20
118.268100
 30
0.000000
 11
137.135370
 21
117.711489
 31
0.000000
  6
CONTINUOUS
  0
ARC
  8
WHITE
 10
138.298565
 20
94.826531
 30
0.000000
 40
22.914500
 50
92.909721
 51
103.887269
  6
CONTINUOUS
  0
ARC
  8
WHITE
 10
79.410414
 20
11.620300
 30
0.000000
 40
4.159305
 50
-136.719000
 51
-105.578000
  6
CONTINUOUS
  0
ARC
  8
WHITE
 10
79.413914
 20
11.619650
 30
0.000000
 40
4.159620
 50
-105.626843
 51
-67.318848
  6
CONTINUOUS
  0
ARC
  8
WHITE
 10
79.523823
 20
23.327739
 30
0.000000
 40
15.617600
 50
-84.510505
 51
-54.944084
  6
CONTINUOUS
  0
ARC
  8
WHITE
 10
88.443915
 20
8.850673
 30
0.000000
 40
1.693372
 50
-0.283984
 51
88.298655
  6
CONTINUOUS
  0
ARC
  8
WHITE
 10
91.088414
 20
9.198600
 30
0.000000
 40
1.015700
 50
-159.463000
 51
-94.497097
  6
CONTINUOUS
  0
ARC
  8
WHITE
 10
91.451597
 20
6.703469
 30
0.000000
 40
1.547283
 50
-35.609312
 51
106.630157
  6
CONTINUOUS
  0
ARC
  8
WHITE
 10
76.109914
 20
26.115150
 30
0.000000
 40
26.232600
 50
-84.546600
 51
-50.744000
  6
CONTINUOUS
  0
ARC
  8
WHITE
 10
78.374414
 20
20.397150
 30
0.000000
 40
20.397150
 50
-107.811823
 51
-89.358000
  6
CONTINUOUS
  0
ARC
  8
WHITE
 10
69.332414
 20
-6.540300
 30
0.000000
 40
8.023500
 50
69.554800
 51
100.638167
  6
CONTINUOUS
  0
ARC
  8
WHITE
 10
60.030914
 20
43.763000
 30
0.000000
 40
43.132500
 50
-82.090885
 51
-79.554000
  6
CONTINUOUS
  0
ARC
  8
WHITE
 10
65.571414
 20
2.721031
 30
0.000000
 40
1.725975
 50
-135.833234
 51
-76.783000
  6
CONTINUOUS
  0
LINE
  8
WHITE
 10
64.333414
 20
1.518525
 30
0.000000
 11
64.034414
 21
4.406025
 31
0.000000
  6
CONTINUOUS
  0
LINE
  8
WHITE
 10
64.034414
 20
4.406025
 30
0.000000
 11
66.554414
 21
4.841775
 31
0.000000
  6
CONTINUOUS
  0
LINE
  8
WHITE
 10
66.554414
 20
4.841775
 30
0.000000
 11
70.439414
 21
5.508525
 31
0.000000
  6
CONTINUOUS
  0
LINE
  8
WHITE
 10
70.439414
 20
5.508525
 30
0.000000
 11
70.260914
 21
6.542775
 31
0.000000
  6
CONTINUOUS
  0
LINE
  8
WHITE
 10
70.260914
 20
6.542775
 30
0.000000
 11
66.443914
 21
5.886525
 31
0.000000
  6
CONTINUOUS
  0
LINE
  8
WHITE
 10
66.443914
 20
5.886525
 30
0.000000
 11
63.876914
 21
5.445525
 31
0.000000
  6
CONTINUOUS
  0
LINE
  8
WHITE
 10
63.876914
 20
5.445525
 30
0.000000
 11
63.283336
 21
8.994537
 31
0.000000
  6
CONTINUOUS
  0
ARC
  8
WHITE
 10
70.097414
 20
-19.513050
 30
0.000000
 40
29.310650
 50
97.356698
 51
103.443000
  6
CONTINUOUS
  0
ARC
  8
WHITE
 10
67.300914
 20
6.322055
 30
0.000000
 40
3.372730
 50
50.827885
 51
106.477000
  6
CONTINUOUS
  0
ARC
  8
WHITE
 10
70.153414
 20
9.582050
 30
0.000000
 40
0.968400
 50
-138.216000
 51
-18.955139
  6
CONTINUOUS
  0
ARC
  8
WHITE
 10
76.618914
 20
6.233440
 30
0.000000
 40
6.324850
 50
128.264445
 51
151.334000
  6
CONTINUOUS
  0
ARC
  8
WHITE
 10
73.311002
 20
10.012899
 30
0.000000
 40
1.333824
 50
29.997630
 51
117.170369
  6
CONTINUOUS
  0
ARC
  8
WHITE
 10
66.816914
 20
1.093265
 30
0.000000
 40
12.264250
 50
38.744045
 51
51.413000
  6
CONTINUOUS
  0
ARC
  8
WHITE
 10
192.990914
 20
110.101100
 30
0.000000
 40
21.835400
 50
-36.696000
 51
-5.372000
  6
CONTINUOUS
  0
ARC
  8
WHITE
 10
201.221861
 20
110.356785
 30
0.000000
 40
13.702944
 50
-9.662477
 51
17.224590
  6
CONTINUOUS
  0
ARC
  8
WHITE
 10
224.080414
 20
116.375600
 30
0.000000
 40
9.965048
 50
168.652000
 51
191.349920
  6
CONTINUOUS
  0
ARC
  8
WHITE
 10
160.195914
 20
129.910100
 30
0.000000
 40
55.338040
 50
-12.072270
 51
-10.062000
  6
CONTINUOUS
  0
ARC
  8
WHITE
 10
211.543387
 20
120.127857
 30
0.000000
 40
3.141456
 50
2.078459
 51
24.143001
  6
CONTINUOUS
  0
LINE
  8
WHITE
 10
214.410051
 20
121.412761
 30
0.000000
 11
211.858414
 21
122.042600
 31
0.000000
  6
CONTINUOUS
  0
LINE
  8
WHITE
 10
211.858414
 20
122.042600
 30
0.000000
 11
210.524914
 21
115.989600
 31
0.000000
  6
CONTINUOUS
  0
LINE
  8
WHITE
 10
210.524914
 20
115.989600
 30
0.000000
 11
209.501414
 21
116.220600
 31
0.000000
  6
CONTINUOUS
  0
LINE
  8
WHITE
 10
209.501414
 20
116.220600
 30
0.000000
 11
210.335914
 21
120.000600
 31
0.000000
  6
CONTINUOUS
  0
LINE
  8
WHITE
 10
210.335914
 20
120.000600
 30
0.000000
 11
210.839914
 21
122.294600
 31
0.000000
  6
CONTINUOUS
  0
LINE
  8
WHITE
 10
210.839914
 20
122.294600
 30
0.000000
 11
207.159914
 21
123.208100
 31
0.000000
  6
CONTINUOUS
  0
ARC
  8
WHITE
 10
236.212156
 20
113.167957
 30
0.000000
 40
30.738204
 50
160.935399
 51
167.577864
  6
CONTINUOUS
  0
ARC
  8
WHITE
 10
208.293414
 20
118.868100
 30
0.000000
 40
2.289369
 50
156.523201
 51
222.799000
  6
CONTINUOUS
  0
ARC
  8
WHITE
 10
206.235774
 20
116.654695
 30
0.000000
 40
0.758780
 50
-75.179089
 51
60.131095
  6
CONTINUOUS
  0
ARC
  8
WHITE
 10
209.097414
 20
110.262100
 30
0.000000
 40
6.256257
 50
115.238070
 51
141.002000
  6
CONTINUOUS
  0
ARC
  8
WHITE
 10
205.395914
 20
113.300100
 30
0.000000
 40
1.468112
 50
142.239526
 51
228.574000
  6
CONTINUOUS
  0
ARC
  8
WHITE
 10
271.116414
 20
170.920600
 30
0.000000
 40
88.859474
 50
-138.636511
 51
-136.499000
  6
CONTINUOUS
  0
ARC
  8
WHITE
 10
198.019414
 20
107.174100
 30
0.000000
 40
9.018158
 50
-24.262000
 51
16.614246
  6
CONTINUOUS
  0
ARC
  8
WHITE
 10
181.482556
 20
114.415599
 30
0.000000
 40
27.070650
 50
-35.593695
 51
-23.852963
  6
CONTINUOUS
  0
ARC
  8
WHITE
 10
204.555221
 20
98.092238
 30
0.000000
 40
1.202070
 50
151.838034
 51
270.513383
  6
CONTINUOUS
  0
ARC
  8
WHITE
 10
204.519414
 20
95.965600
 30
0.000000
 40
0.925789
 50
-17.790000
 51
87.116198
  6
CONTINUOUS
  0
ARC
  8
WHITE
 10
206.891451
 20
95.410802
 30
0.000000
 40
1.515086
 50
169.660386
 51
261.256783
  6
CONTINUOUS
  0
ARC
  8
WHITE
 10
206.800786
 20
96.054076
 30
0.000000
 40
2.145302
 50
-93.732000
 51
-40.579958
  6
CONTINUOUS
  0
ARC
  8
WHITE
 10
192.988414
 20
110.091600
 30
0.000000
 40
21.831773
 50
-44.983921
 51
-36.672088
  6
CONTINUOUS
  0
ARC
  8
WHITE
 10
97.796414
 20
31.495950
 30
0.000000
 40
8.882900
 50
-89.896000
 51
-64.962000
  6
CONTINUOUS
  0
ARC
  8
WHITE
 10
97.798685
 20
31.497010
 30
0.000000
 40
8.882900
 50
-64.978163
 51
-55.486479
  6
CONTINUOUS
  0
ARC
  8
WHITE
 10
105.298914
 20
22.555150
 30
0.000000
 40
2.952825
 50
84.685106
 51
146.671000
  6
CONTINUOUS
  0
ARC
  8
WHITE
 10
105.010407
 20
22.382542
 30
0.000000
 40
3.163083
 50
2.273265
 51
79.765147
  6
CONTINUOUS
  0
ARC
  8
WHITE
 10
119.028040
 20
24.717833
 30
0.000000
 40
11.079650
 50
-168.495254
 51
-153.279339
  6
CONTINUOUS
  0
ARC
  8
WHITE
 10
118.263693
 20
26.485200
 30
0.000000
 40
11.355500
 50
-143.533118
 51
-126.462110
  6
CONTINUOUS
  0
ARC
  8
WHITE
 10
110.017414
 20
16.578400
 30
0.000000
 40
1.686035
 50
-93.521040
 51
27.332100
  6
CONTINUOUS
  0
ARC
  8
WHITE
 10
110.308414
 20
-7.929800
 30
0.000000
 40
22.828700
 50
90.990300
 51
95.014726
  6
CONTINUOUS
  0
LINE
  8
WHITE
 10
108.312914
 20
14.811550
 30
0.000000
 11
106.585414
 21
18.145300
 31
0.000000
  6
CONTINUOUS
  0
LINE
  8
WHITE
 10
106.585414
 20
18.145300
 30
0.000000
 11
105.650914
 21
17.662300
 31
0.000000
  6
CONTINUOUS
  0
LINE
  8
WHITE
 10
105.650914
 20
17.662300
 30
0.000000
 11
107.268123
 21
14.559507
 31
0.000000
  6
CONTINUOUS
  0
ARC
  8
WHITE
 10
108.618914
 20
9.521450
 30
0.000000
 40
5.216000
 50
105.009000
 51
178.752523
  6
CONTINUOUS
  0
ARC
  8
WHITE
 10
99.503458
 20
8.684688
 30
0.000000
 40
4.014742
 50
-3.897491
 51
13.692295
  6
CONTINUOUS
  0
LINE
  8
WHITE
 10
103.508914
 20
8.411800
 30
0.000000
 11
100.127784
 21
6.952277
 31
0.000000
  6
CONTINUOUS
  0
ARC
  8
WHITE
 10
95.886414
 20
0.594295
 30
0.000000
 40
7.642850
 50
56.293000
 51
84.090581
  6
CONTINUOUS
  0
ARC
  8
WHITE
 10
97.791760
 20
11.360852
 30
0.000000
 40
3.356156
 50
142.034191
 51
250.533363
  6
CONTINUOUS
  0
ARC
  8
WHITE
 10
93.381075
 20
15.802898
 30
0.000000
 40
2.960790
 50
-53.412820
 51
-14.460602
  6
CONTINUOUS
  0
ARC
  8
WHITE
 10
95.776414
 20
15.492100
 30
0.000000
 40
0.637270
 50
-42.259000
 51
89.134697
  6
CONTINUOUS
  0
ARC
  8
WHITE
 10
96.609461
 20
18.182785
 30
0.000000
 40
2.212432
 50
-173.577389
 51
-111.850122
  6
CONTINUOUS
  0
LINE
  8
WHITE
 10
94.410914
 20
17.935300
 30
0.000000
 11
96.253414
 21
18.360550
 31
0.000000
  6
CONTINUOUS
  0
LINE
  8
WHITE
 10
96.253414
 20
18.360550
 30
0.000000
 11
100.096414
 21
19.242550
 31
0.000000
  6
CONTINUOUS
  0
LINE
  8
WHITE
 10
100.096414
 20
19.242550
 30
0.000000
 11
99.860414
 21
20.266300
 31
0.000000
  6
CONTINUOUS
  0
LINE
  8
WHITE
 10
99.860414
 20
20.266300
 30
0.000000
 11
96.085414
 21
19.394800
 31
0.000000
  6
CONTINUOUS
  0
LINE
  8
WHITE
 10
96.085414
 20
19.394800
 30
0.000000
 11
94.032625
 21
18.927501
 31
0.000000
  6
CONTINUOUS
  0
ARC
  8
WHITE
 10
96.389994
 20
19.804524
 30
0.000000
 40
2.515225
 50
132.723816
 51
200.406938
  6
CONTINUOUS
  0
ARC
  8
WHITE
 10
97.638414
 20
17.604250
 30
0.000000
 40
5.011800
 50
88.009002
 51
126.128000
  6
CONTINUOUS
  0
ARC
  8
WHITE
 10
100.394414
 20
10.742800
 30
0.000000
 40
3.041695
 50
62.304600
 51
114.551000
  6
CONTINUOUS
  0
ARC
  8
WHITE
 10
100.394763
 20
10.742959
 30
0.000000
 40
3.041695
 50
114.558226
 51
159.809876
  6
CONTINUOUS
  0
ARC
  8
WHITE
 10
98.542414
 20
11.609500
 30
0.000000
 40
1.019055
 50
169.640000
 51
255.689562
  6
CONTINUOUS
  0
ARC
  8
WHITE
 10
98.618414
 20
8.904250
 30
0.000000
 40
1.748780
 50
33.570021
 51
100.807000
  6
CONTINUOUS
  0
ARC
  8
WHITE
 10
100.567414
 20
10.137950
 30
0.000000
 40
0.559535
 50
-151.534000
 51
37.718044
  6
CONTINUOUS
  0
ARC
  8
WHITE
 10
102.186414
 20
10.859250
 30
0.000000
 40
1.235930
 50
119.543310
 51
197.857000
  6
CONTINUOUS
  0
ARC
  8
WHITE
 10
101.114914
 20
12.774150
 30
0.000000
 40
0.958350
 50
-61.175000
 51
43.675480
  6
CONTINUOUS
  0
ARC
  8
WHITE
 10
188.653914
 20
108.203100
 30
0.000000
 40
5.221000
 50
18.351200
 51
70.442600
  6
CONTINUOUS
  0
ARC
  8
WHITE
 10
188.659414
 20
108.203600
 30
0.000000
 40
5.218690
 50
70.497663
 51
90.526994
  6
CONTINUOUS
  0
LINE
  8
WHITE
 10
188.611414
 20
113.422100
 30
0.000000
 11
188.637914
 21
113.705600
 31
0.000000
  6
CONTINUOUS
  0
LINE
  8
WHITE
 10
188.637914
 20
113.705600
 30
0.000000
 11
188.989414
 21
117.118100
 31
0.000000
  6
CONTINUOUS
  0
LINE
  8
WHITE
 10
188.989414
 20
117.118100
 30
0.000000
 11
187.944914
 21
117.223100
 31
0.000000
  6
CONTINUOUS
  0
LINE
  8
WHITE
 10
187.944914
 20
117.223100
 30
0.000000
 11
187.598414
 21
113.868600
 31
0.000000
  6
CONTINUOUS
  0
LINE
  8
WHITE
 10
187.598414
 20
113.868600
 30
0.000000
 11
187.393543
 21
113.359091
 31
0.000000
  6
CONTINUOUS
  0
ARC
  8
WHITE
 10
192.145708
 20
91.028598
 30
0.000000
 40
22.830550
 50
102.013923
 51
106.034746
  6
CONTINUOUS
  0
ARC
  8
WHITE
 10
185.249414
 20
114.547600
 30
0.000000
 40
1.683475
 50
169.813950
 51
290.517000
  6
CONTINUOUS
  0
ARC
  8
WHITE
 10
174.464459
 20
121.599836
 30
0.000000
 40
11.355350
 50
-36.500620
 51
-19.432979
  6
CONTINUOUS
  0
ARC
  8
WHITE
 10
174.252790
 20
119.700875
 30
0.000000
 40
11.080600
 50
-9.763198
 51
5.467942
  6
CONTINUOUS
  0
ARC
  8
WHITE
 10
188.338140
 20
121.564958
 30
0.000000
 40
3.160268
 50
117.280444
 51
194.817791
  6
CONTINUOUS
  0
ARC
  8
WHITE
 10
188.014005
 20
121.643525
 30
0.000000
 40
2.952653
 50
50.355510
 51
112.383066
  6
CONTINUOUS
  0
ARC
  8
WHITE
 10
192.567914
 20
132.390600
 30
0.000000
 40
8.884200
 50
-107.490000
 51
-73.084204
  6
CONTINUOUS
  0
ARC
  8
WHITE
 10
196.790914
 20
119.150100
 30
0.000000
 40
5.015750
 50
70.938116
 51
109.061000
  6
CONTINUOUS
  0
ARC
  8
WHITE
 10
197.337922
 20
121.626717
 30
0.000000
 40
2.513346
 50
-3.561242
 51
64.270488
  6
CONTINUOUS
  0
LINE
  8
WHITE
 10
199.846414
 20
121.470600
 30
0.000000
 11
197.751914
 21
121.318100
 31
0.000000
  6
CONTINUOUS
  0
LINE
  8
WHITE
 10
197.751914
 20
121.318100
 30
0.000000
 11
193.882414
 21
121.045100
 31
0.000000
  6
CONTINUOUS
  0
LINE
  8
WHITE
 10
193.882414
 20
121.045100
 30
0.000000
 11
193.961414
 21
120.000600
 31
0.000000
  6
CONTINUOUS
  0
LINE
  8
WHITE
 10
193.961414
 20
120.000600
 30
0.000000
 11
197.888414
 21
120.278600
 31
0.000000
  6
CONTINUOUS
  0
LINE
  8
WHITE
 10
197.888414
 20
120.278600
 30
0.000000
 11
199.778435
 21
120.409884
 31
0.000000
  6
CONTINUOUS
  0
ARC
  8
WHITE
 10
197.600414
 20
120.007600
 30
0.000000
 40
2.214860
 50
-51.110460
 51
10.464700
  6
CONTINUOUS
  0
ARC
  8
WHITE
 10
199.185266
 20
117.676552
 30
0.000000
 40
0.637445
 50
107.748972
 51
239.240262
  6
CONTINUOUS
  0
ARC
  8
WHITE
 10
201.384414
 20
118.677600
 30
0.000000
 40
2.962310
 50
-148.477000
 51
-109.456372
  6
CONTINUOUS
  0
ARC
  8
WHITE
 10
198.471027
 20
113.139683
 30
0.000000
 40
3.353413
 50
-53.602871
 51
54.932958
  6
CONTINUOUS
  0
ARC
  8
WHITE
 10
203.442414
 20
103.405100
 30
0.000000
 40
7.641050
 50
112.967000
 51
140.741193
  6
CONTINUOUS
  0
LINE
  8
WHITE
 10
197.525914
 20
108.240600
 30
0.000000
 11
193.866971
 21
108.644999
 31
0.000000
  6
CONTINUOUS
  0
ARC
  8
WHITE
 10
197.614849
 20
110.076741
 30
0.000000
 40
4.012041
 50
-176.715614
 51
-159.092441
  6
CONTINUOUS
  0
ARC
  8
WHITE
 10
196.162414
 20
111.785100
 30
0.000000
 40
3.040965
 50
95.179000
 51
134.820000
  6
CONTINUOUS
  0
ARC
  8
WHITE
 10
194.880032
 20
113.517339
 30
0.000000
 40
0.960213
 50
153.743272
 51
258.332988
  6
CONTINUOUS
  0
ARC
  8
WHITE
 10
194.413414
 20
111.374100
 30
0.000000
 40
1.233332
 50
-0.944000
 51
77.238223
  6
CONTINUOUS
  0
ARC
  8
WHITE
 10
196.171914
 20
111.154100
 30
0.000000
 40
0.561950
 50
159.186129
 51
348.692000
  6
CONTINUOUS
  0
ARC
  8
WHITE
 10
198.398079
 20
110.545618
 30
0.000000
 40
1.747720
 50
96.226415
 51
163.434181
  6
CONTINUOUS
  0
ARC
  8
WHITE
 10
197.678008
 20
113.153657
 30
0.000000
 40
1.019531
 50
-58.643991
 51
27.650302
  6
CONTINUOUS
  0
ARC
  8
WHITE
 10
196.161760
 20
111.785960
 30
0.000000
 40
3.040050
 50
37.266835
 51
95.168177
  6
CONTINUOUS
  0
ARC
  8
WHITE
 10
84.783914
 20
50.259400
 30
0.000000
 40
8.243100
 50
77.691300
 51
94.137500
  6
CONTINUOUS
  0
ARC
  8
WHITE
 10
84.777095
 20
50.259577
 30
0.000000
 40
8.242434
 50
94.090311
 51
131.050160
  6
CONTINUOUS
  0
ARC
  8
WHITE
 10
83.107518
 20
52.422996
 30
0.000000
 40
5.516850
 50
132.729467
 51
224.695688
  6
CONTINUOUS
  0
ARC
  8
WHITE
 10
78.508914
 20
47.992200
 30
0.000000
 40
0.872565
 50
-88.304619
 51
39.122200
  6
CONTINUOUS
  0
ARC
  8
WHITE
 10
80.875914
 20
52.969000
 30
0.000000
 40
6.300100
 50
177.568485
 51
248.185000
  6
CONTINUOUS
  0
ARC
  8
WHITE
 10
83.329414
 20
53.479100
 30
0.000000
 40
8.751200
 50
90.798829
 51
181.590000
  6
CONTINUOUS
  0
ARC
  8
WHITE
 10
82.766131
 20
63.599509
 30
0.000000
 40
1.439465
 50
-72.148159
 51
17.848999
  6
CONTINUOUS
  0
ARC
  8
WHITE
 10
129.400247
 20
72.430620
 30
0.000000
 40
46.034925
 50
-172.357947
 51
-169.499111
  6
CONTINUOUS
  0
ARC
  8
WHITE
 10
84.777133
 20
65.857534
 30
0.000000
 40
1.099750
 50
103.244896
 51
155.778836
  6
CONTINUOUS
  0
ARC
  8
WHITE
 10
86.975838
 20
54.023362
 30
0.000000
 40
13.135306
 50
75.578343
 51
100.752766
  6
CONTINUOUS
  0
ARC
  8
WHITE
 10
89.510549
 20
65.618074
 30
0.000000
 40
1.346172
 50
14.347771
 51
56.820245
  6
CONTINUOUS
  0
ARC
  8
WHITE
 10
78.614246
 20
66.652288
 30
0.000000
 40
12.220587
 50
-15.611252
 51
-3.286650
  6
CONTINUOUS
  0
ARC
  8
WHITE
 10
91.217818
 20
63.039353
 30
0.000000
 40
0.894640
 50
158.749030
 51
260.942305
  6
CONTINUOUS
  0
ARC
  8
WHITE
 10
90.133953
 20
53.045489
 30
0.000000
 40
9.159056
 50
19.290166
 51
84.090312
  6
CONTINUOUS
  0
ARC
  8
WHITE
 10
91.848531
 20
53.376693
 30
0.000000
 40
7.435658
 50
-51.326824
 51
21.246256
  6
CONTINUOUS
  0
ARC
  8
WHITE
 10
95.266914
 20
48.700500
 30
0.000000
 40
1.668110
 50
-86.231981
 51
-42.595000
  6
CONTINUOUS
  0
ARC
  8
WHITE
 10
95.345414
 20
48.038000
 30
0.000000
 40
1.002445
 50
139.441275
 51
271.779000
  6
CONTINUOUS
  0
ARC
  8
WHITE
 10
90.226414
 20
52.552250
 30
0.000000
 40
5.822900
 50
-41.554000
 51
46.032798
  6
CONTINUOUS
  0
ARC
  8
WHITE
 10
88.759652
 20
47.692655
 30
0.000000
 40
10.595600
 50
58.670003
 51
96.332842
  6
CONTINUOUS
  0
LINE
  8
WHITE
 10
87.590914
 20
58.223600
 30
0.000000
 11
87.711914
 21
61.646600
 31
0.000000
  6
CONTINUOUS
  0
LINE
  8
WHITE
 10
87.711914
 20
61.646600
 30
0.000000
 11
86.661914
 21
61.683600
 31
0.000000
  6
CONTINUOUS
  0
LINE
  8
WHITE
 10
86.661914
 20
61.683600
 30
0.000000
 11
86.541168
 21
58.313018
 31
0.000000
  6
CONTINUOUS
  0
ARC
  8
WHITE
 10
117.958414
 20
32.615350
 30
0.000000
 40
1.133045
 50
90.865800
 51
165.841000
  6
CONTINUOUS
  0
ARC
  8
WHITE
 10
110.343914
 20
32.544300
 30
0.000000
 40
6.525174
 50
-32.165053
 51
3.058975
  6
CONTINUOUS
  0
ARC
  8
WHITE
 10
114.001914
 20
30.818750
 30
0.000000
 40
2.556740
 50
-134.055229
 51
-43.138000
  6
CONTINUOUS
  0
ARC
  8
WHITE
 10
117.071914
 20
35.940850
 30
0.000000
 40
8.481550
 50
-142.133975
 51
-124.860000
  6
CONTINUOUS
  0
ARC
  8
WHITE
 10
109.723377
 20
30.409828
 30
0.000000
 40
0.729255
 50
26.461178
 51
197.208061
  6
CONTINUOUS
  0
ARC
  8
WHITE
 10
114.922914
 20
30.776050
 30
0.000000
 40
5.924800
 50
-174.363000
 51
-127.952224
  6
CONTINUOUS
  0
ARC
  8
WHITE
 10
110.602545
 20
25.430525
 30
0.000000
 40
0.954858
 50
-19.149977
 51
44.876868
  6
CONTINUOUS
  0
ARC
  8
WHITE
 10
112.570414
 20
24.718150
 30
0.000000
 40
1.138135
 50
159.470000
 51
277.430983
  6
CONTINUOUS
  0
ARC
  8
WHITE
 10
112.354398
 20
22.183811
 30
0.000000
 40
1.451898
 50
5.759679
 51
75.512589
  6
CONTINUOUS
  0
ARC
  8
WHITE
 10
114.969914
 20
22.108900
 30
0.000000
 40
1.191550
 50
169.330000
 51
307.122186
  6
CONTINUOUS
  0
ARC
  8
WHITE
 10
116.431284
 20
20.444765
 30
0.000000
 40
1.029912
 50
31.330491
 51
136.109569
  6
CONTINUOUS
  0
ARC
  8
WHITE
 10
118.853414
 20
21.443650
 30
0.000000
 40
1.610495
 50
-163.279000
 51
-119.009777
  6
CONTINUOUS
  0
ARC
  8
WHITE
 10
118.484026
 20
20.838993
 30
0.000000
 40
0.902990
 50
-117.117982
 51
-32.766647
  6
CONTINUOUS
  0
ARC
  8
WHITE
 10
122.183614
 20
19.164103
 30
0.000000
 40
3.170529
 50
135.545712
 51
158.029754
  6
CONTINUOUS
  0
ARC
  8
WHITE
 10
120.288804
 20
20.770303
 30
0.000000
 40
0.716225
 50
47.134864
 51
120.949629
  6
CONTINUOUS
  0
ARC
  8
WHITE
 10
130.537914
 20
30.470300
 30
0.000000
 40
13.396850
 50
-136.775000
 51
-129.159457
  6
CONTINUOUS
  0
ARC
  8
WHITE
 10
122.450914
 20
20.712550
 30
0.000000
 40
0.732095
 50
-120.616000
 51
-14.545320
  6
CONTINUOUS
  0
ARC
  8
WHITE
 10
137.953611
 20
16.842073
 30
0.000000
 40
15.246459
 50
160.168448
 51
166.007149
  6
CONTINUOUS
  0
ARC
  8
WHITE
 10
124.027334
 20
21.836239
 30
0.000000
 40
0.452574
 50
29.890580
 51
156.800207
  6
CONTINUOUS
  0
ARC
  8
WHITE
 10
126.161414
 20
23.464250
 30
0.000000
 40
2.236175
 50
-141.158000
 51
-97.659713
  6
CONTINUOUS
  0
ARC
  8
WHITE
 10
126.099819
 20
21.835687
 30
0.000000
 40
0.633470
 50
-111.918443
 51
11.989478
  6
CONTINUOUS
  0
ARC
  8
WHITE
 10
128.346414
 20
22.721550
 30
0.000000
 40
1.793285
 50
119.828101
 51
204.873000
  6
CONTINUOUS
  0
LINE
  8
WHITE
 10
127.454414
 20
24.277300
 30
0.000000
 11
126.010414
 21
27.747550
 31
0.000000
  6
CONTINUOUS
  0
LINE
  8
WHITE
 10
126.010414
 20
27.747550
 30
0.000000
 11
122.797414
 21
26.487550
 31
0.000000
  6
CONTINUOUS
  0
LINE
  8
WHITE
 10
122.797414
 20
26.487550
 30
0.000000
 11
122.408914
 21
27.464050
 31
0.000000
  6
CONTINUOUS
  0
LINE
  8
WHITE
 10
122.408914
 20
27.464050
 30
0.000000
 11
125.606414
 21
28.718800
 31
0.000000
  6
CONTINUOUS
  0
LINE
  8
WHITE
 10
125.606414
 20
28.718800
 30
0.000000
 11
124.057709
 21
32.435741
 31
0.000000
  6
CONTINUOUS
  0
ARC
  8
WHITE
 10
123.051914
 20
39.732750
 30
0.000000
 40
7.366000
 50
-123.209245
 51
-82.152000
  6
CONTINUOUS
  0
ARC
  8
WHITE
 10
118.277414
 20
32.441000
 30
0.000000
 40
1.349785
 50
56.747000
 51
104.419410
  6
CONTINUOUS
  0
ARC
  8
WHITE
 10
58.023414
 20
16.806900
 30
0.000000
 40
2.183085
 50
-41.599000
 51
-18.228000
  6
CONTINUOUS
  0
ARC
  8
WHITE
 10
61.094551
 20
16.129403
 30
0.000000
 40
0.997615
 50
91.219960
 51
180.308414
  6
CONTINUOUS
  0
ARC
  8
WHITE
 10
61.253414
 20
18.062300
 30
0.000000
 40
0.952687
 50
-100.897202
 51
-15.730000
  6
CONTINUOUS
  0
ARC
  8
WHITE
 10
62.874266
 20
17.898828
 30
0.000000
 40
0.710150
 50
79.361378
 51
187.673112
  6
CONTINUOUS
  0
ARC
  8
WHITE
 10
63.189914
 20
19.510850
 30
0.000000
 40
0.932522
 50
-101.414138
 51
-8.127000
  6
CONTINUOUS
  0
ARC
  8
WHITE
 10
64.811414
 20
19.321300
 30
0.000000
 40
0.700712
 50
54.761800
 51
175.275029
  6
CONTINUOUS
  0
ARC
  8
WHITE
 10
65.657541
 20
20.392438
 30
0.000000
 40
0.666440
 50
-131.532055
 51
-17.906192
  6
CONTINUOUS
  0
ARC
  8
WHITE
 10
67.060229
 20
20.278421
 30
0.000000
 40
0.773885
 50
69.074215
 51
186.744455
  6
CONTINUOUS
  0
ARC
  8
WHITE
 10
67.189414
 20
19.925050
 30
0.000000
 40
1.086235
 50
-16.860000
 51
82.210904
  6
CONTINUOUS
  0
ARC
  8
WHITE
 10
47.622714
 20
18.024350
 30
0.000000
 40
20.667139
 50
-9.105000
 51
4.400276
  6
CONTINUOUS
  0
ARC
  8
WHITE
 10
65.399160
 20
15.100218
 30
0.000000
 40
2.653050
 50
-85.804324
 51
-7.500888
  6
CONTINUOUS
  0
ARC
  8
WHITE
 10
67.215914
 20
-1.857150
 30
0.000000
 40
14.403124
 50
96.468649
 51
127.894000
  6
CONTINUOUS
  0
LINE
  8
WHITE
 10
58.369493
 20
9.509033
 30
0.000000
 11
54.893914
 21
12.076300
 31
0.000000
  6
CONTINUOUS
  0
LINE
  8
WHITE
 10
54.893914
 20
12.076300
 30
0.000000
 11
54.269414
 21
11.231050
 31
0.000000
  6
CONTINUOUS
  0
LINE
  8
WHITE
 10
54.269414
 20
11.231050
 30
0.000000
 11
57.329914
 21
8.973550
 31
0.000000
  6
CONTINUOUS
  0
ARC
  8
WHITE
 10
54.893215
 20
12.076498
 30
0.000000
 40
3.945351
 50
-105.816835
 51
-51.857976
  6
CONTINUOUS
  0
ARC
  8
WHITE
 10
56.447764
 20
13.173715
 30
0.000000
 40
5.555150
 50
-144.925292
 51
-118.256361
  6
CONTINUOUS
  0
ARC
  8
WHITE
 10
47.034514
 20
5.387895
 30
0.000000
 40
6.692361
 50
43.345211
 51
78.458900
  6
CONTINUOUS
  0
ARC
  8
WHITE
 10
48.349264
 20
17.588400
 30
0.000000
 40
5.643419
 50
-112.386000
 51
-89.754163
  6
CONTINUOUS
  0
ARC
  8
WHITE
 10
46.635714
 20
13.682800
 30
0.000000
 40
1.382939
 50
161.634000
 51
251.635610
  6
CONTINUOUS
  0
ARC
  8
WHITE
 10
47.507064
 20
13.052650
 30
0.000000
 40
2.430092
 50
93.464000
 51
153.983881
  6
CONTINUOUS
  0
ARC
  8
WHITE
 10
47.533764
 20
18.722950
 30
0.000000
 40
3.249322
 50
-93.061289
 51
-11.750000
  6
CONTINUOUS
  0
ARC
  8
WHITE
 10
52.026864
 20
17.887700
 30
0.000000
 40
1.323288
 50
61.282300
 51
172.463883
  6
CONTINUOUS
  0
ARC
  8
WHITE
 10
50.388914
 20
15.689050
 30
0.000000
 40
4.056409
 50
19.102100
 51
55.906453
  6
CONTINUOUS
  0
ARC
  8
WHITE
 10
57.804350
 20
18.732084
 30
0.000000
 40
3.971942
 50
-154.410694
 51
-99.688760
  6
CONTINUOUS
  0
ARC
  8
WHITE
 10
58.025781
 20
16.812187
 30
0.000000
 40
2.184832
 50
-114.035648
 51
-41.743879
  6
CONTINUOUS
  0
ARC
  8
WHITE
 10
10.928964
 20
85.571100
 30
0.000000
 40
3.972270
 50
-116.171000
 51
-85.278000
  6
CONTINUOUS
  0
ARC
  8
WHITE
 10
10.925820
 20
85.570839
 30
0.000000
 40
3.972270
 50
-85.232488
 51
-61.339485
  6
CONTINUOUS
  0
ARC
  8
WHITE
 10
15.156214
 20
78.756600
 30
0.000000
 40
4.060375
 50
88.214246
 51
124.936000
  6
CONTINUOUS
  0
ARC
  8
WHITE
 10
15.113764
 20
81.499100
 30
0.000000
 40
1.326645
 50
-28.453397
 51
82.682200
  6
CONTINUOUS
  0
ARC
  8
WHITE
 10
19.241714
 20
79.537100
 30
0.000000
 40
3.246370
 50
155.817000
 51
237.186529
  6
CONTINUOUS
  0
ARC
  8
WHITE
 10
15.938464
 20
74.930600
 30
0.000000
 40
2.431310
 50
-9.983194
 51
50.576000
  6
CONTINUOUS
  0
ARC
  8
WHITE
 10
17.015558
 20
74.928990
 30
0.000000
 40
1.382705
 50
-107.697189
 51
-17.677997
  6
CONTINUOUS
  0
ARC
  8
WHITE
 10
17.919064
 20
79.097600
 30
0.000000
 40
5.643350
 50
-126.153961
 51
-103.567000
  6
CONTINUOUS
  0
ARC
  8
WHITE
 10
11.821814
 20
68.451100
 30
0.000000
 40
6.689400
 50
65.557600
 51
100.709256
  6
CONTINUOUS
  0
ARC
  8
WHITE
 10
8.772592
 20
80.274231
 30
0.000000
 40
5.552190
 50
-97.660144
 51
-71.015953
  6
CONTINUOUS
  0
ARC
  8
WHITE
 10
9.382664
 20
78.477100
 30
0.000000
 40
3.943825
 50
-164.023393
 51
-110.020000
  6
CONTINUOUS
  0
LINE
  8
WHITE
 10
5.591234
 20
77.391600
 30
0.000000
 11
9.397464
 21
77.423100
 31
0.000000
  6
CONTINUOUS
  0
LINE
  8
WHITE
 10
9.397464
 20
77.423100
 30
0.000000
 11
9.386964
 21
78.478100
 31
0.000000
  6
CONTINUOUS
  0
LINE
  8
WHITE
 10
9.386964
 20
78.478100
 30
0.000000
 11
5.066235
 21
78.436206
 31
0.000000
  6
CONTINUOUS
  0
ARC
  8
WHITE
 10
-8.767736
 20
74.425600
 30
0.000000
 40
14.403600
 50
16.167400
 51
47.598086
  6
CONTINUOUS
  0
ARC
  8
WHITE
 10
2.650855
 20
87.090739
 30
0.000000
 40
2.650855
 50
151.542073
 51
229.945686
  6
CONTINUOUS
  0
ARC
  8
WHITE
 10
18.762005
 20
79.022441
 30
0.000000
 40
20.668148
 50
139.660698
 51
153.160669
  6
CONTINUOUS
  0
ARC
  8
WHITE
 10
4.033813
 20
92.050012
 30
0.000000
 40
1.084039
 50
61.775371
 51
161.097405
  6
CONTINUOUS
  0
ARC
  8
WHITE
 10
4.347149
 20
92.259100
 30
0.000000
 40
0.772230
 50
-42.775714
 51
75.040700
  6
CONTINUOUS
  0
ARC
  8
WHITE
 10
5.550233
 20
91.528426
 30
0.000000
 40
0.668830
 50
162.041376
 51
275.771037
  6
CONTINUOUS
  0
ARC
  8
WHITE
 10
5.607339
 20
90.164100
 30
0.000000
 40
0.698960
 50
-31.146890
 51
89.168200
  6
CONTINUOUS
  0
ARC
  8
WHITE
 10
7.030329
 20
89.365100
 30
0.000000
 40
0.933685
 50
152.058000
 51
245.371057
  6
CONTINUOUS
  0
ARC
  8
WHITE
 10
6.341586
 20
87.871970
 30
0.000000
 40
0.710675
 50
-43.570893
 51
65.061577
  6
CONTINUOUS
  0
ARC
  8
WHITE
 10
7.750034
 20
87.054100
 30
0.000000
 40
0.951860
 50
159.841000
 51
245.149082
  6
CONTINUOUS
  0
ARC
  8
WHITE
 10
6.746547
 20
85.396233
 30
0.000000
 40
0.997360
 50
-36.384138
 51
52.768659
  6
CONTINUOUS
  0
ARC
  8
WHITE
 10
9.633074
 20
84.143814
 30
0.000000
 40
2.185865
 50
162.404140
 51
257.956618
  6
CONTINUOUS
  0
ENDSEC
  0
EOF
