999
"DXF R12 Output" (www.mydxf.blogspot.com)
 0 
SECTION
 2 
HEADER
 9 
$ACADVER
 1 
AC1009
 9 
$EXTMIN
 10 
 0 
 20 
 0 
 9 
$EXTMAX
 10 
 8.5 
 20 
 11 
 0 
ENDSEC
 0 
SECTION
 2 
ENTITIES
0
LINE
8
Calque 1
10
79.626982
20
138.852073
11
77.983821
21
139.354269
0
LINE
8
Calque 1
10
77.983821
20
139.354269
11
76.701504
21
140.040908
0
LINE
8
Calque 1
10
76.701504
20
140.040908
11
75.796096
21
140.863496
0
LINE
8
Calque 1
10
75.796096
20
140.863496
11
75.283659
21
141.773540
0
LINE
8
Calque 1
10
75.283659
20
141.773540
11
75.180260
21
142.722545
0
LINE
8
Calque 1
10
75.180260
20
142.722545
11
75.501961
21
143.662019
0
LINE
8
Calque 1
10
75.501961
20
143.662019
11
76.264828
21
144.543467
0
LINE
8
Calque 1
10
76.264828
20
144.543467
11
77.484924
21
145.318397
0
LINE
8
Calque 1
10
77.484924
20
145.318397
11
79.228420
21
145.989343
0
LINE
8
Calque 1
10
79.228420
20
145.989343
11
81.049159
21
146.380708
0
LINE
8
Calque 1
10
81.049159
20
146.380708
11
82.869735
21
146.504313
0
LINE
8
Calque 1
10
82.869735
20
146.504313
11
84.612741
21
146.371982
0
LINE
8
Calque 1
10
84.612741
20
146.371982
11
86.200772
21
145.995537
0
LINE
8
Calque 1
10
86.200772
20
145.995537
11
87.556422
21
145.386801
0
LINE
8
Calque 1
10
87.556422
20
145.386801
11
88.602283
21
144.557598
0
LINE
8
Calque 1
10
88.602283
20
144.557598
11
89.260951
21
143.519749
0
LINE
8
Calque 1
10
89.260951
20
143.519749
11
89.398614
21
142.962376
0
LINE
8
Calque 1
10
89.398614
20
142.962376
11
89.386102
21
142.415451
0
LINE
8
Calque 1
10
89.386102
20
142.415451
11
88.954728
21
141.374355
0
LINE
8
Calque 1
10
88.954728
20
141.374355
11
88.055178
21
140.439264
0
LINE
8
Calque 1
10
88.055178
20
140.439264
11
86.775801
21
139.652984
0
LINE
8
Calque 1
10
86.775801
20
139.652984
11
85.204944
21
139.058320
0
LINE
8
Calque 1
10
85.204944
20
139.058320
11
83.430956
21
138.698077
0
LINE
8
Calque 1
10
83.430956
20
138.698077
11
81.542186
21
138.615060
0
LINE
8
Calque 1
10
81.542186
20
138.615060
11
79.626982
21
138.852073
0
LINE
8
Calque 1
10
79.626982
20
138.852073
11
79.626982
21
138.852073
0
LINE
8
Calque 1
10
84.010492
20
141.358777
11
84.779569
21
141.830902
0
LINE
8
Calque 1
10
84.779569
20
141.830902
11
84.989204
21
142.471663
0
LINE
8
Calque 1
10
84.989204
20
142.471663
11
84.808126
21
143.145671
0
LINE
8
Calque 1
10
84.808126
20
143.145671
11
84.278983
21
143.642285
0
LINE
8
Calque 1
10
84.278983
20
143.642285
11
83.422907
21
143.949245
0
LINE
8
Calque 1
10
83.422907
20
143.949245
11
82.261035
21
144.054289
0
LINE
8
Calque 1
10
82.261035
20
144.054289
11
80.927414
21
143.912862
0
LINE
8
Calque 1
10
80.927414
20
143.912862
11
79.995497
21
143.365834
0
LINE
8
Calque 1
10
79.995497
20
143.365834
11
79.415144
21
142.711445
0
LINE
8
Calque 1
10
79.415144
20
142.711445
11
79.390000
21
142.451357
0
LINE
8
Calque 1
10
79.390000
20
142.451357
11
79.513574
21
142.166389
0
LINE
8
Calque 1
10
79.513574
20
142.166389
11
80.271069
21
141.434300
0
LINE
8
Calque 1
10
80.271069
20
141.434300
11
81.367364
21
141.038731
0
LINE
8
Calque 1
10
81.367364
20
141.038731
11
82.660994
21
141.005087
0
LINE
8
Calque 1
10
82.660994
20
141.005087
11
84.010492
21
141.358777
0
LINE
8
Calque 1
10
84.010492
20
141.358777
11
84.010492
21
141.358777
0
LINE
8
Calque 1
10
107.990315
20
138.689273
11
105.958049
21
139.296400
0
LINE
8
Calque 1
10
105.958049
20
139.296400
11
104.400369
21
140.153179
0
LINE
8
Calque 1
10
104.400369
20
140.153179
11
103.402940
21
141.195927
0
LINE
8
Calque 1
10
103.402940
20
141.195927
11
103.141090
21
141.767136
0
LINE
8
Calque 1
10
103.141090
20
141.767136
11
103.051427
21
142.360956
0
LINE
8
Calque 1
10
103.051427
20
142.360956
11
103.250200
21
143.164821
0
LINE
8
Calque 1
10
103.250200
20
143.164821
11
103.791514
21
144.016046
0
LINE
8
Calque 1
10
103.791514
20
144.016046
11
104.592856
21
144.813322
0
LINE
8
Calque 1
10
104.592856
20
144.813322
11
105.571716
21
145.455345
0
LINE
8
Calque 1
10
105.571716
20
145.455345
11
106.875871
21
145.977627
0
LINE
8
Calque 1
10
106.875871
20
145.977627
11
108.317438
21
146.309652
0
LINE
8
Calque 1
10
108.317438
20
146.309652
11
109.831048
21
146.456680
0
LINE
8
Calque 1
10
109.831048
20
146.456680
11
111.351331
21
146.423969
0
LINE
8
Calque 1
10
111.351331
20
146.423969
11
112.812919
21
146.216779
0
LINE
8
Calque 1
10
112.812919
20
146.216779
11
114.150443
21
145.840368
0
LINE
8
Calque 1
10
114.150443
20
145.840368
11
115.298534
21
145.299997
0
LINE
8
Calque 1
10
115.298534
20
145.299997
11
116.191823
21
144.600923
0
LINE
8
Calque 1
10
116.191823
20
144.600923
11
116.702209
21
143.916535
0
LINE
8
Calque 1
10
116.702209
20
143.916535
11
116.744503
21
143.345215
0
LINE
8
Calque 1
10
116.744503
20
143.345215
11
116.289663
21
142.808991
0
LINE
8
Calque 1
10
116.289663
20
142.808991
11
115.308645
21
142.229889
0
LINE
8
Calque 1
10
115.308645
20
142.229889
11
113.709675
21
141.770782
0
LINE
8
Calque 1
10
113.709675
20
141.770782
11
111.540385
21
141.547598
0
LINE
8
Calque 1
10
111.540385
20
141.547598
11
109.322564
21
141.582705
0
LINE
8
Calque 1
10
109.322564
20
141.582705
11
107.578003
21
141.898473
0
LINE
8
Calque 1
10
107.578003
20
141.898473
11
106.283259
21
142.206227
0
LINE
8
Calque 1
10
106.283259
20
142.206227
11
106.186488
21
142.044646
0
LINE
8
Calque 1
10
106.186488
20
142.044646
11
106.428424
21
141.667051
0
LINE
8
Calque 1
10
106.428424
20
141.667051
11
106.871085
21
141.324399
0
LINE
8
Calque 1
10
106.871085
20
141.324399
11
107.547623
21
141.051246
0
LINE
8
Calque 1
10
107.547623
20
141.051246
11
109.441720
21
140.726093
0
LINE
8
Calque 1
10
109.441720
20
140.726093
11
111.789504
21
140.716909
0
LINE
8
Calque 1
10
111.789504
20
140.716909
11
114.269760
21
141.049012
0
LINE
8
Calque 1
10
114.269760
20
141.049012
11
115.515506
21
141.251330
0
LINE
8
Calque 1
10
115.515506
20
141.251330
11
116.033649
21
141.218707
0
LINE
8
Calque 1
10
116.033649
20
141.218707
11
115.613984
21
140.014377
0
LINE
8
Calque 1
10
115.613984
20
140.014377
11
115.353529
21
139.480751
0
LINE
8
Calque 1
10
115.353529
20
139.480751
11
115.060366
21
139.156176
0
LINE
8
Calque 1
10
115.060366
20
139.156176
11
113.991207
21
138.860672
0
LINE
8
Calque 1
10
113.991207
20
138.860672
11
110.405998
21
138.569627
0
LINE
8
Calque 1
10
110.405998
20
138.569627
11
107.990315
21
138.689273
0
LINE
8
Calque 1
10
107.990315
20
138.689273
11
107.990315
21
138.689273
0
LINE
8
Calque 1
10
112.776040
20
143.752566
11
112.790450
21
144.061451
0
LINE
8
Calque 1
10
112.790450
20
144.061451
11
112.391110
21
144.274942
0
LINE
8
Calque 1
10
112.391110
20
144.274942
11
110.341904
21
144.418277
0
LINE
8
Calque 1
10
110.341904
20
144.418277
11
108.155052
21
144.186228
0
LINE
8
Calque 1
10
108.155052
20
144.186228
11
107.938860
21
143.976159
0
LINE
8
Calque 1
10
107.938860
20
143.976159
11
108.416494
21
143.741697
0
LINE
8
Calque 1
10
108.416494
20
143.741697
11
109.519887
21
143.576633
0
LINE
8
Calque 1
10
109.519887
20
143.576633
11
110.925402
21
143.524199
0
LINE
8
Calque 1
10
110.925402
20
143.524199
11
112.166349
21
143.583231
0
LINE
8
Calque 1
10
112.166349
20
143.583231
11
112.776040
21
143.752566
0
LINE
8
Calque 1
10
112.776040
20
143.752566
11
112.776040
21
143.752566
0
LINE
8
Calque 1
10
121.885377
20
138.697720
11
120.703330
21
139.084749
0
LINE
8
Calque 1
10
120.703330
20
139.084749
11
119.608063
21
139.607114
0
LINE
8
Calque 1
10
119.608063
20
139.607114
11
118.682706
21
140.218183
0
LINE
8
Calque 1
10
118.682706
20
140.218183
11
118.010390
21
140.871328
0
LINE
8
Calque 1
10
118.010390
20
140.871328
11
117.666486
21
141.476933
0
LINE
8
Calque 1
10
117.666486
20
141.476933
11
117.530430
21
142.128147
0
LINE
8
Calque 1
10
117.530430
20
142.128147
11
117.589840
21
142.800271
0
LINE
8
Calque 1
10
117.589840
20
142.800271
11
117.832334
21
143.468601
0
LINE
8
Calque 1
10
117.832334
20
143.468601
11
118.245532
21
144.108438
0
LINE
8
Calque 1
10
118.245532
20
144.108438
11
118.817053
21
144.695079
0
LINE
8
Calque 1
10
118.817053
20
144.695079
11
119.534515
21
145.203824
0
LINE
8
Calque 1
10
119.534515
20
145.203824
11
120.385538
21
145.609972
0
LINE
8
Calque 1
10
120.385538
20
145.609972
11
121.814214
21
146.042244
0
LINE
8
Calque 1
10
121.814214
20
146.042244
11
123.306349
21
146.295640
0
LINE
8
Calque 1
10
123.306349
20
146.295640
11
124.812182
21
146.376003
0
LINE
8
Calque 1
10
124.812182
20
146.376003
11
126.281954
21
146.289173
0
LINE
8
Calque 1
10
126.281954
20
146.289173
11
127.665902
21
146.040993
0
LINE
8
Calque 1
10
127.665902
20
146.040993
11
128.914265
21
145.637304
0
LINE
8
Calque 1
10
128.914265
20
145.637304
11
129.977284
21
145.083948
0
LINE
8
Calque 1
10
129.977284
20
145.083948
11
130.805197
21
144.386767
0
LINE
8
Calque 1
10
130.805197
20
144.386767
11
131.147867
21
143.798036
0
LINE
8
Calque 1
10
131.147867
20
143.798036
11
131.110740
21
143.224987
0
LINE
8
Calque 1
10
131.110740
20
143.224987
11
130.700222
21
142.683568
0
LINE
8
Calque 1
10
130.700222
20
142.683568
11
129.922719
21
142.189729
0
LINE
8
Calque 1
10
129.922719
20
142.189729
11
128.275593
21
141.753463
0
LINE
8
Calque 1
10
128.275593
20
141.753463
11
125.974297
21
141.544542
0
LINE
8
Calque 1
10
125.974297
20
141.544542
11
123.619938
21
141.584749
0
LINE
8
Calque 1
10
123.619938
20
141.584749
11
121.813622
21
141.895865
0
LINE
8
Calque 1
10
121.813622
20
141.895865
11
120.921345
21
142.114789
0
LINE
8
Calque 1
10
120.921345
20
142.114789
11
120.596628
21
142.019057
0
LINE
8
Calque 1
10
120.596628
20
142.019057
11
120.850728
21
141.678251
0
LINE
8
Calque 1
10
120.850728
20
141.678251
11
121.694900
21
141.161949
0
LINE
8
Calque 1
10
121.694900
20
141.161949
11
122.887498
21
140.822516
0
LINE
8
Calque 1
10
122.887498
20
140.822516
11
124.598248
21
140.672557
0
LINE
8
Calque 1
10
124.598248
20
140.672557
11
126.575682
21
140.719120
0
LINE
8
Calque 1
10
126.575682
20
140.719120
11
128.568331
21
140.969256
0
LINE
8
Calque 1
10
128.568331
20
140.969256
11
130.314771
21
141.156133
0
LINE
8
Calque 1
10
130.314771
20
141.156133
11
130.343660
21
140.712983
0
LINE
8
Calque 1
10
130.343660
20
140.712983
11
130.056540
21
140.025350
0
LINE
8
Calque 1
10
130.056540
20
140.025350
11
129.596006
21
139.352673
0
LINE
8
Calque 1
10
129.596006
20
139.352673
11
129.104652
21
138.954393
0
LINE
8
Calque 1
10
129.104652
20
138.954393
11
127.716087
21
138.706392
0
LINE
8
Calque 1
10
127.716087
20
138.706392
11
125.568654
21
138.563832
0
LINE
8
Calque 1
10
125.568654
20
138.563832
11
123.384401
21
138.552384
0
LINE
8
Calque 1
10
123.384401
20
138.552384
11
121.885377
21
138.697720
0
LINE
8
Calque 1
10
121.885377
20
138.697720
11
121.885377
21
138.697720
0
LINE
8
Calque 1
10
127.322538
20
143.741872
11
127.191403
21
143.970189
0
LINE
8
Calque 1
10
127.191403
20
143.970189
11
126.876121
21
144.165206
0
LINE
8
Calque 1
10
126.876121
20
144.165206
11
124.762971
21
144.331325
0
LINE
8
Calque 1
10
124.762971
20
144.331325
11
122.639032
21
144.146048
0
LINE
8
Calque 1
10
122.639032
20
144.146048
11
122.300813
21
143.952155
0
LINE
8
Calque 1
10
122.300813
20
143.952155
11
122.686504
21
143.742552
0
LINE
8
Calque 1
10
122.686504
20
143.742552
11
123.736899
21
143.572176
0
LINE
8
Calque 1
10
123.736899
20
143.572176
11
125.294312
21
143.515206
0
LINE
8
Calque 1
10
125.294312
20
143.515206
11
126.706829
21
143.571740
0
LINE
8
Calque 1
10
126.706829
20
143.571740
11
127.322538
21
143.741872
0
LINE
8
Calque 1
10
127.322538
20
143.741872
11
127.322538
21
143.741872
0
LINE
8
Calque 1
10
51.404760
20
139.226003
11
52.816065
21
143.201153
0
LINE
8
Calque 1
10
52.816065
20
143.201153
11
54.619666
21
147.663912
0
LINE
8
Calque 1
10
54.619666
20
147.663912
11
55.309560
21
148.679362
0
LINE
8
Calque 1
10
55.309560
20
148.679362
11
56.242106
21
149.561678
0
LINE
8
Calque 1
10
56.242106
20
149.561678
11
57.384073
21
150.298993
0
LINE
8
Calque 1
10
57.384073
20
150.298993
11
58.702226
21
150.879446
0
LINE
8
Calque 1
10
58.702226
20
150.879446
11
60.163334
21
151.291170
0
LINE
8
Calque 1
10
60.163334
20
151.291170
11
61.734163
21
151.522303
0
LINE
8
Calque 1
10
61.734163
20
151.522303
11
63.381481
21
151.560980
0
LINE
8
Calque 1
10
63.381481
20
151.560980
11
65.072054
21
151.395338
0
LINE
8
Calque 1
10
65.072054
20
151.395338
11
66.650424
21
151.053128
0
LINE
8
Calque 1
10
66.650424
20
151.053128
11
67.953583
21
150.566726
0
LINE
8
Calque 1
10
67.953583
20
150.566726
11
69.019221
21
149.918071
0
LINE
8
Calque 1
10
69.019221
20
149.918071
11
69.885029
21
149.089103
0
LINE
8
Calque 1
10
69.885029
20
149.089103
11
70.490677
21
148.114772
0
LINE
8
Calque 1
10
70.490677
20
148.114772
11
70.517224
21
146.938609
0
LINE
8
Calque 1
10
70.517224
20
146.938609
11
70.234692
21
145.869963
0
LINE
8
Calque 1
10
70.234692
20
145.869963
11
69.632736
21
144.950532
0
LINE
8
Calque 1
10
69.632736
20
144.950532
11
68.690640
21
144.157339
0
LINE
8
Calque 1
10
68.690640
20
144.157339
11
67.387690
21
143.467408
0
LINE
8
Calque 1
10
67.387690
20
143.467408
11
65.940681
21
143.021658
0
LINE
8
Calque 1
10
65.940681
20
143.021658
11
64.192019
21
142.755119
0
LINE
8
Calque 1
10
64.192019
20
142.755119
11
62.375059
21
142.689527
0
LINE
8
Calque 1
10
62.375059
20
142.689527
11
60.723151
21
142.846618
0
LINE
8
Calque 1
10
60.723151
20
142.846618
11
59.995130
21
143.006149
0
LINE
8
Calque 1
10
59.995130
20
143.006149
11
59.582194
21
143.239656
0
LINE
8
Calque 1
10
59.582194
20
143.239656
11
59.343221
21
143.696605
0
LINE
8
Calque 1
10
59.343221
20
143.696605
11
59.137090
21
144.526464
0
LINE
8
Calque 1
10
59.137090
20
144.526464
11
58.815972
21
145.972526
0
LINE
8
Calque 1
10
58.815972
20
145.972526
11
61.586988
21
145.819832
0
LINE
8
Calque 1
10
61.586988
20
145.819832
11
63.892393
21
145.817774
0
LINE
8
Calque 1
10
63.892393
20
145.817774
11
65.428687
21
146.107759
0
LINE
8
Calque 1
10
65.428687
20
146.107759
11
65.908105
21
146.362150
0
LINE
8
Calque 1
10
65.908105
20
146.362150
11
66.194870
21
146.689409
0
LINE
8
Calque 1
10
66.194870
20
146.689409
11
66.288857
21
147.089490
0
LINE
8
Calque 1
10
66.288857
20
147.089490
11
66.189942
21
147.562346
0
LINE
8
Calque 1
10
66.189942
20
147.562346
11
65.940358
21
147.877447
0
LINE
8
Calque 1
10
65.940358
20
147.877447
11
65.480723
21
148.139715
0
LINE
8
Calque 1
10
65.480723
20
148.139715
11
64.102028
21
148.483180
0
LINE
8
Calque 1
10
64.102028
20
148.483180
11
62.395316
21
148.547600
0
LINE
8
Calque 1
10
62.395316
20
148.547600
11
60.702049
21
148.287834
0
LINE
8
Calque 1
10
60.702049
20
148.287834
11
59.626299
21
147.795937
0
LINE
8
Calque 1
10
59.626299
20
147.795937
11
58.733307
21
146.849761
0
LINE
8
Calque 1
10
58.733307
20
146.849761
11
57.872626
21
145.229097
0
LINE
8
Calque 1
10
57.872626
20
145.229097
11
56.893807
21
142.713734
0
LINE
8
Calque 1
10
56.893807
20
142.713734
11
55.553726
21
138.974289
0
LINE
8
Calque 1
10
55.553726
20
138.974289
11
53.479243
21
138.974289
0
LINE
8
Calque 1
10
53.479243
20
138.974289
11
52.014139
21
139.048230
0
LINE
8
Calque 1
10
52.014139
20
139.048230
11
51.404760
21
139.226003
0
LINE
8
Calque 1
10
51.404760
20
139.226003
11
51.404760
21
139.226003
0
LINE
8
Calque 1
10
68.902538
20
139.169285
11
70.209455
21
142.838174
0
LINE
8
Calque 1
10
70.209455
20
142.838174
11
71.516373
21
146.312067
0
LINE
8
Calque 1
10
71.516373
20
146.312067
11
73.455011
21
146.312067
0
LINE
8
Calque 1
10
73.455011
20
146.312067
11
74.824173
21
146.254787
0
LINE
8
Calque 1
10
74.824173
20
146.254787
11
75.393649
21
146.117071
0
LINE
8
Calque 1
10
75.393649
20
146.117071
11
74.086731
21
142.448183
0
LINE
8
Calque 1
10
74.086731
20
142.448183
11
72.779814
21
138.974289
0
LINE
8
Calque 1
10
72.779814
20
138.974289
11
70.841176
21
138.974289
0
LINE
8
Calque 1
10
70.841176
20
138.974289
11
69.472013
21
139.031570
0
LINE
8
Calque 1
10
69.472013
20
139.031570
11
68.902538
21
139.169285
0
LINE
8
Calque 1
10
68.902538
20
139.169285
11
68.902538
21
139.169285
0
LINE
8
Calque 1
10
89.222538
20
139.238537
11
89.511891
21
140.314403
0
LINE
8
Calque 1
10
89.511891
20
140.314403
11
90.197369
21
141.982568
0
LINE
8
Calque 1
10
90.197369
20
141.982568
11
91.005097
21
143.634145
0
LINE
8
Calque 1
10
91.005097
20
143.634145
11
91.661203
21
144.660252
0
LINE
8
Calque 1
10
91.661203
20
144.660252
11
92.649579
21
145.400475
0
LINE
8
Calque 1
10
92.649579
20
145.400475
11
93.992798
21
145.952454
0
LINE
8
Calque 1
10
93.992798
20
145.952454
11
95.641942
21
146.301458
0
LINE
8
Calque 1
10
95.641942
20
146.301458
11
97.548093
21
146.432760
0
LINE
8
Calque 1
10
97.548093
20
146.432760
11
99.259880
21
146.334184
0
LINE
8
Calque 1
10
99.259880
20
146.334184
11
100.570255
21
145.992797
0
LINE
8
Calque 1
10
100.570255
20
145.992797
11
101.522961
21
145.390355
0
LINE
8
Calque 1
10
101.522961
20
145.390355
11
102.161741
21
144.508616
0
LINE
8
Calque 1
10
102.161741
20
144.508616
11
102.340307
21
144.018374
0
LINE
8
Calque 1
10
102.340307
20
144.018374
11
102.343770
21
143.474156
0
LINE
8
Calque 1
10
102.343770
20
143.474156
11
101.706824
21
141.418413
0
LINE
8
Calque 1
10
101.706824
20
141.418413
11
100.871593
21
139.115401
0
LINE
8
Calque 1
10
100.871593
20
139.115401
11
98.887830
21
139.033102
0
LINE
8
Calque 1
10
98.887830
20
139.033102
11
96.904068
21
138.950803
0
LINE
8
Calque 1
10
96.904068
20
138.950803
11
97.592044
21
140.846157
0
LINE
8
Calque 1
10
97.592044
20
140.846157
11
98.053328
21
142.350344
0
LINE
8
Calque 1
10
98.053328
20
142.350344
11
98.196279
21
143.305238
0
LINE
8
Calque 1
10
98.196279
20
143.305238
11
97.892992
21
143.841450
0
LINE
8
Calque 1
10
97.892992
20
143.841450
11
97.265866
21
144.158600
0
LINE
8
Calque 1
10
97.265866
20
144.158600
11
96.456778
21
144.219354
0
LINE
8
Calque 1
10
96.456778
20
144.219354
11
95.607604
21
143.986381
0
LINE
8
Calque 1
10
95.607604
20
143.986381
11
95.126860
21
143.683248
0
LINE
8
Calque 1
10
95.126860
20
143.683248
11
94.734829
21
143.215188
0
LINE
8
Calque 1
10
94.734829
20
143.215188
11
93.892068
21
141.269925
0
LINE
8
Calque 1
10
93.892068
20
141.269925
11
93.058265
21
138.974289
0
LINE
8
Calque 1
10
93.058265
20
138.974289
11
91.140401
21
138.974289
0
LINE
8
Calque 1
10
91.140401
20
138.974289
11
89.785910
21
139.051912
0
LINE
8
Calque 1
10
89.785910
20
139.051912
11
89.222538
21
139.238537
0
LINE
8
Calque 1
10
89.222538
20
139.238537
11
89.222538
21
139.238537
0
LINE
8
Calque 1
10
131.146262
20
139.609289
11
132.432326
21
143.015991
0
LINE
8
Calque 1
10
132.432326
20
143.015991
11
133.100879
21
144.370376
0
LINE
8
Calque 1
10
133.100879
20
144.370376
11
133.629764
21
145.142996
0
LINE
8
Calque 1
10
133.629764
20
145.142996
11
134.376600
21
145.660457
0
LINE
8
Calque 1
10
134.376600
20
145.660457
11
135.248261
21
146.036584
0
LINE
8
Calque 1
10
135.248261
20
146.036584
11
136.536237
21
146.217302
0
LINE
8
Calque 1
10
136.536237
20
146.217302
11
138.380656
21
146.304989
0
LINE
8
Calque 1
10
138.380656
20
146.304989
11
140.081864
21
146.286076
0
LINE
8
Calque 1
10
140.081864
20
146.286076
11
140.940209
21
146.146990
0
LINE
8
Calque 1
10
140.940209
20
146.146990
11
140.952016
21
145.726560
0
LINE
8
Calque 1
10
140.952016
20
145.726560
11
140.748597
21
144.947545
0
LINE
8
Calque 1
10
140.748597
20
144.947545
11
140.511962
21
144.347367
0
LINE
8
Calque 1
10
140.511962
20
144.347367
11
140.193109
21
144.024851
0
LINE
8
Calque 1
10
140.193109
20
144.024851
11
139.576106
21
143.869813
0
LINE
8
Calque 1
10
139.576106
20
143.869813
11
138.445023
21
143.772067
0
LINE
8
Calque 1
10
138.445023
20
143.772067
11
136.498132
21
143.630956
0
LINE
8
Calque 1
10
136.498132
20
143.630956
11
135.649781
21
141.303718
0
LINE
8
Calque 1
10
135.649781
20
141.303718
11
134.801427
21
138.976477
0
LINE
8
Calque 1
10
134.801427
20
138.976477
11
132.877408
21
138.975384
0
LINE
8
Calque 1
10
132.877408
20
138.975384
11
131.242565
21
139.061182
0
LINE
8
Calque 1
10
131.242565
20
139.061182
11
131.075711
21
139.250491
0
LINE
8
Calque 1
10
131.075711
20
139.250491
11
131.146262
21
139.609289
0
LINE
8
Calque 1
10
131.146262
20
139.609289
11
131.146262
21
139.609289
 0 
ENDSEC
 0 
EOF
