999
"DXF R12 Output" (www.mydxf.blogspot.com)
 0 
SECTION
 2 
HEADER
 9 
$ACADVER
 1 
AC1009
 9 
$EXTMIN
 10 
 0 
 20 
 0 
 9 
$EXTMAX
 10 
 8.5 
 20 
 11 
 0 
ENDSEC
 0 
SECTION
 2 
ENTITIES
0
LINE
8
Calque 1
10
54.710793
20
171.752388
11
54.710793
21
182.194611
0
LINE
8
Calque 1
10
54.710793
20
182.194611
11
59.508571
21
182.194611
0
LINE
8
Calque 1
10
59.508571
20
182.194611
11
64.306348
21
182.194611
0
LINE
8
Calque 1
10
64.306348
20
182.194611
11
64.306348
21
180.219055
0
LINE
8
Calque 1
10
64.306348
20
180.219055
11
64.306348
21
178.243499
0
LINE
8
Calque 1
10
64.306348
20
178.243499
11
62.048571
21
178.243499
0
LINE
8
Calque 1
10
62.048571
20
178.243499
11
59.790793
21
178.243499
0
LINE
8
Calque 1
10
59.790793
20
178.243499
11
59.755515
21
177.114611
0
LINE
8
Calque 1
10
59.755515
20
177.114611
11
59.684960
21
175.209611
0
LINE
8
Calque 1
10
59.684960
20
175.209611
11
59.649682
21
174.433499
0
LINE
8
Calque 1
10
59.649682
20
174.433499
11
61.978015
21
174.351531
0
LINE
8
Calque 1
10
61.978015
20
174.351531
11
64.306348
21
174.269562
0
LINE
8
Calque 1
10
64.306348
20
174.269562
11
64.306348
21
172.587642
0
LINE
8
Calque 1
10
64.306348
20
172.587642
11
64.306348
21
170.905722
0
LINE
8
Calque 1
10
64.306348
20
170.905722
11
62.048571
21
170.905722
0
LINE
8
Calque 1
10
62.048571
20
170.905722
11
60.312121
21
170.823408
0
LINE
8
Calque 1
10
60.312121
20
170.823408
11
59.905029
21
170.713900
0
LINE
8
Calque 1
10
59.905029
20
170.713900
11
59.767326
21
170.552944
0
LINE
8
Calque 1
10
59.767326
20
170.552944
11
59.772894
21
164.908499
0
LINE
8
Calque 1
10
59.772894
20
164.908499
11
60.448757
21
164.759010
0
LINE
8
Calque 1
10
60.448757
20
164.759010
11
62.048571
21
164.696833
0
LINE
8
Calque 1
10
62.048571
20
164.696833
11
64.306348
21
164.696833
0
LINE
8
Calque 1
10
64.306348
20
164.696833
11
64.306348
21
163.003499
0
LINE
8
Calque 1
10
64.306348
20
163.003499
11
64.306348
21
161.310166
0
LINE
8
Calque 1
10
64.306348
20
161.310166
11
59.508571
21
161.310166
0
LINE
8
Calque 1
10
59.508571
20
161.310166
11
54.710793
21
161.310166
0
LINE
8
Calque 1
10
54.710793
20
161.310166
11
54.710793
21
171.752388
0
LINE
8
Calque 1
10
54.710793
20
171.752388
11
54.710793
21
171.752388
0
LINE
8
Calque 1
10
65.999682
20
171.752388
11
65.999682
21
182.194611
0
LINE
8
Calque 1
10
65.999682
20
182.194611
11
68.328015
21
182.189539
0
LINE
8
Calque 1
10
68.328015
20
182.189539
11
70.656348
21
182.184470
0
LINE
8
Calque 1
10
70.656348
20
182.184470
11
71.644126
21
180.707872
0
LINE
8
Calque 1
10
71.644126
20
180.707872
11
72.631904
21
179.231277
0
LINE
8
Calque 1
10
72.631904
20
179.231277
11
72.717208
21
180.712944
0
LINE
8
Calque 1
10
72.717208
20
180.712944
11
72.802513
21
182.194611
0
LINE
8
Calque 1
10
72.802513
20
182.194611
11
75.045542
21
182.194611
0
LINE
8
Calque 1
10
75.045542
20
182.194611
11
77.288571
21
182.194611
0
LINE
8
Calque 1
10
77.288571
20
182.194611
11
77.288571
21
171.752388
0
LINE
8
Calque 1
10
77.288571
20
171.752388
11
77.288571
21
161.310166
0
LINE
8
Calque 1
10
77.288571
20
161.310166
11
75.074978
21
161.310166
0
LINE
8
Calque 1
10
75.074978
20
161.310166
11
72.861384
21
161.310166
0
LINE
8
Calque 1
10
72.861384
20
161.310166
11
72.678504
21
165.614055
0
LINE
8
Calque 1
10
72.678504
20
165.614055
11
72.457493
21
168.985288
0
LINE
8
Calque 1
10
72.457493
20
168.985288
11
72.182936
21
171.046833
0
LINE
8
Calque 1
10
72.182936
20
171.046833
11
71.519644
21
172.528402
0
LINE
8
Calque 1
10
71.519644
20
172.528402
11
71.122687
21
172.991484
0
LINE
8
Calque 1
10
71.122687
20
172.991484
11
70.753718
21
173.163499
0
LINE
8
Calque 1
10
70.753718
20
173.163499
11
70.585292
21
171.422541
0
LINE
8
Calque 1
10
70.585292
20
171.422541
11
70.515237
21
167.236833
0
LINE
8
Calque 1
10
70.515237
20
167.236833
11
70.515237
21
161.310166
0
LINE
8
Calque 1
10
70.515237
20
161.310166
11
68.257460
21
161.310166
0
LINE
8
Calque 1
10
68.257460
20
161.310166
11
65.999682
21
161.310166
0
LINE
8
Calque 1
10
65.999682
20
161.310166
11
65.999682
21
171.752388
0
LINE
8
Calque 1
10
65.999682
20
171.752388
11
65.999682
21
171.752388
0
LINE
8
Calque 1
10
78.699682
20
171.752388
11
78.699682
21
182.194611
0
LINE
8
Calque 1
10
78.699682
20
182.194611
11
81.098571
21
182.194611
0
LINE
8
Calque 1
10
81.098571
20
182.194611
11
83.497460
21
182.194611
0
LINE
8
Calque 1
10
83.497460
20
182.194611
11
83.497460
21
178.949055
0
LINE
8
Calque 1
10
83.497460
20
178.949055
11
83.552382
21
176.856141
0
LINE
8
Calque 1
10
83.552382
20
176.856141
11
83.759806
21
175.818256
0
LINE
8
Calque 1
10
83.759806
20
175.818256
11
83.940700
21
175.658976
0
LINE
8
Calque 1
10
83.940700
20
175.658976
11
84.183713
21
175.720285
0
LINE
8
Calque 1
10
84.183713
20
175.720285
11
84.888087
21
176.447115
0
LINE
8
Calque 1
10
84.888087
20
176.447115
11
85.186981
21
176.922177
0
LINE
8
Calque 1
10
85.186981
20
176.922177
11
85.364994
21
177.515447
0
LINE
8
Calque 1
10
85.364994
20
177.515447
11
85.473015
21
179.692671
0
LINE
8
Calque 1
10
85.473015
20
179.692671
11
85.473015
21
182.194611
0
LINE
8
Calque 1
10
85.473015
20
182.194611
11
87.755764
21
182.194611
0
LINE
8
Calque 1
10
87.755764
20
182.194611
11
90.038510
21
182.194611
0
LINE
8
Calque 1
10
90.038510
20
182.194611
11
89.942986
21
179.112781
0
LINE
8
Calque 1
10
89.942986
20
179.112781
11
89.751625
21
176.412815
0
LINE
8
Calque 1
10
89.751625
20
176.412815
11
89.541741
21
175.717407
0
LINE
8
Calque 1
10
89.541741
20
175.717407
11
89.198526
21
175.154250
0
LINE
8
Calque 1
10
89.198526
20
175.154250
11
88.549590
21
174.277549
0
LINE
8
Calque 1
10
88.549590
20
174.277549
11
89.198526
21
173.367746
0
LINE
8
Calque 1
10
89.198526
20
173.367746
11
89.561814
21
172.734431
0
LINE
8
Calque 1
10
89.561814
20
172.734431
11
89.766554
21
171.786417
0
LINE
8
Calque 1
10
89.766554
20
171.786417
11
89.934466
21
166.884055
0
LINE
8
Calque 1
10
89.934466
20
166.884055
11
90.021469
21
161.310166
0
LINE
8
Calque 1
10
90.021469
20
161.310166
11
87.747244
21
161.310166
0
LINE
8
Calque 1
10
87.747244
20
161.310166
11
85.473015
21
161.310166
0
LINE
8
Calque 1
10
85.473015
20
161.310166
11
85.473015
21
166.232398
0
LINE
8
Calque 1
10
85.473015
20
166.232398
11
85.395626
21
169.909577
0
LINE
8
Calque 1
10
85.395626
20
169.909577
11
85.178381
21
171.336726
0
LINE
8
Calque 1
10
85.178381
20
171.336726
11
84.766686
21
171.331918
0
LINE
8
Calque 1
10
84.766686
20
171.331918
11
84.190603
21
171.064652
0
LINE
8
Calque 1
10
84.190603
20
171.064652
11
83.791365
21
170.727081
0
LINE
8
Calque 1
10
83.791365
20
170.727081
11
83.585423
21
170.077996
0
LINE
8
Calque 1
10
83.585423
20
170.077996
11
83.497460
21
165.960328
0
LINE
8
Calque 1
10
83.497460
20
165.960328
11
83.497460
21
161.310166
0
LINE
8
Calque 1
10
83.497460
20
161.310166
11
81.098571
21
161.310166
0
LINE
8
Calque 1
10
81.098571
20
161.310166
11
78.699682
21
161.310166
0
LINE
8
Calque 1
10
78.699682
20
161.310166
11
78.699682
21
171.752388
0
LINE
8
Calque 1
10
78.699682
20
171.752388
11
78.699682
21
171.752388
0
LINE
8
Calque 1
10
91.399682
20
171.752388
11
91.399682
21
182.194611
0
LINE
8
Calque 1
10
91.399682
20
182.194611
11
96.338571
21
182.194611
0
LINE
8
Calque 1
10
96.338571
20
182.194611
11
101.277460
21
182.194611
0
LINE
8
Calque 1
10
101.277460
20
182.194611
11
101.277460
21
180.219055
0
LINE
8
Calque 1
10
101.277460
20
180.219055
11
101.277460
21
178.243499
0
LINE
8
Calque 1
10
101.277460
20
178.243499
11
99.019682
21
178.243499
0
LINE
8
Calque 1
10
99.019682
20
178.243499
11
96.761904
21
178.243499
0
LINE
8
Calque 1
10
96.761904
20
178.243499
11
96.761904
21
176.267944
0
LINE
8
Calque 1
10
96.761904
20
176.267944
11
96.761904
21
174.292388
0
LINE
8
Calque 1
10
96.761904
20
174.292388
11
99.019682
21
174.292388
0
LINE
8
Calque 1
10
99.019682
20
174.292388
11
101.277460
21
174.292388
0
LINE
8
Calque 1
10
101.277460
20
174.292388
11
101.277460
21
172.599055
0
LINE
8
Calque 1
10
101.277460
20
172.599055
11
101.277460
21
170.905722
0
LINE
8
Calque 1
10
101.277460
20
170.905722
11
99.019682
21
170.905722
0
LINE
8
Calque 1
10
99.019682
20
170.905722
11
96.761904
21
170.905722
0
LINE
8
Calque 1
10
96.761904
20
170.905722
11
96.761904
21
167.782848
0
LINE
8
Calque 1
10
96.761904
20
167.782848
11
96.761904
21
164.659977
0
LINE
8
Calque 1
10
96.761904
20
164.659977
11
98.949126
21
164.724852
0
LINE
8
Calque 1
10
98.949126
20
164.724852
11
101.136348
21
164.789723
0
LINE
8
Calque 1
10
101.136348
20
164.789723
11
101.220372
21
163.049945
0
LINE
8
Calque 1
10
101.220372
20
163.049945
11
101.304392
21
161.310166
0
LINE
8
Calque 1
10
101.304392
20
161.310166
11
96.352038
21
161.310166
0
LINE
8
Calque 1
10
96.352038
20
161.310166
11
91.399682
21
161.310166
0
LINE
8
Calque 1
10
91.399682
20
161.310166
11
91.399682
21
171.752388
0
LINE
8
Calque 1
10
91.399682
20
171.752388
11
91.399682
21
171.752388
0
LINE
8
Calque 1
10
102.970793
20
171.752388
11
102.970793
21
182.194611
0
LINE
8
Calque 1
10
102.970793
20
182.194611
11
105.369682
21
182.194611
0
LINE
8
Calque 1
10
105.369682
20
182.194611
11
107.768571
21
182.194611
0
LINE
8
Calque 1
10
107.768571
20
182.194611
11
107.768571
21
171.752388
0
LINE
8
Calque 1
10
107.768571
20
171.752388
11
107.768571
21
161.310166
0
LINE
8
Calque 1
10
107.768571
20
161.310166
11
105.369682
21
161.310166
0
LINE
8
Calque 1
10
105.369682
20
161.310166
11
102.970793
21
161.310166
0
LINE
8
Calque 1
10
102.970793
20
161.310166
11
102.970793
21
171.752388
0
LINE
8
Calque 1
10
102.970793
20
171.752388
11
102.970793
21
171.752388
0
LINE
8
Calque 1
10
118.815434
20
161.874453
11
117.542107
21
162.426837
0
LINE
8
Calque 1
10
117.542107
20
162.426837
11
116.373733
21
163.125847
0
LINE
8
Calque 1
10
116.373733
20
163.125847
11
115.318176
21
163.962231
0
LINE
8
Calque 1
10
115.318176
20
163.962231
11
114.383301
21
164.926741
0
LINE
8
Calque 1
10
114.383301
20
164.926741
11
113.576972
21
166.010127
0
LINE
8
Calque 1
10
113.576972
20
166.010127
11
112.907054
21
167.203140
0
LINE
8
Calque 1
10
112.907054
20
167.203140
11
112.381409
21
168.496530
0
LINE
8
Calque 1
10
112.381409
20
168.496530
11
112.007904
21
169.881049
0
LINE
8
Calque 1
10
112.007904
20
169.881049
11
111.820224
21
171.545898
0
LINE
8
Calque 1
10
111.820224
20
171.545898
11
111.930430
21
173.203443
0
LINE
8
Calque 1
10
111.930430
20
173.203443
11
112.321144
21
174.820364
0
LINE
8
Calque 1
10
112.321144
20
174.820364
11
112.974991
21
176.363343
0
LINE
8
Calque 1
10
112.974991
20
176.363343
11
113.874595
21
177.799062
0
LINE
8
Calque 1
10
113.874595
20
177.799062
11
115.002578
21
179.094202
0
LINE
8
Calque 1
10
115.002578
20
179.094202
11
116.341566
21
180.215445
0
LINE
8
Calque 1
10
116.341566
20
180.215445
11
117.874181
21
181.129473
0
LINE
8
Calque 1
10
117.874181
20
181.129473
11
118.958569
21
181.627118
0
LINE
8
Calque 1
10
118.958569
20
181.627118
11
119.859244
21
181.905500
0
LINE
8
Calque 1
10
119.859244
20
181.905500
11
122.303015
21
182.053499
0
LINE
8
Calque 1
10
122.303015
20
182.053499
11
124.737768
21
181.907447
0
LINE
8
Calque 1
10
124.737768
20
181.907447
11
125.627016
21
181.635481
0
LINE
8
Calque 1
10
125.627016
20
181.635481
11
126.683395
21
181.151421
0
LINE
8
Calque 1
10
126.683395
20
181.151421
11
128.339069
21
180.142226
0
LINE
8
Calque 1
10
128.339069
20
180.142226
11
129.752039
21
178.982611
0
LINE
8
Calque 1
10
129.752039
20
178.982611
11
130.992177
21
177.715877
0
LINE
8
Calque 1
10
130.992177
20
177.715877
11
132.291232
21
179.014931
0
LINE
8
Calque 1
10
132.291232
20
179.014931
11
133.747795
21
180.187881
0
LINE
8
Calque 1
10
133.747795
20
180.187881
11
135.425541
21
181.183744
0
LINE
8
Calque 1
10
135.425541
20
181.183744
11
137.378058
21
181.907684
0
LINE
8
Calque 1
10
137.378058
20
181.907684
11
139.800793
21
182.046932
0
LINE
8
Calque 1
10
139.800793
20
182.046932
11
142.171365
21
181.904412
0
LINE
8
Calque 1
10
142.171365
20
181.904412
11
143.954559
21
181.290562
0
LINE
8
Calque 1
10
143.954559
20
181.290562
11
145.863757
21
180.165500
0
LINE
8
Calque 1
10
145.863757
20
180.165500
11
147.451171
21
178.744287
0
LINE
8
Calque 1
10
147.451171
20
178.744287
11
148.696994
21
177.081605
0
LINE
8
Calque 1
10
148.696994
20
177.081605
11
149.581421
21
175.232138
0
LINE
8
Calque 1
10
149.581421
20
175.232138
11
150.084645
21
173.250565
0
LINE
8
Calque 1
10
150.084645
20
173.250565
11
150.186859
21
171.191571
0
LINE
8
Calque 1
10
150.186859
20
171.191571
11
149.868257
21
169.109836
0
LINE
8
Calque 1
10
149.868257
20
169.109836
11
149.109032
21
167.060043
0
LINE
8
Calque 1
10
149.109032
20
167.060043
11
148.053683
21
165.428344
0
LINE
8
Calque 1
10
148.053683
20
165.428344
11
146.608097
21
163.928640
0
LINE
8
Calque 1
10
146.608097
20
163.928640
11
144.927527
21
162.696596
0
LINE
8
Calque 1
10
144.927527
20
162.696596
11
143.167224
21
161.867877
0
LINE
8
Calque 1
10
143.167224
20
161.867877
11
141.798597
21
161.513447
0
LINE
8
Calque 1
10
141.798597
20
161.513447
11
140.400376
21
161.342885
0
LINE
8
Calque 1
10
140.400376
20
161.342885
11
138.996166
21
161.351555
0
LINE
8
Calque 1
10
138.996166
20
161.351555
11
137.609568
21
161.534821
0
LINE
8
Calque 1
10
137.609568
20
161.534821
11
136.264186
21
161.888050
0
LINE
8
Calque 1
10
136.264186
20
161.888050
11
134.983624
21
162.406604
0
LINE
8
Calque 1
10
134.983624
20
162.406604
11
133.791483
21
163.085851
0
LINE
8
Calque 1
10
133.791483
20
163.085851
11
132.711368
21
163.921153
0
LINE
8
Calque 1
10
132.711368
20
163.921153
11
131.616348
21
164.903628
0
LINE
8
Calque 1
10
131.616348
20
164.903628
11
129.217460
21
163.521733
0
LINE
8
Calque 1
10
129.217460
20
163.521733
11
127.114409
21
162.423913
0
LINE
8
Calque 1
10
127.114409
20
162.423913
11
125.426792
21
161.725005
0
LINE
8
Calque 1
10
125.426792
20
161.725005
11
123.838479
21
161.413268
0
LINE
8
Calque 1
10
123.838479
20
161.413268
11
122.085827
21
161.337006
0
LINE
8
Calque 1
10
122.085827
20
161.337006
11
120.350818
21
161.492106
0
LINE
8
Calque 1
10
120.350818
20
161.492106
11
118.815434
21
161.874453
0
LINE
8
Calque 1
10
118.815434
20
161.874453
11
118.815434
21
161.874453
0
LINE
8
Calque 1
10
127.691569
20
166.671034
11
141.153162
21
174.815634
0
LINE
8
Calque 1
10
141.153162
20
174.815634
11
143.916640
21
176.543667
0
LINE
8
Calque 1
10
143.916640
20
176.543667
11
143.834273
21
174.385646
0
LINE
8
Calque 1
10
143.834273
20
174.385646
11
143.751904
21
172.227628
0
LINE
8
Calque 1
10
143.751904
20
172.227628
11
139.309345
21
169.520564
0
LINE
8
Calque 1
10
139.309345
20
169.520564
11
136.155955
21
167.525797
0
LINE
8
Calque 1
10
136.155955
20
167.525797
11
134.812885
21
166.531277
0
LINE
8
Calque 1
10
134.812885
20
166.531277
11
135.125118
21
166.085757
0
LINE
8
Calque 1
10
135.125118
20
166.085757
11
135.951496
21
165.410926
0
LINE
8
Calque 1
10
135.951496
20
165.410926
11
137.323412
21
164.757942
0
LINE
8
Calque 1
10
137.323412
20
164.757942
11
138.992640
21
164.432723
0
LINE
8
Calque 1
10
138.992640
20
164.432723
11
140.749741
21
164.453858
0
LINE
8
Calque 1
10
140.749741
20
164.453858
11
142.385277
21
164.839934
0
LINE
8
Calque 1
10
142.385277
20
164.839934
11
143.416338
21
165.324887
0
LINE
8
Calque 1
10
143.416338
20
165.324887
11
144.339060
21
165.944379
0
LINE
8
Calque 1
10
144.339060
20
165.944379
11
145.144501
21
166.685297
0
LINE
8
Calque 1
10
145.144501
20
166.685297
11
145.823720
21
167.534530
0
LINE
8
Calque 1
10
145.823720
20
167.534530
11
146.367775
21
168.478968
0
LINE
8
Calque 1
10
146.367775
20
168.478968
11
146.767723
21
169.505497
0
LINE
8
Calque 1
10
146.767723
20
169.505497
11
147.014623
21
170.601008
0
LINE
8
Calque 1
10
147.014623
20
170.601008
11
147.099534
21
171.752388
0
LINE
8
Calque 1
10
147.099534
20
171.752388
11
146.837630
21
173.800234
0
LINE
8
Calque 1
10
146.837630
20
173.800234
11
146.055621
21
175.574542
0
LINE
8
Calque 1
10
146.055621
20
175.574542
11
144.764258
21
177.058413
0
LINE
8
Calque 1
10
144.764258
20
177.058413
11
142.974294
21
178.234954
0
LINE
8
Calque 1
10
142.974294
20
178.234954
11
141.146144
21
178.952732
0
LINE
8
Calque 1
10
141.146144
20
178.952732
11
140.324041
21
179.068575
0
LINE
8
Calque 1
10
140.324041
20
179.068575
11
139.496949
21
179.010835
0
LINE
8
Calque 1
10
139.496949
20
179.010835
11
137.628884
21
178.339952
0
LINE
8
Calque 1
10
137.628884
20
178.339952
11
135.144126
21
176.870773
0
LINE
8
Calque 1
10
135.144126
20
176.870773
11
118.335843
21
166.390166
0
LINE
8
Calque 1
10
118.335843
20
166.390166
11
118.212588
21
168.154055
0
LINE
8
Calque 1
10
118.212588
20
168.154055
11
118.214383
21
169.917944
0
LINE
8
Calque 1
10
118.214383
20
169.917944
11
123.151067
21
173.022388
0
LINE
8
Calque 1
10
123.151067
20
173.022388
11
126.610486
21
175.297805
0
LINE
8
Calque 1
10
126.610486
20
175.297805
11
127.995449
21
176.409055
0
LINE
8
Calque 1
10
127.995449
20
176.409055
11
127.519145
21
176.968654
0
LINE
8
Calque 1
10
127.519145
20
176.968654
11
126.564937
21
177.695548
0
LINE
8
Calque 1
10
126.564937
20
177.695548
11
125.447900
21
178.375700
0
LINE
8
Calque 1
10
125.447900
20
178.375700
11
124.483108
21
178.795072
0
LINE
8
Calque 1
10
124.483108
20
178.795072
11
123.103707
21
179.059327
0
LINE
8
Calque 1
10
123.103707
20
179.059327
11
121.783355
21
179.057377
0
LINE
8
Calque 1
10
121.783355
20
179.057377
11
120.474481
21
178.784245
0
LINE
8
Calque 1
10
120.474481
20
178.784245
11
119.129514
21
178.234954
0
LINE
8
Calque 1
10
119.129514
20
178.234954
11
117.339549
21
177.058413
0
LINE
8
Calque 1
10
117.339549
20
177.058413
11
116.048187
21
175.574542
0
LINE
8
Calque 1
10
116.048187
20
175.574542
11
115.266178
21
173.800234
0
LINE
8
Calque 1
10
115.266178
20
173.800234
11
115.004274
21
171.752388
0
LINE
8
Calque 1
10
115.004274
20
171.752388
11
115.153793
21
170.215366
0
LINE
8
Calque 1
10
115.153793
20
170.215366
11
115.580415
21
168.800252
0
LINE
8
Calque 1
10
115.580415
20
168.800252
11
116.255035
21
167.535919
0
LINE
8
Calque 1
10
116.255035
20
167.535919
11
117.148545
21
166.451238
0
LINE
8
Calque 1
10
117.148545
20
166.451238
11
118.231839
21
165.575082
0
LINE
8
Calque 1
10
118.231839
20
165.575082
11
119.475808
21
164.936323
0
LINE
8
Calque 1
10
119.475808
20
164.936323
11
120.851346
21
164.563832
0
LINE
8
Calque 1
10
120.851346
20
164.563832
11
122.329346
21
164.486481
0
LINE
8
Calque 1
10
122.329346
20
164.486481
11
123.358991
21
164.597234
0
LINE
8
Calque 1
10
123.358991
20
164.597234
11
124.361917
21
164.902916
0
LINE
8
Calque 1
10
124.361917
20
164.902916
11
127.691569
21
166.671034
0
LINE
8
Calque 1
10
127.691569
20
166.671034
11
127.691569
21
166.671034
 0 
ENDSEC
 0 
EOF
