  0
SECTION
  2
HEADER
  9
$ACADVER
  1
AC1015
  9
$ACADMAINTVER
 70
    20
  9
$DWGCODEPAGE
  3
ANSI_1252
  9
$INSBASE
 10
0.0
 20
0.0
 30
0.0
  9
$EXTMIN
 10
52.74981999999999
 20
130.970637
 30
0.0
  9
$EXTMAX
 10
142.441586
 20
165.724926
 30
0.0
  9
$LIMMIN
 10
0.0
 20
0.0
  9
$LIMMAX
 10
12.0
 20
9.0
  9
$ORTHOMODE
 70
     0
  9
$REGENMODE
 70
     1
  9
$FILLMODE
 70
     1
  9
$QTEXTMODE
 70
     0
  9
$MIRRTEXT
 70
     0
  9
$LTSCALE
 40
1.0
  9
$ATTMODE
 70
     1
  9
$TEXTSIZE
 40
0.2
  9
$TRACEWID
 40
0.05
  9
$TEXTSTYLE
  7
Standard
  9
$CLAYER
  8
0
  9
$CELTYPE
  6
Continuous
  9
$CECOLOR
 62
   256
  9
$CELTSCALE
 40
1.0
  9
$DISPSILH
 70
     0
  9
$DIMSCALE
 40
1.0
  9
$DIMASZ
 40
0.18
  9
$DIMEXO
 40
0.0625
  9
$DIMDLI
 40
0.38
  9
$DIMRND
 40
0.0
  9
$DIMDLE
 40
0.0
  9
$DIMEXE
 40
0.18
  9
$DIMTP
 40
0.0
  9
$DIMTM
 40
0.0
  9
$DIMTXT
 40
0.18
  9
$DIMCEN
 40
0.09
  9
$DIMTSZ
 40
0.0
  9
$DIMTOL
 70
     0
  9
$DIMLIM
 70
     0
  9
$DIMTIH
 70
     1
  9
$DIMTOH
 70
     1
  9
$DIMSE1
 70
     0
  9
$DIMSE2
 70
     0
  9
$DIMTAD
 70
     0
  9
$DIMZIN
 70
     0
  9
$DIMBLK
  1

  9
$DIMASO
 70
     1
  9
$DIMSHO
 70
     1
  9
$DIMPOST
  1

  9
$DIMAPOST
  1

  9
$DIMALT
 70
     0
  9
$DIMALTD
 70
     2
  9
$DIMALTF
 40
25.4
  9
$DIMLFAC
 40
1.0
  9
$DIMTOFL
 70
     0
  9
$DIMTVP
 40
0.0
  9
$DIMTIX
 70
     0
  9
$DIMSOXD
 70
     0
  9
$DIMSAH
 70
     0
  9
$DIMBLK1
  1

  9
$DIMBLK2
  1

  9
$DIMSTYLE
  2
Standard
  9
$DIMCLRD
 70
     0
  9
$DIMCLRE
 70
     0
  9
$DIMCLRT
 70
     0
  9
$DIMTFAC
 40
1.0
  9
$DIMGAP
 40
0.09
  9
$DIMJUST
 70
     0
  9
$DIMSD1
 70
     0
  9
$DIMSD2
 70
     0
  9
$DIMTOLJ
 70
     1
  9
$DIMTZIN
 70
     0
  9
$DIMALTZ
 70
     0
  9
$DIMALTTZ
 70
     0
  9
$DIMUPT
 70
     0
  9
$DIMDEC
 70
     4
  9
$DIMTDEC
 70
     4
  9
$DIMALTU
 70
     2
  9
$DIMALTTD
 70
     2
  9
$DIMTXSTY
  7
Standard
  9
$DIMAUNIT
 70
     0
  9
$DIMADEC
 70
     0
  9
$DIMALTRND
 40
0.0
  9
$DIMAZIN
 70
     0
  9
$DIMDSEP
 70
    46
  9
$DIMATFIT
 70
     3
  9
$DIMFRAC
 70
     0
  9
$DIMLDRBLK
  1

  9
$DIMLUNIT
 70
     2
  9
$DIMLWD
 70
    -2
  9
$DIMLWE
 70
    -2
  9
$DIMTMOVE
 70
     0
  9
$LUNITS
 70
     2
  9
$LUPREC
 70
     4
  9
$SKETCHINC
 40
0.1
  9
$FILLETRAD
 40
0.0
  9
$AUNITS
 70
     0
  9
$AUPREC
 70
     0
  9
$MENU
  1
.
  9
$ELEVATION
 40
0.0
  9
$PELEVATION
 40
0.0
  9
$THICKNESS
 40
0.0
  9
$LIMCHECK
 70
     0
  9
$CHAMFERA
 40
0.0
  9
$CHAMFERB
 40
0.0
  9
$CHAMFERC
 40
0.0
  9
$CHAMFERD
 40
0.0
  9
$SKPOLY
 70
     0
  9
$TDCREATE
 40
2454976.001885972
  9
$TDUCREATE
 40
2454975.918552639
  9
$TDUPDATE
 40
2454976.002453808
  9
$TDUUPDATE
 40
2454975.919120475
  9
$TDINDWG
 40
0.0005683218
  9
$TDUSRTIMER
 40
0.0005683218
  9
$USRTIMER
 70
     1
  9
$ANGBASE
 50
0.0
  9
$ANGDIR
 70
     0
  9
$PDMODE
 70
     0
  9
$PDSIZE
 40
0.0
  9
$PLINEWID
 40
0.0
  9
$SPLFRAME
 70
     0
  9
$SPLINETYPE
 70
     6
  9
$SPLINESEGS
 70
     8
  9
$HANDSEED
  5
377
  9
$SURFTAB1
 70
     6
  9
$SURFTAB2
 70
     6
  9
$SURFTYPE
 70
     6
  9
$SURFU
 70
     6
  9
$SURFV
 70
     6
  9
$UCSBASE
  2

  9
$UCSNAME
  2

  9
$UCSORG
 10
0.0
 20
0.0
 30
0.0
  9
$UCSXDIR
 10
1.0
 20
0.0
 30
0.0
  9
$UCSYDIR
 10
0.0
 20
1.0
 30
0.0
  9
$UCSORTHOREF
  2

  9
$UCSORTHOVIEW
 70
     0
  9
$UCSORGTOP
 10
0.0
 20
0.0
 30
0.0
  9
$UCSORGBOTTOM
 10
0.0
 20
0.0
 30
0.0
  9
$UCSORGLEFT
 10
0.0
 20
0.0
 30
0.0
  9
$UCSORGRIGHT
 10
0.0
 20
0.0
 30
0.0
  9
$UCSORGFRONT
 10
0.0
 20
0.0
 30
0.0
  9
$UCSORGBACK
 10
0.0
 20
0.0
 30
0.0
  9
$PUCSBASE
  2

  9
$PUCSNAME
  2

  9
$PUCSORG
 10
0.0
 20
0.0
 30
0.0
  9
$PUCSXDIR
 10
1.0
 20
0.0
 30
0.0
  9
$PUCSYDIR
 10
0.0
 20
1.0
 30
0.0
  9
$PUCSORTHOREF
  2

  9
$PUCSORTHOVIEW
 70
     0
  9
$PUCSORGTOP
 10
0.0
 20
0.0
 30
0.0
  9
$PUCSORGBOTTOM
 10
0.0
 20
0.0
 30
0.0
  9
$PUCSORGLEFT
 10
0.0
 20
0.0
 30
0.0
  9
$PUCSORGRIGHT
 10
0.0
 20
0.0
 30
0.0
  9
$PUCSORGFRONT
 10
0.0
 20
0.0
 30
0.0
  9
$PUCSORGBACK
 10
0.0
 20
0.0
 30
0.0
  9
$USERI1
 70
     0
  9
$USERI2
 70
     0
  9
$USERI3
 70
     0
  9
$USERI4
 70
     0
  9
$USERI5
 70
     0
  9
$USERR1
 40
0.0
  9
$USERR2
 40
0.0
  9
$USERR3
 40
0.0
  9
$USERR4
 40
0.0
  9
$USERR5
 40
0.0
  9
$WORLDVIEW
 70
     1
  9
$SHADEDGE
 70
     3
  9
$SHADEDIF
 70
    70
  9
$TILEMODE
 70
     1
  9
$MAXACTVP
 70
    64
  9
$PINSBASE
 10
0.0
 20
0.0
 30
0.0
  9
$PLIMCHECK
 70
     0
  9
$PEXTMIN
 10
1.000000000000000E+20
 20
1.000000000000000E+20
 30
1.000000000000000E+20
  9
$PEXTMAX
 10
-1.000000000000000E+20
 20
-1.000000000000000E+20
 30
-1.000000000000000E+20
  9
$PLIMMIN
 10
0.0
 20
0.0
  9
$PLIMMAX
 10
12.0
 20
9.0
  9
$UNITMODE
 70
     0
  9
$VISRETAIN
 70
     1
  9
$PLINEGEN
 70
     0
  9
$PSLTSCALE
 70
     1
  9
$TREEDEPTH
 70
  3020
  9
$CMLSTYLE
  2
Standard
  9
$CMLJUST
 70
     0
  9
$CMLSCALE
 40
1.0
  9
$PROXYGRAPHICS
 70
     1
  9
$MEASUREMENT
 70
     0
  9
$CELWEIGHT
370
    -1
  9
$ENDCAPS
280
     0
  9
$JOINSTYLE
280
     0
  9
$LWDISPLAY
290
     0
  9
$INSUNITS
 70
     0
  9
$HYPERLINKBASE
  1

  9
$STYLESHEET
  1

  9
$XEDIT
290
     1
  9
$CEPSNTYPE
380
     0
  9
$PSTYLEMODE
290
     1
  9
$FINGERPRINTGUID
  2
{63834702-0B2C-46B4-A2BC-F8D263A71F0D}
  9
$VERSIONGUID
  2
{34CB5F93-592F-4DF9-9020-127446D9CA7D}
  9
$EXTNAMES
290
     1
  9
$PSVPSCALE
 40
0.0
  9
$OLESTARTUP
290
     0
  0
ENDSEC
  0
SECTION
  2
CLASSES
  0
CLASS
  1
ACDBDICTIONARYWDFLT
  2
AcDbDictionaryWithDefault
  3
ObjectDBX Classes
 90
        0
280
     0
281
     0
  0
CLASS
  1
MATERIAL
  2
AcDbMaterial
  3
ObjectDBX Classes
 90
     1153
280
     0
281
     0
  0
CLASS
  1
VISUALSTYLE
  2
AcDbVisualStyle
  3
ObjectDBX Classes
 90
     4095
280
     0
281
     0
  0
CLASS
  1
SCALE
  2
AcDbScale
  3
ObjectDBX Classes
 90
     1153
280
     0
281
     0
  0
CLASS
  1
TABLESTYLE
  2
AcDbTableStyle
  3
ObjectDBX Classes
 90
     4095
280
     0
281
     0
  0
CLASS
  1
MLEADERSTYLE
  2
AcDbMLeaderStyle
  3
ACDB_MLEADERSTYLE_CLASS
 90
     4095
280
     0
281
     0
  0
CLASS
  1
DICTIONARYVAR
  2
AcDbDictionaryVar
  3
ObjectDBX Classes
 90
        0
280
     0
281
     0
  0
CLASS
  1
CELLSTYLEMAP
  2
AcDbCellStyleMap
  3
ObjectDBX Classes
 90
     1152
280
     0
281
     0
  0
CLASS
  1
ACDBPLACEHOLDER
  2
AcDbPlaceHolder
  3
ObjectDBX Classes
 90
        0
280
     0
281
     0
  0
CLASS
  1
LAYOUT
  2
AcDbLayout
  3
ObjectDBX Classes
 90
        0
280
     0
281
     0
  0
ENDSEC
  0
SECTION
  2
TABLES
  0
TABLE
  2
VPORT
  5
8
330
0
100
AcDbSymbolTable
 70
     1
  0
VPORT
  5
359
330
8
100
AcDbSymbolTableRecord
100
AcDbViewportTableRecord
  2
*Active
 70
     0
 10
0.0
 20
0.0
 11
1.0
 21
1.0
 12
99.20150247705992
 22
148.4785490894863
 13
0.0
 23
0.0
 14
1.0
 24
1.0
 15
0.0
 25
0.0
 16
0.0
 26
0.0
 36
1.0
 17
0.0
 27
0.0
 37
0.0
 40
46.25309994956896
 41
1.986951364175563
 42
50.0
 43
0.0
 44
0.0
 50
0.0
 51
0.0
 71
     0
 72
  1000
 73
     1
 74
     3
 75
     0
 76
     0
 77
     0
 78
     0
281
     0
 65
     1
110
0.0
120
0.0
130
0.0
111
1.0
121
0.0
131
0.0
112
0.0
122
1.0
132
0.0
 79
     0
146
0.0
  0
ENDTAB
  0
TABLE
  2
LTYPE
  5
5
330
0
100
AcDbSymbolTable
 70
     2
  0
LTYPE
  5
62
330
5
100
AcDbSymbolTableRecord
100
AcDbLinetypeTableRecord
  2
ByBlock
 70
     0
  3

 72
    65
 73
     0
 40
0.0
  0
LTYPE
  5
63
330
5
100
AcDbSymbolTableRecord
100
AcDbLinetypeTableRecord
  2
ByLayer
 70
     0
  3

 72
    65
 73
     0
 40
0.0
  0
LTYPE
  5
64
330
5
100
AcDbSymbolTableRecord
100
AcDbLinetypeTableRecord
  2
Continuous
 70
     0
  3
Solid line
 72
    65
 73
     0
 40
0.0
  0
ENDTAB
  0
TABLE
  2
LAYER
  5
2
330
0
100
AcDbSymbolTable
 70
     2
  0
LAYER
  5
5C
102
{ACAD_XDICTIONARY
360
360
102
}
330
2
100
AcDbSymbolTableRecord
100
AcDbLayerTableRecord
  2
0
 70
     0
 62
     7
  6
Continuous
370
    -3
390
F
  0
LAYER
  5
78
102
{ACAD_XDICTIONARY
360
362
102
}
330
2
100
AcDbSymbolTableRecord
100
AcDbLayerTableRecord
  2
Calque 1
 70
     0
 62
     7
  6
Continuous
370
    -3
390
F
  0
ENDTAB
  0
TABLE
  2
STYLE
  5
3
330
0
100
AcDbSymbolTable
 70
     2
  0
STYLE
  5
5D
330
3
100
AcDbSymbolTableRecord
100
AcDbTextStyleTableRecord
  2
Standard
 70
     0
 40
0.0
 41
1.0
 50
0.0
 71
     0
 42
0.2
  3
txt
  4

  0
STYLE
  5
61
330
3
100
AcDbSymbolTableRecord
100
AcDbTextStyleTableRecord
  2
Annotative
 70
     0
 40
0.0
 41
1.0
 50
0.0
 71
     0
 42
0.2
  3
txt
  4

1001
AcadAnnotative
1000
AnnotativeData
1002
{
1070
     1
1070
     1
1002
}
  0
ENDTAB
  0
TABLE
  2
VIEW
  5
6
330
0
100
AcDbSymbolTable
 70
     0
  0
ENDTAB
  0
TABLE
  2
UCS
  5
7
330
0
100
AcDbSymbolTable
 70
     0
  0
ENDTAB
  0
TABLE
  2
APPID
  5
9
330
0
100
AcDbSymbolTable
 70
     3
  0
APPID
  5
5E
330
9
100
AcDbSymbolTableRecord
100
AcDbRegAppTableRecord
  2
ACAD
 70
     0
  0
APPID
  5
65
330
9
100
AcDbSymbolTableRecord
100
AcDbRegAppTableRecord
  2
AcadAnnotative
 70
     0
  0
APPID
  5
6F
330
9
100
AcDbSymbolTableRecord
100
AcDbRegAppTableRecord
  2
ACAD_MLEADERVER
 70
     0
  0
ENDTAB
  0
TABLE
  2
DIMSTYLE
  5
A
330
0
100
AcDbSymbolTable
 70
     3
100
AcDbDimStyleTable
 71
     0
  0
DIMSTYLE
105
5F
330
A
100
AcDbSymbolTableRecord
100
AcDbDimStyleTableRecord
  2
Standard
 70
     0
340
5D
  0
DIMSTYLE
105
60
330
A
100
AcDbSymbolTableRecord
100
AcDbDimStyleTableRecord
  2
Annotative
 70
     0
340
5D
1001
AcadAnnotative
1000
AnnotativeData
1002
{
1070
     1
1070
     1
1002
}
  0
ENDTAB
  0
TABLE
  2
BLOCK_RECORD
  5
1
330
0
100
AcDbSymbolTable
 70
     1
  0
BLOCK_RECORD
  5
74
330
1
100
AcDbSymbolTableRecord
100
AcDbBlockTableRecord
  2
*Model_Space
340
77
  0
BLOCK_RECORD
  5
70
330
1
100
AcDbSymbolTableRecord
100
AcDbBlockTableRecord
  2
*Paper_Space
340
73
  0
ENDTAB
  0
ENDSEC
  0
SECTION
  2
BLOCKS
  0
BLOCK
  5
75
330
74
100
AcDbEntity
  8
0
100
AcDbBlockBegin
  2
*Model_Space
 70
     0
 10
0.0
 20
0.0
 30
0.0
  3
*Model_Space
  1

  0
ENDBLK
  5
76
330
74
100
AcDbEntity
  8
0
100
AcDbBlockEnd
  0
BLOCK
  5
71
330
70
100
AcDbEntity
 67
     1
  8
0
100
AcDbBlockBegin
  2
*Paper_Space
 70
     0
 10
0.0
 20
0.0
 30
0.0
  3
*Paper_Space
  1

  0
ENDBLK
  5
72
330
70
100
AcDbEntity
 67
     1
  8
0
100
AcDbBlockEnd
  0
ENDSEC
  0
SECTION
  2
ENTITIES
  0
LINE
  5
79
330
74
100
AcDbEntity
  8
Calque 1
100
AcDbLine
 10
57.46591099999999
 20
131.130761
 30
0.0
 11
56.367896
 21
131.462925
 31
0.0
  0
LINE
  5
7A
330
74
100
AcDbEntity
  8
Calque 1
100
AcDbLine
 10
56.367896
 20
131.462925
 30
0.0
 11
55.362662
 21
132.001385
 31
0.0
  0
LINE
  5
7B
330
74
100
AcDbEntity
  8
Calque 1
100
AcDbLine
 10
55.362662
 20
132.001385
 30
0.0
 11
54.464226
 21
132.736761
 31
0.0
  0
LINE
  5
7C
330
74
100
AcDbEntity
  8
Calque 1
100
AcDbLine
 10
54.464226
 20
132.736761
 30
0.0
 11
53.68660300000001
 21
133.659675
 31
0.0
  0
LINE
  5
7D
330
74
100
AcDbEntity
  8
Calque 1
100
AcDbLine
 10
53.68660300000001
 20
133.659675
 30
0.0
 11
52.83603000000001
 21
134.869576
 31
0.0
  0
LINE
  5
7E
330
74
100
AcDbEntity
  8
Calque 1
100
AcDbLine
 10
52.83603000000001
 20
134.869576
 30
0.0
 11
52.74981999999999
 21
147.757251
 31
0.0
  0
LINE
  5
7F
330
74
100
AcDbEntity
  8
Calque 1
100
AcDbLine
 10
52.74981999999999
 20
147.757251
 30
0.0
 11
52.760739
 21
157.707813
 31
0.0
  0
LINE
  5
80
330
74
100
AcDbEntity
  8
Calque 1
100
AcDbLine
 10
52.760739
 20
157.707813
 30
0.0
 11
52.969005
 21
161.69054
 31
0.0
  0
LINE
  5
81
330
74
100
AcDbEntity
  8
Calque 1
100
AcDbLine
 10
52.969005
 20
161.69054
 30
0.0
 11
53.393623
 21
162.692932
 31
0.0
  0
LINE
  5
82
330
74
100
AcDbEntity
  8
Calque 1
100
AcDbLine
 10
53.393623
 20
162.692932
 30
0.0
 11
54.045961
 21
163.620549
 31
0.0
  0
LINE
  5
83
330
74
100
AcDbEntity
  8
Calque 1
100
AcDbLine
 10
54.045961
 20
163.620549
 30
0.0
 11
54.89392500000001
 21
164.436102
 31
0.0
  0
LINE
  5
84
330
74
100
AcDbEntity
  8
Calque 1
100
AcDbLine
 10
54.89392500000001
 20
164.436102
 30
0.0
 11
55.90541999999999
 21
165.102301
 31
0.0
  0
LINE
  5
85
330
74
100
AcDbEntity
  8
Calque 1
100
AcDbLine
 10
55.90541999999999
 20
165.102301
 30
0.0
 11
57.069363
 21
165.724926
 31
0.0
  0
LINE
  5
86
330
74
100
AcDbEntity
  8
Calque 1
100
AcDbLine
 10
57.069363
 20
165.724926
 30
0.0
 11
97.56825200000001
 21
165.724926
 31
0.0
  0
LINE
  5
87
330
74
100
AcDbEntity
  8
Calque 1
100
AcDbLine
 10
97.56825200000001
 20
165.724926
 30
0.0
 11
138.067141
 21
165.724926
 31
0.0
  0
LINE
  5
88
330
74
100
AcDbEntity
  8
Calque 1
100
AcDbLine
 10
138.067141
 20
165.724926
 30
0.0
 11
139.19603
 21
165.117392
 31
0.0
  0
LINE
  5
89
330
74
100
AcDbEntity
  8
Calque 1
100
AcDbLine
 10
139.19603
 20
165.117392
 30
0.0
 11
140.154075
 21
164.517305
 31
0.0
  0
LINE
  5
8A
330
74
100
AcDbEntity
  8
Calque 1
100
AcDbLine
 10
140.154075
 20
164.517305
 30
0.0
 11
140.922163
 21
163.840286
 31
0.0
  0
LINE
  5
8B
330
74
100
AcDbEntity
  8
Calque 1
100
AcDbLine
 10
140.922163
 20
163.840286
 30
0.0
 11
141.529372
 21
163.055423
 31
0.0
  0
LINE
  5
8C
330
74
100
AcDbEntity
  8
Calque 1
100
AcDbLine
 10
141.529372
 20
163.055423
 30
0.0
 11
142.004782
 21
162.131805
 31
0.0
  0
LINE
  5
8D
330
74
100
AcDbEntity
  8
Calque 1
100
AcDbLine
 10
142.004782
 20
162.131805
 30
0.0
 11
142.230109
 21
161.129811
 31
0.0
  0
LINE
  5
8E
330
74
100
AcDbEntity
  8
Calque 1
100
AcDbLine
 10
142.230109
 20
161.129811
 30
0.0
 11
142.362808
 21
158.98119
 31
0.0
  0
LINE
  5
8F
330
74
100
AcDbEntity
  8
Calque 1
100
AcDbLine
 10
142.362808
 20
158.98119
 30
0.0
 11
142.441586
 21
148.368259
 31
0.0
  0
LINE
  5
90
330
74
100
AcDbEntity
  8
Calque 1
100
AcDbLine
 10
142.441586
 20
148.368259
 30
0.0
 11
142.362808
 21
137.755329
 31
0.0
  0
LINE
  5
91
330
74
100
AcDbEntity
  8
Calque 1
100
AcDbLine
 10
142.362808
 20
137.755329
 30
0.0
 11
142.230109
 21
135.606708
 31
0.0
  0
LINE
  5
92
330
74
100
AcDbEntity
  8
Calque 1
100
AcDbLine
 10
142.230109
 20
135.606708
 30
0.0
 11
142.004782
 21
134.604713
 31
0.0
  0
LINE
  5
93
330
74
100
AcDbEntity
  8
Calque 1
100
AcDbLine
 10
142.004782
 20
134.604713
 30
0.0
 11
141.529372
 21
133.681096
 31
0.0
  0
LINE
  5
94
330
74
100
AcDbEntity
  8
Calque 1
100
AcDbLine
 10
141.529372
 20
133.681096
 30
0.0
 11
140.922163
 21
132.896233
 31
0.0
  0
LINE
  5
95
330
74
100
AcDbEntity
  8
Calque 1
100
AcDbLine
 10
140.922163
 20
132.896233
 30
0.0
 11
140.154075
 21
132.219213
 31
0.0
  0
LINE
  5
96
330
74
100
AcDbEntity
  8
Calque 1
100
AcDbLine
 10
140.154075
 20
132.219213
 30
0.0
 11
139.19603
 21
131.619127
 31
0.0
  0
LINE
  5
97
330
74
100
AcDbEntity
  8
Calque 1
100
AcDbLine
 10
139.19603
 20
131.619127
 30
0.0
 11
138.067141
 21
131.011593
 31
0.0
  0
LINE
  5
98
330
74
100
AcDbEntity
  8
Calque 1
100
AcDbLine
 10
138.067141
 20
131.011593
 30
0.0
 11
98.273808
 21
130.970637
 31
0.0
  0
LINE
  5
99
330
74
100
AcDbEntity
  8
Calque 1
100
AcDbLine
 10
98.273808
 20
130.970637
 30
0.0
 11
69.87173799999999
 21
131.000778
 31
0.0
  0
LINE
  5
9A
330
74
100
AcDbEntity
  8
Calque 1
100
AcDbLine
 10
69.87173799999999
 20
131.000778
 30
0.0
 11
57.46591099999999
 21
131.130761
 31
0.0
  0
LINE
  5
9B
330
74
100
AcDbEntity
  8
Calque 1
100
AcDbLine
 10
57.46591099999999
 20
131.130761
 30
0.0
 11
57.46591099999999
 21
131.130761
 31
0.0
  0
LINE
  5
9C
330
74
100
AcDbEntity
  8
Calque 1
100
AcDbLine
 10
138.556577
 20
134.798442
 30
0.0
 11
139.478252
 21
135.621958
 31
0.0
  0
LINE
  5
9D
330
74
100
AcDbEntity
  8
Calque 1
100
AcDbLine
 10
139.478252
 20
135.621958
 30
0.0
 11
139.478252
 21
148.368259
 31
0.0
  0
LINE
  5
9E
330
74
100
AcDbEntity
  8
Calque 1
100
AcDbLine
 10
139.478252
 20
148.368259
 30
0.0
 11
139.478252
 21
161.114561
 31
0.0
  0
LINE
  5
9F
330
74
100
AcDbEntity
  8
Calque 1
100
AcDbLine
 10
139.478252
 20
161.114561
 30
0.0
 11
138.556577
 21
161.938077
 31
0.0
  0
LINE
  5
A0
330
74
100
AcDbEntity
  8
Calque 1
100
AcDbLine
 10
138.556577
 20
161.938077
 30
0.0
 11
137.634904
 21
162.761593
 31
0.0
  0
LINE
  5
A1
330
74
100
AcDbEntity
  8
Calque 1
100
AcDbLine
 10
137.634904
 20
162.761593
 30
0.0
 11
97.56825200000001
 21
162.761593
 31
0.0
  0
LINE
  5
A2
330
74
100
AcDbEntity
  8
Calque 1
100
AcDbLine
 10
97.56825200000001
 20
162.761593
 30
0.0
 11
57.501601
 21
162.761593
 31
0.0
  0
LINE
  5
A3
330
74
100
AcDbEntity
  8
Calque 1
100
AcDbLine
 10
57.501601
 20
162.761593
 30
0.0
 11
56.579928
 21
161.938077
 31
0.0
  0
LINE
  5
A4
330
74
100
AcDbEntity
  8
Calque 1
100
AcDbLine
 10
56.579928
 20
161.938077
 30
0.0
 11
55.658252
 21
161.114561
 31
0.0
  0
LINE
  5
A5
330
74
100
AcDbEntity
  8
Calque 1
100
AcDbLine
 10
55.658252
 20
161.114561
 30
0.0
 11
55.658252
 21
148.368259
 31
0.0
  0
LINE
  5
A6
330
74
100
AcDbEntity
  8
Calque 1
100
AcDbLine
 10
55.658252
 20
148.368259
 30
0.0
 11
55.658252
 21
135.621958
 31
0.0
  0
LINE
  5
A7
330
74
100
AcDbEntity
  8
Calque 1
100
AcDbLine
 10
55.658252
 20
135.621958
 30
0.0
 11
56.579928
 21
134.798442
 31
0.0
  0
LINE
  5
A8
330
74
100
AcDbEntity
  8
Calque 1
100
AcDbLine
 10
56.579928
 20
134.798442
 30
0.0
 11
57.501601
 21
133.974926
 31
0.0
  0
LINE
  5
A9
330
74
100
AcDbEntity
  8
Calque 1
100
AcDbLine
 10
57.501601
 20
133.974926
 30
0.0
 11
97.56825200000001
 21
133.974926
 31
0.0
  0
LINE
  5
AA
330
74
100
AcDbEntity
  8
Calque 1
100
AcDbLine
 10
97.56825200000001
 20
133.974926
 30
0.0
 11
137.634904
 21
133.974926
 31
0.0
  0
LINE
  5
AB
330
74
100
AcDbEntity
  8
Calque 1
100
AcDbLine
 10
137.634904
 20
133.974926
 30
0.0
 11
138.556577
 21
134.798442
 31
0.0
  0
LINE
  5
AC
330
74
100
AcDbEntity
  8
Calque 1
100
AcDbLine
 10
138.556577
 20
134.798442
 30
0.0
 11
138.556577
 21
134.798442
 31
0.0
  0
LINE
  5
AD
330
74
100
AcDbEntity
  8
Calque 1
100
AcDbLine
 10
63.531276
 20
139.628625
 30
0.0
 11
62.32655600000001
 21
140.461022
 31
0.0
  0
LINE
  5
AE
330
74
100
AcDbEntity
  8
Calque 1
100
AcDbLine
 10
62.32655600000001
 20
140.461022
 30
0.0
 11
61.354262
 21
141.605868
 31
0.0
  0
LINE
  5
AF
330
74
100
AcDbEntity
  8
Calque 1
100
AcDbLine
 10
61.354262
 20
141.605868
 30
0.0
 11
60.679708
 21
142.963899
 31
0.0
  0
LINE
  5
B0
330
74
100
AcDbEntity
  8
Calque 1
100
AcDbLine
 10
60.679708
 20
142.963899
 30
0.0
 11
60.368211
 21
144.435845
 31
0.0
  0
LINE
  5
B1
330
74
100
AcDbEntity
  8
Calque 1
100
AcDbLine
 10
60.368211
 20
144.435845
 30
0.0
 11
60.327573
 21
145.351
 31
0.0
  0
LINE
  5
B2
330
74
100
AcDbEntity
  8
Calque 1
100
AcDbLine
 10
60.327573
 20
145.351
 30
0.0
 11
60.416012
 21
145.967655
 31
0.0
  0
LINE
  5
B3
330
74
100
AcDbEntity
  8
Calque 1
100
AcDbLine
 10
60.416012
 20
145.967655
 30
0.0
 11
60.702775
 21
146.497379
 31
0.0
  0
LINE
  5
B4
330
74
100
AcDbEntity
  8
Calque 1
100
AcDbLine
 10
60.702775
 20
146.497379
 30
0.0
 11
61.25710699999999
 21
147.151746
 31
0.0
  0
LINE
  5
B5
330
74
100
AcDbEntity
  8
Calque 1
100
AcDbLine
 10
61.25710699999999
 20
147.151746
 30
0.0
 11
62.26251
 21
148.096547
 31
0.0
  0
LINE
  5
B6
330
74
100
AcDbEntity
  8
Calque 1
100
AcDbLine
 10
62.26251
 20
148.096547
 30
0.0
 11
63.268629
 21
148.806147
 31
0.0
  0
LINE
  5
B7
330
74
100
AcDbEntity
  8
Calque 1
100
AcDbLine
 10
63.268629
 20
148.806147
 30
0.0
 11
63.99211999999999
 21
149.321041
 31
0.0
  0
LINE
  5
B8
330
74
100
AcDbEntity
  8
Calque 1
100
AcDbLine
 10
63.99211999999999
 20
149.321041
 30
0.0
 11
64.086526
 21
149.775479
 31
0.0
  0
LINE
  5
B9
330
74
100
AcDbEntity
  8
Calque 1
100
AcDbLine
 10
64.086526
 20
149.775479
 30
0.0
 11
63.77006399999999
 21
151.10923
 31
0.0
  0
LINE
  5
BA
330
74
100
AcDbEntity
  8
Calque 1
100
AcDbLine
 10
63.77006399999999
 20
151.10923
 30
0.0
 11
63.85915
 21
152.143392
 31
0.0
  0
LINE
  5
BB
330
74
100
AcDbEntity
  8
Calque 1
100
AcDbLine
 10
63.85915
 20
152.143392
 30
0.0
 11
64.376855
 21
153.162775
 31
0.0
  0
LINE
  5
BC
330
74
100
AcDbEntity
  8
Calque 1
100
AcDbLine
 10
64.376855
 20
153.162775
 30
0.0
 11
65.26375
 21
154.130642
 31
0.0
  0
LINE
  5
BD
330
74
100
AcDbEntity
  8
Calque 1
100
AcDbLine
 10
65.26375
 20
154.130642
 30
0.0
 11
66.46040500000001
 21
155.010254
 31
0.0
  0
LINE
  5
BE
330
74
100
AcDbEntity
  8
Calque 1
100
AcDbLine
 10
66.46040500000001
 20
155.010254
 30
0.0
 11
67.907391
 21
155.764874
 31
0.0
  0
LINE
  5
BF
330
74
100
AcDbEntity
  8
Calque 1
100
AcDbLine
 10
67.907391
 20
155.764874
 30
0.0
 11
69.545276
 21
156.3577629999999
 31
0.0
  0
LINE
  5
C0
330
74
100
AcDbEntity
  8
Calque 1
100
AcDbLine
 10
69.545276
 20
156.3577629999999
 30
0.0
 11
71.314633
 21
156.752183
 31
0.0
  0
LINE
  5
C1
330
74
100
AcDbEntity
  8
Calque 1
100
AcDbLine
 10
71.314633
 20
156.752183
 30
0.0
 11
73.15603
 21
156.911397
 31
0.0
  0
LINE
  5
C2
330
74
100
AcDbEntity
  8
Calque 1
100
AcDbLine
 10
73.15603
 20
156.911397
 30
0.0
 11
74.770517
 21
156.822703
 31
0.0
  0
LINE
  5
C3
330
74
100
AcDbEntity
  8
Calque 1
100
AcDbLine
 10
74.770517
 20
156.822703
 30
0.0
 11
75.984653
 21
156.481758
 31
0.0
  0
LINE
  5
C4
330
74
100
AcDbEntity
  8
Calque 1
100
AcDbLine
 10
75.984653
 20
156.481758
 30
0.0
 11
76.85350200000001
 21
155.863197
 31
0.0
  0
LINE
  5
C5
330
74
100
AcDbEntity
  8
Calque 1
100
AcDbLine
 10
76.85350200000001
 20
155.863197
 30
0.0
 11
77.43213100000001
 21
154.941655
 31
0.0
  0
LINE
  5
C6
330
74
100
AcDbEntity
  8
Calque 1
100
AcDbLine
 10
77.43213100000001
 20
154.941655
 30
0.0
 11
77.68824399999999
 21
154.040113
 31
0.0
  0
LINE
  5
C7
330
74
100
AcDbEntity
  8
Calque 1
100
AcDbLine
 10
77.68824399999999
 20
154.040113
 30
0.0
 11
77.642027
 21
153.221607
 31
0.0
  0
LINE
  5
C8
330
74
100
AcDbEntity
  8
Calque 1
100
AcDbLine
 10
77.642027
 20
153.221607
 30
0.0
 11
77.278463
 21
152.427012
 31
0.0
  0
LINE
  5
C9
330
74
100
AcDbEntity
  8
Calque 1
100
AcDbLine
 10
77.278463
 20
152.427012
 30
0.0
 11
76.582532
 21
151.597206
 31
0.0
  0
LINE
  5
CA
330
74
100
AcDbEntity
  8
Calque 1
100
AcDbLine
 10
76.582532
 20
151.597206
 30
0.0
 11
75.874284
 21
150.999291
 31
0.0
  0
LINE
  5
CB
330
74
100
AcDbEntity
  8
Calque 1
100
AcDbLine
 10
75.874284
 20
150.999291
 30
0.0
 11
75.128422
 21
150.565372
 31
0.0
  0
LINE
  5
CC
330
74
100
AcDbEntity
  8
Calque 1
100
AcDbLine
 10
75.128422
 20
150.565372
 30
0.0
 11
74.37437299999999
 21
150.296289
 31
0.0
  0
LINE
  5
CD
330
74
100
AcDbEntity
  8
Calque 1
100
AcDbLine
 10
74.37437299999999
 20
150.296289
 30
0.0
 11
73.64156099999999
 21
150.192878
 31
0.0
  0
LINE
  5
CE
330
74
100
AcDbEntity
  8
Calque 1
100
AcDbLine
 10
73.64156099999999
 20
150.192878
 30
0.0
 11
72.959411
 21
150.255979
 31
0.0
  0
LINE
  5
CF
330
74
100
AcDbEntity
  8
Calque 1
100
AcDbLine
 10
72.959411
 20
150.255979
 30
0.0
 11
72.357348
 21
150.486429
 31
0.0
  0
LINE
  5
D0
330
74
100
AcDbEntity
  8
Calque 1
100
AcDbLine
 10
72.357348
 20
150.486429
 30
0.0
 11
71.86479699999999
 21
150.885067
 31
0.0
  0
LINE
  5
D1
330
74
100
AcDbEntity
  8
Calque 1
100
AcDbLine
 10
71.86479699999999
 20
150.885067
 30
0.0
 11
71.511183
 21
151.452731
 31
0.0
  0
LINE
  5
D2
330
74
100
AcDbEntity
  8
Calque 1
100
AcDbLine
 10
71.511183
 20
151.452731
 30
0.0
 11
71.161777
 21
152.283723
 31
0.0
  0
LINE
  5
D3
330
74
100
AcDbEntity
  8
Calque 1
100
AcDbLine
 10
71.161777
 20
152.283723
 30
0.0
 11
69.971683
 21
151.750902
 31
0.0
  0
LINE
  5
D4
330
74
100
AcDbEntity
  8
Calque 1
100
AcDbLine
 10
69.971683
 20
151.750902
 30
0.0
 11
69.11964799999999
 21
151.240348
 31
0.0
  0
LINE
  5
D5
330
74
100
AcDbEntity
  8
Calque 1
100
AcDbLine
 10
69.11964799999999
 20
151.240348
 30
0.0
 11
68.781586
 21
150.763654
 31
0.0
  0
LINE
  5
D6
330
74
100
AcDbEntity
  8
Calque 1
100
AcDbLine
 10
68.781586
 20
150.763654
 30
0.0
 11
68.83106600000001
 21
150.54051
 31
0.0
  0
LINE
  5
D7
330
74
100
AcDbEntity
  8
Calque 1
100
AcDbLine
 10
68.83106600000001
 20
150.54051
 30
0.0
 11
69.01869999999999
 21
150.430168
 31
0.0
  0
LINE
  5
D8
330
74
100
AcDbEntity
  8
Calque 1
100
AcDbLine
 10
69.01869999999999
 20
150.430168
 30
0.0
 11
70.043582
 21
150.498478
 31
0.0
  0
LINE
  5
D9
330
74
100
AcDbEntity
  8
Calque 1
100
AcDbLine
 10
70.043582
 20
150.498478
 30
0.0
 11
71.16623299999999
 21
150.546
 31
0.0
  0
LINE
  5
DA
330
74
100
AcDbEntity
  8
Calque 1
100
AcDbLine
 10
71.16623299999999
 20
150.546
 30
0.0
 11
71.42723499999999
 21
150.345356
 31
0.0
  0
LINE
  5
DB
330
74
100
AcDbEntity
  8
Calque 1
100
AcDbLine
 10
71.42723499999999
 20
150.345356
 30
0.0
 11
71.64628499999999
 21
149.939955
 31
0.0
  0
LINE
  5
DC
330
74
100
AcDbEntity
  8
Calque 1
100
AcDbLine
 10
71.64628499999999
 20
149.939955
 30
0.0
 11
71.898026
 21
148.961554
 31
0.0
  0
LINE
  5
DD
330
74
100
AcDbEntity
  8
Calque 1
100
AcDbLine
 10
71.898026
 20
148.961554
 30
0.0
 11
71.80935500000001
 21
148.542415
 31
0.0
  0
LINE
  5
DE
330
74
100
AcDbEntity
  8
Calque 1
100
AcDbLine
 10
71.80935500000001
 20
148.542415
 30
0.0
 11
71.55603599999999
 21
148.145092
 31
0.0
  0
LINE
  5
DF
330
74
100
AcDbEntity
  8
Calque 1
100
AcDbLine
 10
71.55603599999999
 20
148.145092
 30
0.0
 11
70.49058999999999
 21
147.341219
 31
0.0
  0
LINE
  5
E0
330
74
100
AcDbEntity
  8
Calque 1
100
AcDbLine
 10
70.49058999999999
 20
147.341219
 30
0.0
 11
68.571962
 21
146.400586
 31
0.0
  0
LINE
  5
E1
330
74
100
AcDbEntity
  8
Calque 1
100
AcDbLine
 10
68.571962
 20
146.400586
 30
0.0
 11
65.56145699999999
 21
144.910221
 31
0.0
  0
LINE
  5
E2
330
74
100
AcDbEntity
  8
Calque 1
100
AcDbLine
 10
65.56145699999999
 20
144.910221
 30
0.0
 11
65.201335
 21
144.517523
 31
0.0
  0
LINE
  5
E3
330
74
100
AcDbEntity
  8
Calque 1
100
AcDbLine
 10
65.201335
 20
144.517523
 30
0.0
 11
65.465429
 21
144.264077
 31
0.0
  0
LINE
  5
E4
330
74
100
AcDbEntity
  8
Calque 1
100
AcDbLine
 10
65.465429
 20
144.264077
 30
0.0
 11
65.91513499999999
 21
144.25371
 31
0.0
  0
LINE
  5
E5
330
74
100
AcDbEntity
  8
Calque 1
100
AcDbLine
 10
65.91513499999999
 20
144.25371
 30
0.0
 11
66.608694
 21
144.43061
 31
0.0
  0
LINE
  5
E6
330
74
100
AcDbEntity
  8
Calque 1
100
AcDbLine
 10
66.608694
 20
144.43061
 30
0.0
 11
68.429921
 21
145.198975
 31
0.0
  0
LINE
  5
E7
330
74
100
AcDbEntity
  8
Calque 1
100
AcDbLine
 10
68.429921
 20
145.198975
 30
0.0
 11
70.334213
 21
146.274703
 31
0.0
  0
LINE
  5
E8
330
74
100
AcDbEntity
  8
Calque 1
100
AcDbLine
 10
70.334213
 20
146.274703
 30
0.0
 11
71.726673
 21
147.363328
 31
0.0
  0
LINE
  5
E9
330
74
100
AcDbEntity
  8
Calque 1
100
AcDbLine
 10
71.726673
 20
147.363328
 30
0.0
 11
72.965806
 21
148.494772
 31
0.0
  0
LINE
  5
EA
330
74
100
AcDbEntity
  8
Calque 1
100
AcDbLine
 10
72.965806
 20
148.494772
 30
0.0
 11
74.20465599999999
 21
149.255037
 31
0.0
  0
LINE
  5
EB
330
74
100
AcDbEntity
  8
Calque 1
100
AcDbLine
 10
74.20465599999999
 20
149.255037
 30
0.0
 11
75.44455400000001
 21
149.64474
 31
0.0
  0
LINE
  5
EC
330
74
100
AcDbEntity
  8
Calque 1
100
AcDbLine
 10
75.44455400000001
 20
149.64474
 30
0.0
 11
76.686828
 21
149.664498
 31
0.0
  0
LINE
  5
ED
330
74
100
AcDbEntity
  8
Calque 1
100
AcDbLine
 10
76.686828
 20
149.664498
 30
0.0
 11
78.00568
 21
149.489545
 31
0.0
  0
LINE
  5
EE
330
74
100
AcDbEntity
  8
Calque 1
100
AcDbLine
 10
78.00568
 20
149.489545
 30
0.0
 11
79.389899
 21
151.257236
 31
0.0
  0
LINE
  5
EF
330
74
100
AcDbEntity
  8
Calque 1
100
AcDbLine
 10
79.389899
 20
151.257236
 30
0.0
 11
82.015667
 21
154.365507
 31
0.0
  0
LINE
  5
F0
330
74
100
AcDbEntity
  8
Calque 1
100
AcDbLine
 10
82.015667
 20
154.365507
 30
0.0
 11
82.91932499999999
 21
155.170337
 31
0.0
  0
LINE
  5
F1
330
74
100
AcDbEntity
  8
Calque 1
100
AcDbLine
 10
82.91932499999999
 20
155.170337
 30
0.0
 11
83.695526
 21
155.623021
 31
0.0
  0
LINE
  5
F2
330
74
100
AcDbEntity
  8
Calque 1
100
AcDbLine
 10
83.695526
 20
155.623021
 30
0.0
 11
84.594006
 21
155.874124
 31
0.0
  0
LINE
  5
F3
330
74
100
AcDbEntity
  8
Calque 1
100
AcDbLine
 10
84.594006
 20
155.874124
 30
0.0
 11
85.318304
 21
155.57337
 31
0.0
  0
LINE
  5
F4
330
74
100
AcDbEntity
  8
Calque 1
100
AcDbLine
 10
85.318304
 20
155.57337
 30
0.0
 11
85.83677900000001
 21
154.99386
 31
0.0
  0
LINE
  5
F5
330
74
100
AcDbEntity
  8
Calque 1
100
AcDbLine
 10
85.83677900000001
 20
154.99386
 30
0.0
 11
85.98107500000001
 21
154.192175
 31
0.0
  0
LINE
  5
F6
330
74
100
AcDbEntity
  8
Calque 1
100
AcDbLine
 10
85.98107500000001
 20
154.192175
 30
0.0
 11
85.752029
 21
153.186137
 31
0.0
  0
LINE
  5
F7
330
74
100
AcDbEntity
  8
Calque 1
100
AcDbLine
 10
85.752029
 20
153.186137
 30
0.0
 11
85.15047499999999
 21
151.993567
 31
0.0
  0
LINE
  5
F8
330
74
100
AcDbEntity
  8
Calque 1
100
AcDbLine
 10
85.15047499999999
 20
151.993567
 30
0.0
 11
84.303808
 21
150.480687
 31
0.0
  0
LINE
  5
F9
330
74
100
AcDbEntity
  8
Calque 1
100
AcDbLine
 10
84.303808
 20
150.480687
 30
0.0
 11
85.31013900000001
 21
150.343815
 31
0.0
  0
LINE
  5
FA
330
74
100
AcDbEntity
  8
Calque 1
100
AcDbLine
 10
85.31013900000001
 20
150.343815
 30
0.0
 11
86.14737899999999
 21
150.270029
 31
0.0
  0
LINE
  5
FB
330
74
100
AcDbEntity
  8
Calque 1
100
AcDbLine
 10
86.14737899999999
 20
150.270029
 30
0.0
 11
86.87558499999999
 21
150.040384
 31
0.0
  0
LINE
  5
FC
330
74
100
AcDbEntity
  8
Calque 1
100
AcDbLine
 10
86.87558499999999
 20
150.040384
 30
0.0
 11
87.52198599999999
 21
149.642449
 31
0.0
  0
LINE
  5
FD
330
74
100
AcDbEntity
  8
Calque 1
100
AcDbLine
 10
87.52198599999999
 20
149.642449
 30
0.0
 11
88.113808
 21
149.063793
 31
0.0
  0
LINE
  5
FE
330
74
100
AcDbEntity
  8
Calque 1
100
AcDbLine
 10
88.113808
 20
149.063793
 30
0.0
 11
88.678252
 21
148.401389
 31
0.0
  0
LINE
  5
FF
330
74
100
AcDbEntity
  8
Calque 1
100
AcDbLine
 10
88.678252
 20
148.401389
 30
0.0
 11
90.79491899999998
 21
150.950198
 31
0.0
  0
LINE
  5
100
330
74
100
AcDbEntity
  8
Calque 1
100
AcDbLine
 10
90.79491899999998
 20
150.950198
 30
0.0
 11
92.62823799999999
 21
153.07863
 31
0.0
  0
LINE
  5
101
330
74
100
AcDbEntity
  8
Calque 1
100
AcDbLine
 10
92.62823799999999
 20
153.07863
 30
0.0
 11
93.99317099999999
 21
154.457611
 31
0.0
  0
LINE
  5
102
330
74
100
AcDbEntity
  8
Calque 1
100
AcDbLine
 10
93.99317099999999
 20
154.457611
 30
0.0
 11
95.01824599999999
 21
155.201289
 31
0.0
  0
LINE
  5
103
330
74
100
AcDbEntity
  8
Calque 1
100
AcDbLine
 10
95.01824599999999
 20
155.201289
 30
0.0
 11
95.83199
 21
155.423815
 31
0.0
  0
LINE
  5
104
330
74
100
AcDbEntity
  8
Calque 1
100
AcDbLine
 10
95.83199
 20
155.423815
 30
0.0
 11
96.43674200000001
 21
155.299661
 31
0.0
  0
LINE
  5
105
330
74
100
AcDbEntity
  8
Calque 1
100
AcDbLine
 10
96.43674200000001
 20
155.299661
 30
0.0
 11
96.996531
 21
154.98056
 31
0.0
  0
LINE
  5
106
330
74
100
AcDbEntity
  8
Calque 1
100
AcDbLine
 10
96.996531
 20
154.98056
 30
0.0
 11
97.40811500000001
 21
154.546556
 31
0.0
  0
LINE
  5
107
330
74
100
AcDbEntity
  8
Calque 1
100
AcDbLine
 10
97.40811500000001
 20
154.546556
 30
0.0
 11
97.56825200000001
 21
154.077694
 31
0.0
  0
LINE
  5
108
330
74
100
AcDbEntity
  8
Calque 1
100
AcDbLine
 10
97.56825200000001
 20
154.077694
 30
0.0
 11
97.687538
 21
153.690574
 31
0.0
  0
LINE
  5
109
330
74
100
AcDbEntity
  8
Calque 1
100
AcDbLine
 10
97.687538
 20
153.690574
 30
0.0
 11
98.049844
 21
153.664857
 31
0.0
  0
LINE
  5
10A
330
74
100
AcDbEntity
  8
Calque 1
100
AcDbLine
 10
98.049844
 20
153.664857
 30
0.0
 11
98.66184399999999
 21
154.002681
 31
0.0
  0
LINE
  5
10B
330
74
100
AcDbEntity
  8
Calque 1
100
AcDbLine
 10
98.66184399999999
 20
154.002681
 30
0.0
 11
99.53020999999999
 21
154.706183
 31
0.0
  0
LINE
  5
10C
330
74
100
AcDbEntity
  8
Calque 1
100
AcDbLine
 10
99.53020999999999
 20
154.706183
 30
0.0
 11
101.289284
 21
156.109732
 31
0.0
  0
LINE
  5
10D
330
74
100
AcDbEntity
  8
Calque 1
100
AcDbLine
 10
101.289284
 20
156.109732
 30
0.0
 11
102.631148
 21
156.739175
 31
0.0
  0
LINE
  5
10E
330
74
100
AcDbEntity
  8
Calque 1
100
AcDbLine
 10
102.631148
 20
156.739175
 30
0.0
 11
103.20545
 21
156.776402
 31
0.0
  0
LINE
  5
10F
330
74
100
AcDbEntity
  8
Calque 1
100
AcDbLine
 10
103.20545
 20
156.776402
 30
0.0
 11
103.747237
 21
156.635458
 31
0.0
  0
LINE
  5
110
330
74
100
AcDbEntity
  8
Calque 1
100
AcDbLine
 10
103.747237
 20
156.635458
 30
0.0
 11
104.828986
 21
155.839525
 31
0.0
  0
LINE
  5
111
330
74
100
AcDbEntity
  8
Calque 1
100
AcDbLine
 10
104.828986
 20
155.839525
 30
0.0
 11
105.642522
 21
154.808202
 31
0.0
  0
LINE
  5
112
330
74
100
AcDbEntity
  8
Calque 1
100
AcDbLine
 10
105.642522
 20
154.808202
 30
0.0
 11
105.732098
 21
154.309864
 31
0.0
  0
LINE
  5
113
330
74
100
AcDbEntity
  8
Calque 1
100
AcDbLine
 10
105.732098
 20
154.309864
 30
0.0
 11
105.686967
 21
153.624961
 31
0.0
  0
LINE
  5
114
330
74
100
AcDbEntity
  8
Calque 1
100
AcDbLine
 10
105.686967
 20
153.624961
 30
0.0
 11
105.376943
 21
152.450504
 31
0.0
  0
LINE
  5
115
330
74
100
AcDbEntity
  8
Calque 1
100
AcDbLine
 10
105.376943
 20
152.450504
 30
0.0
 11
104.82453
 21
151.338832
 31
0.0
  0
LINE
  5
116
330
74
100
AcDbEntity
  8
Calque 1
100
AcDbLine
 10
104.82453
 20
151.338832
 30
0.0
 11
104.35565
 21
150.41598
 31
0.0
  0
LINE
  5
117
330
74
100
AcDbEntity
  8
Calque 1
100
AcDbLine
 10
104.35565
 20
150.41598
 30
0.0
 11
104.375488
 21
149.751553
 31
0.0
  0
LINE
  5
118
330
74
100
AcDbEntity
  8
Calque 1
100
AcDbLine
 10
104.375488
 20
149.751553
 30
0.0
 11
104.881953
 21
149.349789
 31
0.0
  0
LINE
  5
119
330
74
100
AcDbEntity
  8
Calque 1
100
AcDbLine
 10
104.881953
 20
149.349789
 30
0.0
 11
105.872952
 21
149.214926
 31
0.0
  0
LINE
  5
11A
330
74
100
AcDbEntity
  8
Calque 1
100
AcDbLine
 10
105.872952
 20
149.214926
 30
0.0
 11
106.857748
 21
149.069654
 31
0.0
  0
LINE
  5
11B
330
74
100
AcDbEntity
  8
Calque 1
100
AcDbLine
 10
106.857748
 20
149.069654
 30
0.0
 11
107.594239
 21
148.643813
 31
0.0
  0
LINE
  5
11C
330
74
100
AcDbEntity
  8
Calque 1
100
AcDbLine
 10
107.594239
 20
148.643813
 30
0.0
 11
108.202163
 21
148.072699
 31
0.0
  0
LINE
  5
11D
330
74
100
AcDbEntity
  8
Calque 1
100
AcDbLine
 10
108.202163
 20
148.072699
 30
0.0
 11
109.847171
 21
149.063271
 31
0.0
  0
LINE
  5
11E
330
74
100
AcDbEntity
  8
Calque 1
100
AcDbLine
 10
109.847171
 20
149.063271
 30
0.0
 11
111.773077
 21
150.006119
 31
0.0
  0
LINE
  5
11F
330
74
100
AcDbEntity
  8
Calque 1
100
AcDbLine
 10
111.773077
 20
150.006119
 30
0.0
 11
113.345899
 21
150.31118
 31
0.0
  0
LINE
  5
120
330
74
100
AcDbEntity
  8
Calque 1
100
AcDbLine
 10
113.345899
 20
150.31118
 30
0.0
 11
113.993338
 21
150.224605
 31
0.0
  0
LINE
  5
121
330
74
100
AcDbEntity
  8
Calque 1
100
AcDbLine
 10
113.993338
 20
150.224605
 30
0.0
 11
114.544628
 21
149.978662
 31
0.0
  0
LINE
  5
122
330
74
100
AcDbEntity
  8
Calque 1
100
AcDbLine
 10
114.544628
 20
149.978662
 30
0.0
 11
114.997141
 21
149.573376
 31
0.0
  0
LINE
  5
123
330
74
100
AcDbEntity
  8
Calque 1
100
AcDbLine
 10
114.997141
 20
149.573376
 30
0.0
 11
115.348252
 21
149.008774
 31
0.0
  0
LINE
  5
124
330
74
100
AcDbEntity
  8
Calque 1
100
AcDbLine
 10
115.348252
 20
149.008774
 30
0.0
 11
115.742529
 21
148.363925
 31
0.0
  0
LINE
  5
125
330
74
100
AcDbEntity
  8
Calque 1
100
AcDbLine
 10
115.742529
 20
148.363925
 30
0.0
 11
116.096003
 21
148.092144
 31
0.0
  0
LINE
  5
126
330
74
100
AcDbEntity
  8
Calque 1
100
AcDbLine
 10
116.096003
 20
148.092144
 30
0.0
 11
117.888252
 21
149.073815
 31
0.0
  0
LINE
  5
127
330
74
100
AcDbEntity
  8
Calque 1
100
AcDbLine
 10
117.888252
 20
149.073815
 30
0.0
 11
119.176765
 21
149.782876
 31
0.0
  0
LINE
  5
128
330
74
100
AcDbEntity
  8
Calque 1
100
AcDbLine
 10
119.176765
 20
149.782876
 30
0.0
 11
120.188406
 21
150.061593
 31
0.0
  0
LINE
  5
129
330
74
100
AcDbEntity
  8
Calque 1
100
AcDbLine
 10
120.188406
 20
150.061593
 30
0.0
 11
121.010411
 21
149.943677
 31
0.0
  0
LINE
  5
12A
330
74
100
AcDbEntity
  8
Calque 1
100
AcDbLine
 10
121.010411
 20
149.943677
 30
0.0
 11
121.825452
 21
149.629315
 31
0.0
  0
LINE
  5
12B
330
74
100
AcDbEntity
  8
Calque 1
100
AcDbLine
 10
121.825452
 20
149.629315
 30
0.0
 11
122.517322
 21
149.177583
 31
0.0
  0
LINE
  5
12C
330
74
100
AcDbEntity
  8
Calque 1
100
AcDbLine
 10
122.517322
 20
149.177583
 30
0.0
 11
122.969816
 21
148.647561
 31
0.0
  0
LINE
  5
12D
330
74
100
AcDbEntity
  8
Calque 1
100
AcDbLine
 10
122.969816
 20
148.647561
 30
0.0
 11
123.291608
 21
148.250984
 31
0.0
  0
LINE
  5
12E
330
74
100
AcDbEntity
  8
Calque 1
100
AcDbLine
 10
123.291608
 20
148.250984
 30
0.0
 11
123.64328
 21
148.086037
 31
0.0
  0
LINE
  5
12F
330
74
100
AcDbEntity
  8
Calque 1
100
AcDbLine
 10
123.64328
 20
148.086037
 30
0.0
 11
124.50438
 21
148.870876
 31
0.0
  0
LINE
  5
130
330
74
100
AcDbEntity
  8
Calque 1
100
AcDbLine
 10
124.50438
 20
148.870876
 30
0.0
 11
126.050977
 21
150.757826
 31
0.0
  0
LINE
  5
131
330
74
100
AcDbEntity
  8
Calque 1
100
AcDbLine
 10
126.050977
 20
150.757826
 30
0.0
 11
128.921964
 21
154.133263
 31
0.0
  0
LINE
  5
132
330
74
100
AcDbEntity
  8
Calque 1
100
AcDbLine
 10
128.921964
 20
154.133263
 30
0.0
 11
130.179083
 21
154.8632439999999
 31
0.0
  0
LINE
  5
133
330
74
100
AcDbEntity
  8
Calque 1
100
AcDbLine
 10
130.179083
 20
154.8632439999999
 30
0.0
 11
131.423696
 21
155.057364
 31
0.0
  0
LINE
  5
134
330
74
100
AcDbEntity
  8
Calque 1
100
AcDbLine
 10
131.423696
 20
155.057364
 30
0.0
 11
131.973531
 21
154.957516
 31
0.0
  0
LINE
  5
135
330
74
100
AcDbEntity
  8
Calque 1
100
AcDbLine
 10
131.973531
 20
154.957516
 30
0.0
 11
132.438903
 21
154.728551
 31
0.0
  0
LINE
  5
136
330
74
100
AcDbEntity
  8
Calque 1
100
AcDbLine
 10
132.438903
 20
154.728551
 30
0.0
 11
132.792699
 21
154.372085
 31
0.0
  0
LINE
  5
137
330
74
100
AcDbEntity
  8
Calque 1
100
AcDbLine
 10
132.792699
 20
154.372085
 30
0.0
 11
133.007806
 21
153.889734
 31
0.0
  0
LINE
  5
138
330
74
100
AcDbEntity
  8
Calque 1
100
AcDbLine
 10
133.007806
 20
153.889734
 30
0.0
 11
133.0446
 21
153.295831
 31
0.0
  0
LINE
  5
139
330
74
100
AcDbEntity
  8
Calque 1
100
AcDbLine
 10
133.0446
 20
153.295831
 30
0.0
 11
132.836443
 21
152.627094
 31
0.0
  0
LINE
  5
13A
330
74
100
AcDbEntity
  8
Calque 1
100
AcDbLine
 10
132.836443
 20
152.627094
 30
0.0
 11
131.532153
 21
150.738082
 31
0.0
  0
LINE
  5
13B
330
74
100
AcDbEntity
  8
Calque 1
100
AcDbLine
 10
131.532153
 20
150.738082
 30
0.0
 11
130.888969
 21
149.879125
 31
0.0
  0
LINE
  5
13C
330
74
100
AcDbEntity
  8
Calque 1
100
AcDbLine
 10
130.888969
 20
149.879125
 30
0.0
 11
130.640163
 21
149.309752
 31
0.0
  0
LINE
  5
13D
330
74
100
AcDbEntity
  8
Calque 1
100
AcDbLine
 10
130.640163
 20
149.309752
 30
0.0
 11
130.774076
 21
148.934046
 31
0.0
  0
LINE
  5
13E
330
74
100
AcDbEntity
  8
Calque 1
100
AcDbLine
 10
130.774076
 20
148.934046
 30
0.0
 11
131.279048
 21
148.656092
 31
0.0
  0
LINE
  5
13F
330
74
100
AcDbEntity
  8
Calque 1
100
AcDbLine
 10
131.279048
 20
148.656092
 30
0.0
 11
131.954081
 21
148.238612
 31
0.0
  0
LINE
  5
140
330
74
100
AcDbEntity
  8
Calque 1
100
AcDbLine
 10
131.954081
 20
148.238612
 30
0.0
 11
132.471141
 21
147.63391
 31
0.0
  0
LINE
  5
141
330
74
100
AcDbEntity
  8
Calque 1
100
AcDbLine
 10
132.471141
 20
147.63391
 30
0.0
 11
132.73831
 21
146.988506
 31
0.0
  0
LINE
  5
142
330
74
100
AcDbEntity
  8
Calque 1
100
AcDbLine
 10
132.73831
 20
146.988506
 30
0.0
 11
132.663672
 21
146.44892
 31
0.0
  0
LINE
  5
143
330
74
100
AcDbEntity
  8
Calque 1
100
AcDbLine
 10
132.663672
 20
146.44892
 30
0.0
 11
132.177106
 21
145.883963
 31
0.0
  0
LINE
  5
144
330
74
100
AcDbEntity
  8
Calque 1
100
AcDbLine
 10
132.177106
 20
145.883963
 30
0.0
 11
131.458049
 21
145.343034
 31
0.0
  0
LINE
  5
145
330
74
100
AcDbEntity
  8
Calque 1
100
AcDbLine
 10
131.458049
 20
145.343034
 30
0.0
 11
129.449853
 21
144.413928
 31
0.0
  0
LINE
  5
146
330
74
100
AcDbEntity
  8
Calque 1
100
AcDbLine
 10
129.449853
 20
144.413928
 30
0.0
 11
128.281816
 21
143.937946
 31
0.0
  0
LINE
  5
147
330
74
100
AcDbEntity
  8
Calque 1
100
AcDbLine
 10
128.281816
 20
143.937946
 30
0.0
 11
128.286884
 21
143.775886
 31
0.0
  0
LINE
  5
148
330
74
100
AcDbEntity
  8
Calque 1
100
AcDbLine
 10
128.286884
 20
143.775886
 30
0.0
 11
128.597206
 21
143.57877
 31
0.0
  0
LINE
  5
149
330
74
100
AcDbEntity
  8
Calque 1
100
AcDbLine
 10
128.597206
 20
143.57877
 30
0.0
 11
128.976315
 21
143.43683
 31
0.0
  0
LINE
  5
14A
330
74
100
AcDbEntity
  8
Calque 1
100
AcDbLine
 10
128.976315
 20
143.43683
 30
0.0
 11
129.394233
 21
143.450195
 31
0.0
  0
LINE
  5
14B
330
74
100
AcDbEntity
  8
Calque 1
100
AcDbLine
 10
129.394233
 20
143.450195
 30
0.0
 11
130.783798
 21
144.033857
 31
0.0
  0
LINE
  5
14C
330
74
100
AcDbEntity
  8
Calque 1
100
AcDbLine
 10
130.783798
 20
144.033857
 30
0.0
 11
132.344894
 21
144.823698
 31
0.0
  0
LINE
  5
14D
330
74
100
AcDbEntity
  8
Calque 1
100
AcDbLine
 10
132.344894
 20
144.823698
 30
0.0
 11
133.018795
 21
144.0402399999999
 31
0.0
  0
LINE
  5
14E
330
74
100
AcDbEntity
  8
Calque 1
100
AcDbLine
 10
133.018795
 20
144.0402399999999
 30
0.0
 11
133.543231
 21
143.233816
 31
0.0
  0
LINE
  5
14F
330
74
100
AcDbEntity
  8
Calque 1
100
AcDbLine
 10
133.543231
 20
143.233816
 30
0.0
 11
133.651073
 21
142.465061
 31
0.0
  0
LINE
  5
150
330
74
100
AcDbEntity
  8
Calque 1
100
AcDbLine
 10
133.651073
 20
142.465061
 30
0.0
 11
133.333072
 21
141.664944
 31
0.0
  0
LINE
  5
151
330
74
100
AcDbEntity
  8
Calque 1
100
AcDbLine
 10
133.333072
 20
141.664944
 30
0.0
 11
132.579982
 21
140.764433
 31
0.0
  0
LINE
  5
152
330
74
100
AcDbEntity
  8
Calque 1
100
AcDbLine
 10
132.579982
 20
140.764433
 30
0.0
 11
131.754471
 21
140.05496
 31
0.0
  0
LINE
  5
153
330
74
100
AcDbEntity
  8
Calque 1
100
AcDbLine
 10
131.754471
 20
140.05496
 30
0.0
 11
130.905276
 21
139.547909
 31
0.0
  0
LINE
  5
154
330
74
100
AcDbEntity
  8
Calque 1
100
AcDbLine
 10
130.905276
 20
139.547909
 30
0.0
 11
130.041361
 21
139.243292
 31
0.0
  0
LINE
  5
155
330
74
100
AcDbEntity
  8
Calque 1
100
AcDbLine
 10
130.041361
 20
139.243292
 30
0.0
 11
129.171688
 21
139.141118
 31
0.0
  0
LINE
  5
156
330
74
100
AcDbEntity
  8
Calque 1
100
AcDbLine
 10
129.171688
 20
139.141118
 30
0.0
 11
128.305218
 21
139.241396
 31
0.0
  0
LINE
  5
157
330
74
100
AcDbEntity
  8
Calque 1
100
AcDbLine
 10
128.305218
 20
139.241396
 30
0.0
 11
127.450916
 21
139.544137
 31
0.0
  0
LINE
  5
158
330
74
100
AcDbEntity
  8
Calque 1
100
AcDbLine
 10
127.450916
 20
139.544137
 30
0.0
 11
126.617743
 21
140.04935
 31
0.0
  0
LINE
  5
159
330
74
100
AcDbEntity
  8
Calque 1
100
AcDbLine
 10
126.617743
 20
140.04935
 30
0.0
 11
125.814661
 21
140.757045
 31
0.0
  0
LINE
  5
15A
330
74
100
AcDbEntity
  8
Calque 1
100
AcDbLine
 10
125.814661
 20
140.757045
 30
0.0
 11
124.741844
 21
141.862509
 31
0.0
  0
LINE
  5
15B
330
74
100
AcDbEntity
  8
Calque 1
100
AcDbLine
 10
124.741844
 20
141.862509
 30
0.0
 11
123.993983
 21
141.023164
 31
0.0
  0
LINE
  5
15C
330
74
100
AcDbEntity
  8
Calque 1
100
AcDbLine
 10
123.993983
 20
141.023164
 30
0.0
 11
123.397459
 21
140.471679
 31
0.0
  0
LINE
  5
15D
330
74
100
AcDbEntity
  8
Calque 1
100
AcDbLine
 10
123.397459
 20
140.471679
 30
0.0
 11
122.835614
 21
140.2279899999999
 31
0.0
  0
LINE
  5
15E
330
74
100
AcDbEntity
  8
Calque 1
100
AcDbLine
 10
122.835614
 20
140.2279899999999
 30
0.0
 11
122.25698
 21
140.28361
 31
0.0
  0
LINE
  5
15F
330
74
100
AcDbEntity
  8
Calque 1
100
AcDbLine
 10
122.25698
 20
140.28361
 30
0.0
 11
121.610089
 21
140.630051
 31
0.0
  0
LINE
  5
160
330
74
100
AcDbEntity
  8
Calque 1
100
AcDbLine
 10
121.610089
 20
140.630051
 30
0.0
 11
121.222447
 21
140.857586
 31
0.0
  0
LINE
  5
161
330
74
100
AcDbEntity
  8
Calque 1
100
AcDbLine
 10
121.222447
 20
140.857586
 30
0.0
 11
120.839643
 21
140.912283
 31
0.0
  0
LINE
  5
162
330
74
100
AcDbEntity
  8
Calque 1
100
AcDbLine
 10
120.839643
 20
140.912283
 30
0.0
 11
119.4647149999999
 21
140.451136
 31
0.0
  0
LINE
  5
163
330
74
100
AcDbEntity
  8
Calque 1
100
AcDbLine
 10
119.4647149999999
 20
140.451136
 30
0.0
 11
118.148075
 21
140.044905
 31
0.0
  0
LINE
  5
164
330
74
100
AcDbEntity
  8
Calque 1
100
AcDbLine
 10
118.148075
 20
140.044905
 30
0.0
 11
117.021
 21
140.003983
 31
0.0
  0
LINE
  5
165
330
74
100
AcDbEntity
  8
Calque 1
100
AcDbLine
 10
117.021
 20
140.003983
 30
0.0
 11
116.062392
 21
140.331266
 31
0.0
  0
LINE
  5
166
330
74
100
AcDbEntity
  8
Calque 1
100
AcDbLine
 10
116.062392
 20
140.331266
 30
0.0
 11
115.251148
 21
141.029652
 31
0.0
  0
LINE
  5
167
330
74
100
AcDbEntity
  8
Calque 1
100
AcDbLine
 10
115.251148
 20
141.029652
 30
0.0
 11
114.435046
 21
142.217875
 31
0.0
  0
LINE
  5
168
330
74
100
AcDbEntity
  8
Calque 1
100
AcDbLine
 10
114.435046
 20
142.217875
 30
0.0
 11
114.284666
 21
142.282549
 31
0.0
  0
LINE
  5
169
330
74
100
AcDbEntity
  8
Calque 1
100
AcDbLine
 10
114.284666
 20
142.282549
 30
0.0
 11
113.957541
 21
142.135928
 31
0.0
  0
LINE
  5
16A
330
74
100
AcDbEntity
  8
Calque 1
100
AcDbLine
 10
113.957541
 20
142.135928
 30
0.0
 11
112.825307
 21
141.240523
 31
0.0
  0
LINE
  5
16B
330
74
100
AcDbEntity
  8
Calque 1
100
AcDbLine
 10
112.825307
 20
141.240523
 30
0.0
 11
111.526027
 21
140.25246
 31
0.0
  0
LINE
  5
16C
330
74
100
AcDbEntity
  8
Calque 1
100
AcDbLine
 10
111.526027
 20
140.25246
 30
0.0
 11
110.429462
 21
139.870168
 31
0.0
  0
LINE
  5
16D
330
74
100
AcDbEntity
  8
Calque 1
100
AcDbLine
 10
110.429462
 20
139.870168
 30
0.0
 11
109.419701
 21
140.084397
 31
0.0
  0
LINE
  5
16E
330
74
100
AcDbEntity
  8
Calque 1
100
AcDbLine
 10
109.419701
 20
140.084397
 30
0.0
 11
108.380835
 21
140.885899
 31
0.0
  0
LINE
  5
16F
330
74
100
AcDbEntity
  8
Calque 1
100
AcDbLine
 10
108.380835
 20
140.885899
 30
0.0
 11
107.396528
 21
141.870206
 31
0.0
  0
LINE
  5
170
330
74
100
AcDbEntity
  8
Calque 1
100
AcDbLine
 10
107.396528
 20
141.870206
 30
0.0
 11
106.170984
 21
141.02701
 31
0.0
  0
LINE
  5
171
330
74
100
AcDbEntity
  8
Calque 1
100
AcDbLine
 10
106.170984
 20
141.02701
 30
0.0
 11
104.664099
 21
140.294188
 31
0.0
  0
LINE
  5
172
330
74
100
AcDbEntity
  8
Calque 1
100
AcDbLine
 10
104.664099
 20
140.294188
 30
0.0
 11
103.975461
 21
140.192598
 31
0.0
  0
LINE
  5
173
330
74
100
AcDbEntity
  8
Calque 1
100
AcDbLine
 10
103.975461
 20
140.192598
 30
0.0
 11
103.337255
 21
140.265664
 31
0.0
  0
LINE
  5
174
330
74
100
AcDbEntity
  8
Calque 1
100
AcDbLine
 10
103.337255
 20
140.265664
 30
0.0
 11
102.754901
 21
140.511968
 31
0.0
  0
LINE
  5
175
330
74
100
AcDbEntity
  8
Calque 1
100
AcDbLine
 10
102.754901
 20
140.511968
 30
0.0
 11
102.23382
 21
140.930092
 31
0.0
  0
LINE
  5
176
330
74
100
AcDbEntity
  8
Calque 1
100
AcDbLine
 10
102.23382
 20
140.930092
 30
0.0
 11
101.779433
 21
141.518616
 31
0.0
  0
LINE
  5
177
330
74
100
AcDbEntity
  8
Calque 1
100
AcDbLine
 10
101.779433
 20
141.518616
 30
0.0
 11
101.397161
 21
142.276123
 31
0.0
  0
LINE
  5
178
330
74
100
AcDbEntity
  8
Calque 1
100
AcDbLine
 10
101.397161
 20
142.276123
 30
0.0
 11
100.945117
 21
143.380653
 31
0.0
  0
LINE
  5
179
330
74
100
AcDbEntity
  8
Calque 1
100
AcDbLine
 10
100.945117
 20
143.380653
 30
0.0
 11
99.46835
 21
141.813572
 31
0.0
  0
LINE
  5
17A
330
74
100
AcDbEntity
  8
Calque 1
100
AcDbLine
 10
99.46835
 20
141.813572
 30
0.0
 11
98.23755400000001
 21
140.6501659999999
 31
0.0
  0
LINE
  5
17B
330
74
100
AcDbEntity
  8
Calque 1
100
AcDbLine
 10
98.23755400000001
 20
140.6501659999999
 30
0.0
 11
97.35215500000002
 21
140.053617
 31
0.0
  0
LINE
  5
17C
330
74
100
AcDbEntity
  8
Calque 1
100
AcDbLine
 10
97.35215500000002
 20
140.053617
 30
0.0
 11
96.60616
 21
140.000225
 31
0.0
  0
LINE
  5
17D
330
74
100
AcDbEntity
  8
Calque 1
100
AcDbLine
 10
96.60616
 20
140.000225
 30
0.0
 11
95.74322
 21
140.197939
 31
0.0
  0
LINE
  5
17E
330
74
100
AcDbEntity
  8
Calque 1
100
AcDbLine
 10
95.74322
 20
140.197939
 30
0.0
 11
94.894072
 21
140.600892
 31
0.0
  0
LINE
  5
17F
330
74
100
AcDbEntity
  8
Calque 1
100
AcDbLine
 10
94.894072
 20
140.600892
 30
0.0
 11
94.189454
 21
141.163216
 31
0.0
  0
LINE
  5
180
330
74
100
AcDbEntity
  8
Calque 1
100
AcDbLine
 10
94.189454
 20
141.163216
 30
0.0
 11
93.54987900000001
 21
141.844013
 31
0.0
  0
LINE
  5
181
330
74
100
AcDbEntity
  8
Calque 1
100
AcDbLine
 10
93.54987900000001
 20
141.844013
 30
0.0
 11
92.079024
 21
141.013915
 31
0.0
  0
LINE
  5
182
330
74
100
AcDbEntity
  8
Calque 1
100
AcDbLine
 10
92.079024
 20
141.013915
 30
0.0
 11
90.74696499999999
 21
140.419642
 31
0.0
  0
LINE
  5
183
330
74
100
AcDbEntity
  8
Calque 1
100
AcDbLine
 10
90.74696499999999
 20
140.419642
 30
0.0
 11
89.62586999999999
 21
140.183815
 31
0.0
  0
LINE
  5
184
330
74
100
AcDbEntity
  8
Calque 1
100
AcDbLine
 10
89.62586999999999
 20
140.183815
 30
0.0
 11
88.90100799999999
 21
140.302579
 31
0.0
  0
LINE
  5
185
330
74
100
AcDbEntity
  8
Calque 1
100
AcDbLine
 10
88.90100799999999
 20
140.302579
 30
0.0
 11
88.22251800000001
 21
140.6226649999999
 31
0.0
  0
LINE
  5
186
330
74
100
AcDbEntity
  8
Calque 1
100
AcDbLine
 10
88.22251800000001
 20
140.6226649999999
 30
0.0
 11
87.674987
 21
141.089763
 31
0.0
  0
LINE
  5
187
330
74
100
AcDbEntity
  8
Calque 1
100
AcDbLine
 10
87.674987
 20
141.089763
 30
0.0
 11
87.34300299999999
 21
141.649561
 31
0.0
  0
LINE
  5
188
330
74
100
AcDbEntity
  8
Calque 1
100
AcDbLine
 10
87.34300299999999
 20
141.649561
 30
0.0
 11
87.20828199999999
 21
141.779832
 31
0.0
  0
LINE
  5
189
330
74
100
AcDbEntity
  8
Calque 1
100
AcDbLine
 10
87.20828199999999
 20
141.779832
 30
0.0
 11
86.91875300000001
 21
141.756851
 31
0.0
  0
LINE
  5
18A
330
74
100
AcDbEntity
  8
Calque 1
100
AcDbLine
 10
86.91875300000001
 20
141.756851
 30
0.0
 11
85.747081
 21
141.216336
 31
0.0
  0
LINE
  5
18B
330
74
100
AcDbEntity
  8
Calque 1
100
AcDbLine
 10
85.747081
 20
141.216336
 30
0.0
 11
84.39250899999999
 21
140.640442
 31
0.0
  0
LINE
  5
18C
330
74
100
AcDbEntity
  8
Calque 1
100
AcDbLine
 10
84.39250899999999
 20
140.640442
 30
0.0
 11
83.09990400000001
 21
140.398674
 31
0.0
  0
LINE
  5
18D
330
74
100
AcDbEntity
  8
Calque 1
100
AcDbLine
 10
83.09990400000001
 20
140.398674
 30
0.0
 11
81.93826599999999
 21
140.495118
 31
0.0
  0
LINE
  5
18E
330
74
100
AcDbEntity
  8
Calque 1
100
AcDbLine
 10
81.93826599999999
 20
140.495118
 30
0.0
 11
80.97659699999999
 21
140.93386
 31
0.0
  0
LINE
  5
18F
330
74
100
AcDbEntity
  8
Calque 1
100
AcDbLine
 10
80.97659699999999
 20
140.93386
 30
0.0
 11
80.21158599999999
 21
141.491415
 31
0.0
  0
LINE
  5
190
330
74
100
AcDbEntity
  8
Calque 1
100
AcDbLine
 10
80.21158599999999
 20
141.491415
 30
0.0
 11
79.252628
 21
140.837617
 31
0.0
  0
LINE
  5
191
330
74
100
AcDbEntity
  8
Calque 1
100
AcDbLine
 10
79.252628
 20
140.837617
 30
0.0
 11
78.38309599999999
 21
140.378252
 31
0.0
  0
LINE
  5
192
330
74
100
AcDbEntity
  8
Calque 1
100
AcDbLine
 10
78.38309599999999
 20
140.378252
 30
0.0
 11
77.55407599999999
 21
140.21325
 31
0.0
  0
LINE
  5
193
330
74
100
AcDbEntity
  8
Calque 1
100
AcDbLine
 10
77.55407599999999
 20
140.21325
 30
0.0
 11
76.766007
 21
140.342621
 31
0.0
  0
LINE
  5
194
330
74
100
AcDbEntity
  8
Calque 1
100
AcDbLine
 10
76.766007
 20
140.342621
 30
0.0
 11
76.01932399999999
 21
140.766372
 31
0.0
  0
LINE
  5
195
330
74
100
AcDbEntity
  8
Calque 1
100
AcDbLine
 10
76.01932399999999
 20
140.766372
 30
0.0
 11
75.29568199999999
 21
141.191548
 31
0.0
  0
LINE
  5
196
330
74
100
AcDbEntity
  8
Calque 1
100
AcDbLine
 10
75.29568199999999
 20
141.191548
 30
0.0
 11
74.64846899999999
 21
140.907483
 31
0.0
  0
LINE
  5
197
330
74
100
AcDbEntity
  8
Calque 1
100
AcDbLine
 10
74.64846899999999
 20
140.907483
 30
0.0
 11
73.94253
 21
140.58817
 31
0.0
  0
LINE
  5
198
330
74
100
AcDbEntity
  8
Calque 1
100
AcDbLine
 10
73.94253
 20
140.58817
 30
0.0
 11
73.106477
 21
140.484424
 31
0.0
  0
LINE
  5
199
330
74
100
AcDbEntity
  8
Calque 1
100
AcDbLine
 10
73.106477
 20
140.484424
 30
0.0
 11
72.233056
 21
140.595832
 31
0.0
  0
LINE
  5
19A
330
74
100
AcDbEntity
  8
Calque 1
100
AcDbLine
 10
72.233056
 20
140.595832
 30
0.0
 11
71.415013
 21
140.921978
 31
0.0
  0
LINE
  5
19B
330
74
100
AcDbEntity
  8
Calque 1
100
AcDbLine
 10
71.415013
 20
140.921978
 30
0.0
 11
70.91947799999999
 21
141.1576
 31
0.0
  0
LINE
  5
19C
330
74
100
AcDbEntity
  8
Calque 1
100
AcDbLine
 10
70.91947799999999
 20
141.1576
 30
0.0
 11
70.42631
 21
141.158992
 31
0.0
  0
LINE
  5
19D
330
74
100
AcDbEntity
  8
Calque 1
100
AcDbLine
 10
70.42631
 20
141.158992
 30
0.0
 11
68.41540000000001
 21
140.216423
 31
0.0
  0
LINE
  5
19E
330
74
100
AcDbEntity
  8
Calque 1
100
AcDbLine
 10
68.41540000000001
 20
140.216423
 30
0.0
 11
66.83443
 21
139.456015
 31
0.0
  0
LINE
  5
19F
330
74
100
AcDbEntity
  8
Calque 1
100
AcDbLine
 10
66.83443
 20
139.456015
 30
0.0
 11
65.658173
 21
139.124408
 31
0.0
  0
LINE
  5
1A0
330
74
100
AcDbEntity
  8
Calque 1
100
AcDbLine
 10
65.658173
 20
139.124408
 30
0.0
 11
64.639499
 21
139.191859
 31
0.0
  0
LINE
  5
1A1
330
74
100
AcDbEntity
  8
Calque 1
100
AcDbLine
 10
64.639499
 20
139.191859
 30
0.0
 11
63.531276
 21
139.628625
 31
0.0
  0
LINE
  5
1A2
330
74
100
AcDbEntity
  8
Calque 1
100
AcDbLine
 10
63.531276
 20
139.628625
 30
0.0
 11
63.531276
 21
139.628625
 31
0.0
  0
LINE
  5
1A3
330
74
100
AcDbEntity
  8
Calque 1
100
AcDbLine
 10
129.964496
 20
141.004636
 30
0.0
 11
131.019698
 21
141.675332
 31
0.0
  0
LINE
  5
1A4
330
74
100
AcDbEntity
  8
Calque 1
100
AcDbLine
 10
131.019698
 20
141.675332
 30
0.0
 11
131.868008
 21
142.439304
 31
0.0
  0
LINE
  5
1A5
330
74
100
AcDbEntity
  8
Calque 1
100
AcDbLine
 10
131.868008
 20
142.439304
 30
0.0
 11
132.362645
 21
143.136814
 31
0.0
  0
LINE
  5
1A6
330
74
100
AcDbEntity
  8
Calque 1
100
AcDbLine
 10
132.362645
 20
143.136814
 30
0.0
 11
132.431467
 21
143.410729
 31
0.0
  0
LINE
  5
1A7
330
74
100
AcDbEntity
  8
Calque 1
100
AcDbLine
 10
132.431467
 20
143.410729
 30
0.0
 11
132.356829
 21
143.608127
 31
0.0
  0
LINE
  5
1A8
330
74
100
AcDbEntity
  8
Calque 1
100
AcDbLine
 10
132.356829
 20
143.608127
 30
0.0
 11
131.894492
 21
143.719764
 31
0.0
  0
LINE
  5
1A9
330
74
100
AcDbEntity
  8
Calque 1
100
AcDbLine
 10
131.894492
 20
143.719764
 30
0.0
 11
131.0694889999999
 21
143.3240449999999
 31
0.0
  0
LINE
  5
1AA
330
74
100
AcDbEntity
  8
Calque 1
100
AcDbLine
 10
131.0694889999999
 20
143.3240449999999
 30
0.0
 11
130.050834
 21
142.891538
 31
0.0
  0
LINE
  5
1AB
330
74
100
AcDbEntity
  8
Calque 1
100
AcDbLine
 10
130.050834
 20
142.891538
 30
0.0
 11
128.957251
 21
142.723815
 31
0.0
  0
LINE
  5
1AC
330
74
100
AcDbEntity
  8
Calque 1
100
AcDbLine
 10
128.957251
 20
142.723815
 30
0.0
 11
127.896282
 21
142.8932409999999
 31
0.0
  0
LINE
  5
1AD
330
74
100
AcDbEntity
  8
Calque 1
100
AcDbLine
 10
127.896282
 20
142.8932409999999
 30
0.0
 11
127.085561
 21
143.592136
 31
0.0
  0
LINE
  5
1AE
330
74
100
AcDbEntity
  8
Calque 1
100
AcDbLine
 10
127.085561
 20
143.592136
 30
0.0
 11
126.357561
 21
144.791581
 31
0.0
  0
LINE
  5
1AF
330
74
100
AcDbEntity
  8
Calque 1
100
AcDbLine
 10
126.357561
 20
144.791581
 30
0.0
 11
126.959696
 21
145.207942
 31
0.0
  0
LINE
  5
1B0
330
74
100
AcDbEntity
  8
Calque 1
100
AcDbLine
 10
126.959696
 20
145.207942
 30
0.0
 11
128.403672
 21
145.743999
 31
0.0
  0
LINE
  5
1B1
330
74
100
AcDbEntity
  8
Calque 1
100
AcDbLine
 10
128.403672
 20
145.743999
 30
0.0
 11
131.011586
 21
146.785083
 31
0.0
  0
LINE
  5
1B2
330
74
100
AcDbEntity
  8
Calque 1
100
AcDbLine
 10
131.011586
 20
146.785083
 30
0.0
 11
131.415279
 21
147.209244
 31
0.0
  0
LINE
  5
1B3
330
74
100
AcDbEntity
  8
Calque 1
100
AcDbLine
 10
131.415279
 20
147.209244
 30
0.0
 11
131.136099
 21
147.651974
 31
0.0
  0
LINE
  5
1B4
330
74
100
AcDbEntity
  8
Calque 1
100
AcDbLine
 10
131.136099
 20
147.651974
 30
0.0
 11
130.863157
 21
147.880838
 31
0.0
  0
LINE
  5
1B5
330
74
100
AcDbEntity
  8
Calque 1
100
AcDbLine
 10
130.863157
 20
147.880838
 30
0.0
 11
130.567546
 21
147.957914
 31
0.0
  0
LINE
  5
1B6
330
74
100
AcDbEntity
  8
Calque 1
100
AcDbLine
 10
130.567546
 20
147.957914
 30
0.0
 11
129.447386
 21
147.658479
 31
0.0
  0
LINE
  5
1B7
330
74
100
AcDbEntity
  8
Calque 1
100
AcDbLine
 10
129.447386
 20
147.658479
 30
0.0
 11
127.551011
 21
146.793564
 31
0.0
  0
LINE
  5
1B8
330
74
100
AcDbEntity
  8
Calque 1
100
AcDbLine
 10
127.551011
 20
146.793564
 30
0.0
 11
127.093564
 21
146.572017
 31
0.0
  0
LINE
  5
1B9
330
74
100
AcDbEntity
  8
Calque 1
100
AcDbLine
 10
127.093564
 20
146.572017
 30
0.0
 11
126.712469
 21
146.533209
 31
0.0
  0
LINE
  5
1BA
330
74
100
AcDbEntity
  8
Calque 1
100
AcDbLine
 10
126.712469
 20
146.533209
 30
0.0
 11
126.451622
 21
146.670412
 31
0.0
  0
LINE
  5
1BB
330
74
100
AcDbEntity
  8
Calque 1
100
AcDbLine
 10
126.451622
 20
146.670412
 30
0.0
 11
126.354919
 21
146.976898
 31
0.0
  0
LINE
  5
1BC
330
74
100
AcDbEntity
  8
Calque 1
100
AcDbLine
 10
126.354919
 20
146.976898
 30
0.0
 11
128.416696
 21
149.429686
 31
0.0
  0
LINE
  5
1BD
330
74
100
AcDbEntity
  8
Calque 1
100
AcDbLine
 10
128.416696
 20
149.429686
 30
0.0
 11
131.040266
 21
152.3817399999999
 31
0.0
  0
LINE
  5
1BE
330
74
100
AcDbEntity
  8
Calque 1
100
AcDbLine
 10
131.040266
 20
152.3817399999999
 30
0.0
 11
131.566452
 21
153.197719
 31
0.0
  0
LINE
  5
1BF
330
74
100
AcDbEntity
  8
Calque 1
100
AcDbLine
 10
131.566452
 20
153.197719
 30
0.0
 11
131.717141
 21
153.768542
 31
0.0
  0
LINE
  5
1C0
330
74
100
AcDbEntity
  8
Calque 1
100
AcDbLine
 10
131.717141
 20
153.768542
 30
0.0
 11
131.539461
 21
154.196221
 31
0.0
  0
LINE
  5
1C1
330
74
100
AcDbEntity
  8
Calque 1
100
AcDbLine
 10
131.539461
 20
154.196221
 30
0.0
 11
131.053756
 21
154.269801
 31
0.0
  0
LINE
  5
1C2
330
74
100
AcDbEntity
  8
Calque 1
100
AcDbLine
 10
131.053756
 20
154.269801
 30
0.0
 11
130.33103
 21
154.000766
 31
0.0
  0
LINE
  5
1C3
330
74
100
AcDbEntity
  8
Calque 1
100
AcDbLine
 10
130.33103
 20
154.000766
 30
0.0
 11
129.442286
 21
153.4006
 31
0.0
  0
LINE
  5
1C4
330
74
100
AcDbEntity
  8
Calque 1
100
AcDbLine
 10
129.442286
 20
153.4006
 30
0.0
 11
128.031664
 21
151.963834
 31
0.0
  0
LINE
  5
1C5
330
74
100
AcDbEntity
  8
Calque 1
100
AcDbLine
 10
128.031664
 20
151.963834
 30
0.0
 11
126.20292
 21
149.765336
 31
0.0
  0
LINE
  5
1C6
330
74
100
AcDbEntity
  8
Calque 1
100
AcDbLine
 10
126.20292
 20
149.765336
 30
0.0
 11
124.639313
 21
147.904639
 31
0.0
  0
LINE
  5
1C7
330
74
100
AcDbEntity
  8
Calque 1
100
AcDbLine
 10
124.639313
 20
147.904639
 30
0.0
 11
123.084047
 21
146.413772
 31
0.0
  0
LINE
  5
1C8
330
74
100
AcDbEntity
  8
Calque 1
100
AcDbLine
 10
123.084047
 20
146.413772
 30
0.0
 11
121.370434
 21
145.152392
 31
0.0
  0
LINE
  5
1C9
330
74
100
AcDbEntity
  8
Calque 1
100
AcDbLine
 10
121.370434
 20
145.152392
 30
0.0
 11
119.331785
 21
143.980155
 31
0.0
  0
LINE
  5
1CA
330
74
100
AcDbEntity
  8
Calque 1
100
AcDbLine
 10
119.331785
 20
143.980155
 30
0.0
 11
117.962272
 21
143.367949
 31
0.0
  0
LINE
  5
1CB
330
74
100
AcDbEntity
  8
Calque 1
100
AcDbLine
 10
117.962272
 20
143.367949
 30
0.0
 11
117.669012
 21
143.438952
 31
0.0
  0
LINE
  5
1CC
330
74
100
AcDbEntity
  8
Calque 1
100
AcDbLine
 10
117.669012
 20
143.438952
 30
0.0
 11
117.414201
 21
143.73263
 31
0.0
  0
LINE
  5
1CD
330
74
100
AcDbEntity
  8
Calque 1
100
AcDbLine
 10
117.414201
 20
143.73263
 30
0.0
 11
117.154042
 21
144.363449
 31
0.0
  0
LINE
  5
1CE
330
74
100
AcDbEntity
  8
Calque 1
100
AcDbLine
 10
117.154042
 20
144.363449
 30
0.0
 11
117.230457
 21
145.06579
 31
0.0
  0
LINE
  5
1CF
330
74
100
AcDbEntity
  8
Calque 1
100
AcDbLine
 10
117.230457
 20
145.06579
 30
0.0
 11
117.63676
 21
145.819485
 31
0.0
  0
LINE
  5
1D0
330
74
100
AcDbEntity
  8
Calque 1
100
AcDbLine
 10
117.63676
 20
145.819485
 30
0.0
 11
118.366266
 21
146.60437
 31
0.0
  0
LINE
  5
1D1
330
74
100
AcDbEntity
  8
Calque 1
100
AcDbLine
 10
118.366266
 20
146.60437
 30
0.0
 11
119.184843
 21
147.251572
 31
0.0
  0
LINE
  5
1D2
330
74
100
AcDbEntity
  8
Calque 1
100
AcDbLine
 10
119.184843
 20
147.251572
 30
0.0
 11
119.738785
 21
147.504181
 31
0.0
  0
LINE
  5
1D3
330
74
100
AcDbEntity
  8
Calque 1
100
AcDbLine
 10
119.738785
 20
147.504181
 30
0.0
 11
120.009826
 21
147.359802
 31
0.0
  0
LINE
  5
1D4
330
74
100
AcDbEntity
  8
Calque 1
100
AcDbLine
 10
120.009826
 20
147.359802
 30
0.0
 11
119.9797
 21
146.816037
 31
0.0
  0
LINE
  5
1D5
330
74
100
AcDbEntity
  8
Calque 1
100
AcDbLine
 10
119.9797
 20
146.816037
 30
0.0
 11
119.958963
 21
146.232139
 31
0.0
  0
LINE
  5
1D6
330
74
100
AcDbEntity
  8
Calque 1
100
AcDbLine
 10
119.958963
 20
146.232139
 30
0.0
 11
120.532263
 21
146.110482
 31
0.0
  0
LINE
  5
1D7
330
74
100
AcDbEntity
  8
Calque 1
100
AcDbLine
 10
120.532263
 20
146.110482
 30
0.0
 11
121.14161
 21
146.290846
 31
0.0
  0
LINE
  5
1D8
330
74
100
AcDbEntity
  8
Calque 1
100
AcDbLine
 10
121.14161
 20
146.290846
 30
0.0
 11
121.66884
 21
146.748869
 31
0.0
  0
LINE
  5
1D9
330
74
100
AcDbEntity
  8
Calque 1
100
AcDbLine
 10
121.66884
 20
146.748869
 30
0.0
 11
122.012451
 21
147.359941
 31
0.0
  0
LINE
  5
1DA
330
74
100
AcDbEntity
  8
Calque 1
100
AcDbLine
 10
122.012451
 20
147.359941
 30
0.0
 11
122.070944
 21
147.999457
 31
0.0
  0
LINE
  5
1DB
330
74
100
AcDbEntity
  8
Calque 1
100
AcDbLine
 10
122.070944
 20
147.999457
 30
0.0
 11
121.763833
 21
148.501073
 31
0.0
  0
LINE
  5
1DC
330
74
100
AcDbEntity
  8
Calque 1
100
AcDbLine
 10
121.763833
 20
148.501073
 30
0.0
 11
121.146443
 21
148.887643
 31
0.0
  0
LINE
  5
1DD
330
74
100
AcDbEntity
  8
Calque 1
100
AcDbLine
 10
121.146443
 20
148.887643
 30
0.0
 11
120.363522
 21
149.097514
 31
0.0
  0
LINE
  5
1DE
330
74
100
AcDbEntity
  8
Calque 1
100
AcDbLine
 10
120.363522
 20
149.097514
 30
0.0
 11
119.559818
 21
149.069034
 31
0.0
  0
LINE
  5
1DF
330
74
100
AcDbEntity
  8
Calque 1
100
AcDbLine
 10
119.559818
 20
149.069034
 30
0.0
 11
118.586019
 21
148.613173
 31
0.0
  0
LINE
  5
1E0
330
74
100
AcDbEntity
  8
Calque 1
100
AcDbLine
 10
118.586019
 20
148.613173
 30
0.0
 11
117.436036
 21
147.778818
 31
0.0
  0
LINE
  5
1E1
330
74
100
AcDbEntity
  8
Calque 1
100
AcDbLine
 10
117.436036
 20
147.778818
 30
0.0
 11
116.39107
 21
146.999194
 31
0.0
  0
LINE
  5
1E2
330
74
100
AcDbEntity
  8
Calque 1
100
AcDbLine
 10
116.39107
 20
146.999194
 30
0.0
 11
115.669754
 21
146.674926
 31
0.0
  0
LINE
  5
1E3
330
74
100
AcDbEntity
  8
Calque 1
100
AcDbLine
 10
115.669754
 20
146.674926
 30
0.0
 11
115.222494
 21
146.768966
 31
0.0
  0
LINE
  5
1E4
330
74
100
AcDbEntity
  8
Calque 1
100
AcDbLine
 10
115.222494
 20
146.768966
 30
0.0
 11
114.850351
 21
147.022797
 31
0.0
  0
LINE
  5
1E5
330
74
100
AcDbEntity
  8
Calque 1
100
AcDbLine
 10
114.850351
 20
147.022797
 30
0.0
 11
114.595867
 21
147.393986
 31
0.0
  0
LINE
  5
1E6
330
74
100
AcDbEntity
  8
Calque 1
100
AcDbLine
 10
114.595867
 20
147.393986
 30
0.0
 11
114.501586
 21
147.8401
 31
0.0
  0
LINE
  5
1E7
330
74
100
AcDbEntity
  8
Calque 1
100
AcDbLine
 10
114.501586
 20
147.8401
 30
0.0
 11
114.37131
 21
148.314915
 31
0.0
  0
LINE
  5
1E8
330
74
100
AcDbEntity
  8
Calque 1
100
AcDbLine
 10
114.37131
 20
148.314915
 30
0.0
 11
114.058093
 21
148.771434
 31
0.0
  0
LINE
  5
1E9
330
74
100
AcDbEntity
  8
Calque 1
100
AcDbLine
 10
114.058093
 20
148.771434
 30
0.0
 11
113.586955
 21
149.078102
 31
0.0
  0
LINE
  5
1EA
330
74
100
AcDbEntity
  8
Calque 1
100
AcDbLine
 10
113.586955
 20
149.078102
 30
0.0
 11
112.997966
 21
149.200556
 31
0.0
  0
LINE
  5
1EB
330
74
100
AcDbEntity
  8
Calque 1
100
AcDbLine
 10
112.997966
 20
149.200556
 30
0.0
 11
112.320284
 21
149.149951
 31
0.0
  0
LINE
  5
1EC
330
74
100
AcDbEntity
  8
Calque 1
100
AcDbLine
 10
112.320284
 20
149.149951
 30
0.0
 11
111.583064
 21
148.937442
 31
0.0
  0
LINE
  5
1ED
330
74
100
AcDbEntity
  8
Calque 1
100
AcDbLine
 10
111.583064
 20
148.937442
 30
0.0
 11
110.046635
 21
148.071334
 31
0.0
  0
LINE
  5
1EE
330
74
100
AcDbEntity
  8
Calque 1
100
AcDbLine
 10
110.046635
 20
148.071334
 30
0.0
 11
108.621929
 21
146.691478
 31
0.0
  0
LINE
  5
1EF
330
74
100
AcDbEntity
  8
Calque 1
100
AcDbLine
 10
108.621929
 20
146.691478
 30
0.0
 11
107.491325
 21
145.537874
 31
0.0
  0
LINE
  5
1F0
330
74
100
AcDbEntity
  8
Calque 1
100
AcDbLine
 10
107.491325
 20
145.537874
 30
0.0
 11
106.161261
 21
144.51018
 31
0.0
  0
LINE
  5
1F1
330
74
100
AcDbEntity
  8
Calque 1
100
AcDbLine
 10
106.161261
 20
144.51018
 30
0.0
 11
104.98196
 21
143.844706
 31
0.0
  0
LINE
  5
1F2
330
74
100
AcDbEntity
  8
Calque 1
100
AcDbLine
 10
104.98196
 20
143.844706
 30
0.0
 11
104.558288
 21
143.721648
 31
0.0
  0
LINE
  5
1F3
330
74
100
AcDbEntity
  8
Calque 1
100
AcDbLine
 10
104.558288
 20
143.721648
 30
0.0
 11
104.303641
 21
143.77776
 31
0.0
  0
LINE
  5
1F4
330
74
100
AcDbEntity
  8
Calque 1
100
AcDbLine
 10
104.303641
 20
143.77776
 30
0.0
 11
104.115823
 21
144.223358
 31
0.0
  0
LINE
  5
1F5
330
74
100
AcDbEntity
  8
Calque 1
100
AcDbLine
 10
104.115823
 20
144.223358
 30
0.0
 11
104.282668
 21
144.80522
 31
0.0
  0
LINE
  5
1F6
330
74
100
AcDbEntity
  8
Calque 1
100
AcDbLine
 10
104.282668
 20
144.80522
 30
0.0
 11
104.791386
 21
145.499192
 31
0.0
  0
LINE
  5
1F7
330
74
100
AcDbEntity
  8
Calque 1
100
AcDbLine
 10
104.791386
 20
145.499192
 30
0.0
 11
105.629185
 21
146.281116
 31
0.0
  0
LINE
  5
1F8
330
74
100
AcDbEntity
  8
Calque 1
100
AcDbLine
 10
105.629185
 20
146.281116
 30
0.0
 11
106.605366
 21
147.269543
 31
0.0
  0
LINE
  5
1F9
330
74
100
AcDbEntity
  8
Calque 1
100
AcDbLine
 10
106.605366
 20
147.269543
 30
0.0
 11
106.820751
 21
147.674771
 31
0.0
  0
LINE
  5
1FA
330
74
100
AcDbEntity
  8
Calque 1
100
AcDbLine
 10
106.820751
 20
147.674771
 30
0.0
 11
106.855303
 21
148.015322
 31
0.0
  0
LINE
  5
1FB
330
74
100
AcDbEntity
  8
Calque 1
100
AcDbLine
 10
106.855303
 20
148.015322
 30
0.0
 11
106.709749
 21
148.287183
 31
0.0
  0
LINE
  5
1FC
330
74
100
AcDbEntity
  8
Calque 1
100
AcDbLine
 10
106.709749
 20
148.287183
 30
0.0
 11
106.384817
 21
148.48634
 31
0.0
  0
LINE
  5
1FD
330
74
100
AcDbEntity
  8
Calque 1
100
AcDbLine
 10
106.384817
 20
148.48634
 30
0.0
 11
105.199728
 21
148.650482
 31
0.0
  0
LINE
  5
1FE
330
74
100
AcDbEntity
  8
Calque 1
100
AcDbLine
 10
105.199728
 20
148.650482
 30
0.0
 11
104.539271
 21
148.774836
 31
0.0
  0
LINE
  5
1FF
330
74
100
AcDbEntity
  8
Calque 1
100
AcDbLine
 10
104.539271
 20
148.774836
 30
0.0
 11
104.059363
 21
149.073815
 31
0.0
  0
LINE
  5
200
330
74
100
AcDbEntity
  8
Calque 1
100
AcDbLine
 10
104.059363
 20
149.073815
 30
0.0
 11
103.685507
 21
149.415776
 31
0.0
  0
LINE
  5
201
330
74
100
AcDbEntity
  8
Calque 1
100
AcDbLine
 10
103.685507
 20
149.415776
 30
0.0
 11
103.363246
 21
149.4121
 31
0.0
  0
LINE
  5
202
330
74
100
AcDbEntity
  8
Calque 1
100
AcDbLine
 10
103.363246
 20
149.4121
 30
0.0
 11
103.037214
 21
149.029826
 31
0.0
  0
LINE
  5
203
330
74
100
AcDbEntity
  8
Calque 1
100
AcDbLine
 10
103.037214
 20
149.029826
 30
0.0
 11
102.652045
 21
148.235993
 31
0.0
  0
LINE
  5
204
330
74
100
AcDbEntity
  8
Calque 1
100
AcDbLine
 10
102.652045
 20
148.235993
 30
0.0
 11
102.072552
 21
147.234084
 31
0.0
  0
LINE
  5
205
330
74
100
AcDbEntity
  8
Calque 1
100
AcDbLine
 10
102.072552
 20
147.234084
 30
0.0
 11
101.408114
 21
146.798314
 31
0.0
  0
LINE
  5
206
330
74
100
AcDbEntity
  8
Calque 1
100
AcDbLine
 10
101.408114
 20
146.798314
 30
0.0
 11
100.846379
 21
146.722237
 31
0.0
  0
LINE
  5
207
330
74
100
AcDbEntity
  8
Calque 1
100
AcDbLine
 10
100.846379
 20
146.722237
 30
0.0
 11
100.4394
 21
146.812418
 31
0.0
  0
LINE
  5
208
330
74
100
AcDbEntity
  8
Calque 1
100
AcDbLine
 10
100.4394
 20
146.812418
 30
0.0
 11
100.191812
 21
147.06642
 31
0.0
  0
LINE
  5
209
330
74
100
AcDbEntity
  8
Calque 1
100
AcDbLine
 10
100.191812
 20
147.06642
 30
0.0
 11
100.108252
 21
147.481805
 31
0.0
  0
LINE
  5
20A
330
74
100
AcDbEntity
  8
Calque 1
100
AcDbLine
 10
100.108252
 20
147.481805
 30
0.0
 11
100.011147
 21
147.925922
 31
0.0
  0
LINE
  5
20B
330
74
100
AcDbEntity
  8
Calque 1
100
AcDbLine
 10
100.011147
 20
147.925922
 30
0.0
 11
99.77768000000001
 21
148.303721
 31
0.0
  0
LINE
  5
20C
330
74
100
AcDbEntity
  8
Calque 1
100
AcDbLine
 10
99.77768000000001
 20
148.303721
 30
0.0
 11
99.65968000000001
 21
148.493017
 31
0.0
  0
LINE
  5
20D
330
74
100
AcDbEntity
  8
Calque 1
100
AcDbLine
 10
99.65968000000001
 20
148.493017
 30
0.0
 11
99.693632
 21
148.699673
 31
0.0
  0
LINE
  5
20E
330
74
100
AcDbEntity
  8
Calque 1
100
AcDbLine
 10
99.693632
 20
148.699673
 30
0.0
 11
100.271569
 21
149.27119
 31
0.0
  0
LINE
  5
20F
330
74
100
AcDbEntity
  8
Calque 1
100
AcDbLine
 10
100.271569
 20
149.27119
 30
0.0
 11
102.3794
 21
151.0781
 31
0.0
  0
LINE
  5
210
330
74
100
AcDbEntity
  8
Calque 1
100
AcDbLine
 10
102.3794
 20
151.0781
 30
0.0
 11
103.782347
 21
152.684368
 31
0.0
  0
LINE
  5
211
330
74
100
AcDbEntity
  8
Calque 1
100
AcDbLine
 10
103.782347
 20
152.684368
 30
0.0
 11
104.450124
 21
154.046575
 31
0.0
  0
LINE
  5
212
330
74
100
AcDbEntity
  8
Calque 1
100
AcDbLine
 10
104.450124
 20
154.046575
 30
0.0
 11
104.498859
 21
154.6225879999999
 31
0.0
  0
LINE
  5
213
330
74
100
AcDbEntity
  8
Calque 1
100
AcDbLine
 10
104.498859
 20
154.6225879999999
 30
0.0
 11
104.352443
 21
155.121304
 31
0.0
  0
LINE
  5
214
330
74
100
AcDbEntity
  8
Calque 1
100
AcDbLine
 10
104.352443
 20
155.121304
 30
0.0
 11
104.012537
 21
155.606441
 31
0.0
  0
LINE
  5
215
330
74
100
AcDbEntity
  8
Calque 1
100
AcDbLine
 10
104.012537
 20
155.606441
 30
0.0
 11
103.607722
 21
155.911829
 31
0.0
  0
LINE
  5
216
330
74
100
AcDbEntity
  8
Calque 1
100
AcDbLine
 10
103.607722
 20
155.911829
 30
0.0
 11
103.137241
 21
156.037275
 31
0.0
  0
LINE
  5
217
330
74
100
AcDbEntity
  8
Calque 1
100
AcDbLine
 10
103.137241
 20
156.037275
 30
0.0
 11
102.600339
 21
155.982588
 31
0.0
  0
LINE
  5
218
330
74
100
AcDbEntity
  8
Calque 1
100
AcDbLine
 10
102.600339
 20
155.982588
 30
0.0
 11
101.324246
 21
155.332046
 31
0.0
  0
LINE
  5
219
330
74
100
AcDbEntity
  8
Calque 1
100
AcDbLine
 10
101.324246
 20
155.332046
 30
0.0
 11
99.773396
 21
153.958667
 31
0.0
  0
LINE
  5
21A
330
74
100
AcDbEntity
  8
Calque 1
100
AcDbLine
 10
99.773396
 20
153.958667
 30
0.0
 11
97.04779999999999
 21
150.821333
 31
0.0
  0
LINE
  5
21B
330
74
100
AcDbEntity
  8
Calque 1
100
AcDbLine
 10
97.04779999999999
 20
150.821333
 30
0.0
 11
96.024937
 21
149.328981
 31
0.0
  0
LINE
  5
21C
330
74
100
AcDbEntity
  8
Calque 1
100
AcDbLine
 10
96.024937
 20
149.328981
 30
0.0
 11
95.17584900000001
 21
147.816907
 31
0.0
  0
LINE
  5
21D
330
74
100
AcDbEntity
  8
Calque 1
100
AcDbLine
 10
95.17584900000001
 20
147.816907
 30
0.0
 11
93.94296199999999
 21
145.996375
 31
0.0
  0
LINE
  5
21E
330
74
100
AcDbEntity
  8
Calque 1
100
AcDbLine
 10
93.94296199999999
 20
145.996375
 30
0.0
 11
92.46996300000001
 21
144.6424
 31
0.0
  0
LINE
  5
21F
330
74
100
AcDbEntity
  8
Calque 1
100
AcDbLine
 10
92.46996300000001
 20
144.6424
 30
0.0
 11
91.757301
 21
144.220484
 31
0.0
  0
LINE
  5
220
330
74
100
AcDbEntity
  8
Calque 1
100
AcDbLine
 10
91.757301
 20
144.220484
 30
0.0
 11
91.121268
 21
144.011343
 31
0.0
  0
LINE
  5
221
330
74
100
AcDbEntity
  8
Calque 1
100
AcDbLine
 10
91.121268
 20
144.011343
 30
0.0
 11
90.607413
 21
144.047022
 31
0.0
  0
LINE
  5
222
330
74
100
AcDbEntity
  8
Calque 1
100
AcDbLine
 10
90.607413
 20
144.047022
 30
0.0
 11
90.26129
 21
144.359566
 31
0.0
  0
LINE
  5
223
330
74
100
AcDbEntity
  8
Calque 1
100
AcDbLine
 10
90.26129
 20
144.359566
 30
0.0
 11
90.13798299999999
 21
144.718253
 31
0.0
  0
LINE
  5
224
330
74
100
AcDbEntity
  8
Calque 1
100
AcDbLine
 10
90.13798299999999
 20
144.718253
 30
0.0
 11
90.163031
 21
145.153391
 31
0.0
  0
LINE
  5
225
330
74
100
AcDbEntity
  8
Calque 1
100
AcDbLine
 10
90.163031
 20
145.153391
 30
0.0
 11
90.827033
 21
146.520078
 31
0.0
  0
LINE
  5
226
330
74
100
AcDbEntity
  8
Calque 1
100
AcDbLine
 10
90.827033
 20
146.520078
 30
0.0
 11
92.59097399999999
 21
148.993743
 31
0.0
  0
LINE
  5
227
330
74
100
AcDbEntity
  8
Calque 1
100
AcDbLine
 10
92.59097399999999
 20
148.993743
 30
0.0
 11
95.79252999999999
 21
153.1085
 31
0.0
  0
LINE
  5
228
330
74
100
AcDbEntity
  8
Calque 1
100
AcDbLine
 10
95.79252999999999
 20
153.1085
 30
0.0
 11
96.209558
 21
153.796191
 31
0.0
  0
LINE
  5
229
330
74
100
AcDbEntity
  8
Calque 1
100
AcDbLine
 10
96.209558
 20
153.796191
 30
0.0
 11
96.26114200000001
 21
154.285498
 31
0.0
  0
LINE
  5
22A
330
74
100
AcDbEntity
  8
Calque 1
100
AcDbLine
 10
96.26114200000001
 20
154.285498
 30
0.0
 11
95.965994
 21
154.520756
 31
0.0
  0
LINE
  5
22B
330
74
100
AcDbEntity
  8
Calque 1
100
AcDbLine
 10
95.965994
 20
154.520756
 30
0.0
 11
95.342826
 21
154.446304
 31
0.0
  0
LINE
  5
22C
330
74
100
AcDbEntity
  8
Calque 1
100
AcDbLine
 10
95.342826
 20
154.446304
 30
0.0
 11
94.66492700000001
 21
154.069042
 31
0.0
  0
LINE
  5
22D
330
74
100
AcDbEntity
  8
Calque 1
100
AcDbLine
 10
94.66492700000001
 20
154.069042
 30
0.0
 11
93.761015
 21
153.236279
 31
0.0
  0
LINE
  5
22E
330
74
100
AcDbEntity
  8
Calque 1
100
AcDbLine
 10
93.761015
 20
153.236279
 30
0.0
 11
90.782623
 21
149.690614
 31
0.0
  0
LINE
  5
22F
330
74
100
AcDbEntity
  8
Calque 1
100
AcDbLine
 10
90.782623
 20
149.690614
 30
0.0
 11
88.90963599999999
 21
147.468175
 31
0.0
  0
LINE
  5
230
330
74
100
AcDbEntity
  8
Calque 1
100
AcDbLine
 10
88.90963599999999
 20
147.468175
 30
0.0
 11
87.60411500000001
 21
146.161505
 31
0.0
  0
LINE
  5
231
330
74
100
AcDbEntity
  8
Calque 1
100
AcDbLine
 10
87.60411500000001
 20
146.161505
 30
0.0
 11
84.868669
 21
144.583745
 31
0.0
  0
LINE
  5
232
330
74
100
AcDbEntity
  8
Calque 1
100
AcDbLine
 10
84.868669
 20
144.583745
 30
0.0
 11
83.604724
 21
144.064487
 31
0.0
  0
LINE
  5
233
330
74
100
AcDbEntity
  8
Calque 1
100
AcDbLine
 10
83.604724
 20
144.064487
 30
0.0
 11
82.79766100000001
 21
143.90684
 31
0.0
  0
LINE
  5
234
330
74
100
AcDbEntity
  8
Calque 1
100
AcDbLine
 10
82.79766100000001
 20
143.90684
 30
0.0
 11
82.27655099999999
 21
144.110168
 31
0.0
  0
LINE
  5
235
330
74
100
AcDbEntity
  8
Calque 1
100
AcDbLine
 10
82.27655099999999
 20
144.110168
 30
0.0
 11
82.20673599999999
 21
144.434871
 31
0.0
  0
LINE
  5
236
330
74
100
AcDbEntity
  8
Calque 1
100
AcDbLine
 10
82.20673599999999
 20
144.434871
 30
0.0
 11
82.54663
 21
144.778101
 31
0.0
  0
LINE
  5
237
330
74
100
AcDbEntity
  8
Calque 1
100
AcDbLine
 10
82.54663
 20
144.778101
 30
0.0
 11
83.25464699999999
 21
145.03701
 31
0.0
  0
LINE
  5
238
330
74
100
AcDbEntity
  8
Calque 1
100
AcDbLine
 10
83.25464699999999
 20
145.03701
 30
0.0
 11
84.76638900000001
 21
145.536163
 31
0.0
  0
LINE
  5
239
330
74
100
AcDbEntity
  8
Calque 1
100
AcDbLine
 10
84.76638900000001
 20
145.536163
 30
0.0
 11
85.99641700000001
 21
146.297439
 31
0.0
  0
LINE
  5
23A
330
74
100
AcDbEntity
  8
Calque 1
100
AcDbLine
 10
85.99641700000001
 20
146.297439
 30
0.0
 11
86.82340600000001
 21
147.221439
 31
0.0
  0
LINE
  5
23B
330
74
100
AcDbEntity
  8
Calque 1
100
AcDbLine
 10
86.82340600000001
 20
147.221439
 30
0.0
 11
87.12602999999999
 21
148.208764
 31
0.0
  0
LINE
  5
23C
330
74
100
AcDbEntity
  8
Calque 1
100
AcDbLine
 10
87.12602999999999
 20
148.208764
 30
0.0
 11
87.02515099999999
 21
148.779688
 31
0.0
  0
LINE
  5
23D
330
74
100
AcDbEntity
  8
Calque 1
100
AcDbLine
 10
87.02515099999999
 20
148.779688
 30
0.0
 11
86.71834799999999
 21
149.181502
 31
0.0
  0
LINE
  5
23E
330
74
100
AcDbEntity
  8
Calque 1
100
AcDbLine
 10
86.71834799999999
 20
149.181502
 30
0.0
 11
86.199373
 21
149.419043
 31
0.0
  0
LINE
  5
23F
330
74
100
AcDbEntity
  8
Calque 1
100
AcDbLine
 10
86.199373
 20
149.419043
 30
0.0
 11
85.461977
 21
149.497148
 31
0.0
  0
LINE
  5
240
330
74
100
AcDbEntity
  8
Calque 1
100
AcDbLine
 10
85.461977
 20
149.497148
 30
0.0
 11
84.487953
 21
149.314341
 31
0.0
  0
LINE
  5
241
330
74
100
AcDbEntity
  8
Calque 1
100
AcDbLine
 10
84.487953
 20
149.314341
 30
0.0
 11
83.46859999999999
 21
148.775466
 31
0.0
  0
LINE
  5
242
330
74
100
AcDbEntity
  8
Calque 1
100
AcDbLine
 10
83.46859999999999
 20
148.775466
 30
0.0
 11
82.42473399999999
 21
147.894848
 31
0.0
  0
LINE
  5
243
330
74
100
AcDbEntity
  8
Calque 1
100
AcDbLine
 10
82.42473399999999
 20
147.894848
 30
0.0
 11
81.377172
 21
146.686808
 31
0.0
  0
LINE
  5
244
330
74
100
AcDbEntity
  8
Calque 1
100
AcDbLine
 10
81.377172
 20
146.686808
 30
0.0
 11
79.68391
 21
144.953397
 31
0.0
  0
LINE
  5
245
330
74
100
AcDbEntity
  8
Calque 1
100
AcDbLine
 10
79.68391
 20
144.953397
 30
0.0
 11
78.860934
 21
144.362106
 31
0.0
  0
LINE
  5
246
330
74
100
AcDbEntity
  8
Calque 1
100
AcDbLine
 10
78.860934
 20
144.362106
 30
0.0
 11
78.27327499999999
 21
144.134926
 31
0.0
  0
LINE
  5
247
330
74
100
AcDbEntity
  8
Calque 1
100
AcDbLine
 10
78.27327499999999
 20
144.134926
 30
0.0
 11
78.09491899999999
 21
144.797671
 31
0.0
  0
LINE
  5
248
330
74
100
AcDbEntity
  8
Calque 1
100
AcDbLine
 10
78.09491899999999
 20
144.797671
 30
0.0
 11
78.85823399999999
 21
146.331502
 31
0.0
  0
LINE
  5
249
330
74
100
AcDbEntity
  8
Calque 1
100
AcDbLine
 10
78.85823399999999
 20
146.331502
 30
0.0
 11
80.82448499999999
 21
149.238105
 31
0.0
  0
LINE
  5
24A
330
74
100
AcDbEntity
  8
Calque 1
100
AcDbLine
 10
80.82448499999999
 20
149.238105
 30
0.0
 11
84.097032
 21
153.936083
 31
0.0
  0
LINE
  5
24B
330
74
100
AcDbEntity
  8
Calque 1
100
AcDbLine
 10
84.097032
 20
153.936083
 30
0.0
 11
84.481604
 21
154.740472
 31
0.0
  0
LINE
  5
24C
330
74
100
AcDbEntity
  8
Calque 1
100
AcDbLine
 10
84.481604
 20
154.740472
 30
0.0
 11
84.41063599999999
 21
154.913404
 31
0.0
  0
LINE
  5
24D
330
74
100
AcDbEntity
  8
Calque 1
100
AcDbLine
 10
84.41063599999999
 20
154.913404
 30
0.0
 11
84.17108699999999
 21
155.036315
 31
0.0
  0
LINE
  5
24E
330
74
100
AcDbEntity
  8
Calque 1
100
AcDbLine
 10
84.17108699999999
 20
155.036315
 30
0.0
 11
83.86870700000001
 21
155.056616
 31
0.0
  0
LINE
  5
24F
330
74
100
AcDbEntity
  8
Calque 1
100
AcDbLine
 10
83.86870700000001
 20
155.056616
 30
0.0
 11
83.483183
 21
154.891348
 31
0.0
  0
LINE
  5
250
330
74
100
AcDbEntity
  8
Calque 1
100
AcDbLine
 10
83.483183
 20
154.891348
 30
0.0
 11
82.35464
 21
153.889519
 31
0.0
  0
LINE
  5
251
330
74
100
AcDbEntity
  8
Calque 1
100
AcDbLine
 10
82.35464
 20
153.889519
 30
0.0
 11
80.56933
 21
151.801659
 31
0.0
  0
LINE
  5
252
330
74
100
AcDbEntity
  8
Calque 1
100
AcDbLine
 10
80.56933
 20
151.801659
 30
0.0
 11
77.91112700000001
 21
148.398598
 31
0.0
  0
LINE
  5
253
330
74
100
AcDbEntity
  8
Calque 1
100
AcDbLine
 10
77.91112700000001
 20
148.398598
 30
0.0
 11
77.46674
 21
148.569504
 31
0.0
  0
LINE
  5
254
330
74
100
AcDbEntity
  8
Calque 1
100
AcDbLine
 10
77.46674
 20
148.569504
 30
0.0
 11
76.45555400000001
 21
149.0361
 31
0.0
  0
LINE
  5
255
330
74
100
AcDbEntity
  8
Calque 1
100
AcDbLine
 10
76.45555400000001
 20
149.0361
 30
0.0
 11
75.292925
 21
148.933972
 31
0.0
  0
LINE
  5
256
330
74
100
AcDbEntity
  8
Calque 1
100
AcDbLine
 10
75.292925
 20
148.933972
 30
0.0
 11
73.92900999999999
 21
148.247563
 31
0.0
  0
LINE
  5
257
330
74
100
AcDbEntity
  8
Calque 1
100
AcDbLine
 10
73.92900999999999
 20
148.247563
 30
0.0
 11
72.31396700000001
 21
146.961317
 31
0.0
  0
LINE
  5
258
330
74
100
AcDbEntity
  8
Calque 1
100
AcDbLine
 10
72.31396700000001
 20
146.961317
 30
0.0
 11
70.676093
 21
145.72794
 31
0.0
  0
LINE
  5
259
330
74
100
AcDbEntity
  8
Calque 1
100
AcDbLine
 10
70.676093
 20
145.72794
 30
0.0
 11
68.664363
 21
144.5386
 31
0.0
  0
LINE
  5
25A
330
74
100
AcDbEntity
  8
Calque 1
100
AcDbLine
 10
68.664363
 20
144.5386
 30
0.0
 11
66.747877
 21
143.642354
 31
0.0
  0
LINE
  5
25B
330
74
100
AcDbEntity
  8
Calque 1
100
AcDbLine
 10
66.747877
 20
143.642354
 30
0.0
 11
65.395737
 21
143.288259
 31
0.0
  0
LINE
  5
25C
330
74
100
AcDbEntity
  8
Calque 1
100
AcDbLine
 10
65.395737
 20
143.288259
 30
0.0
 11
64.777445
 21
143.387743
 31
0.0
  0
LINE
  5
25D
330
74
100
AcDbEntity
  8
Calque 1
100
AcDbLine
 10
64.777445
 20
143.387743
 30
0.0
 11
64.32247499999999
 21
143.626926
 31
0.0
  0
LINE
  5
25E
330
74
100
AcDbEntity
  8
Calque 1
100
AcDbLine
 10
64.32247499999999
 20
143.626926
 30
0.0
 11
64.085217
 21
144.045233
 31
0.0
  0
LINE
  5
25F
330
74
100
AcDbEntity
  8
Calque 1
100
AcDbLine
 10
64.085217
 20
144.045233
 30
0.0
 11
63.996131
 21
144.61605
 31
0.0
  0
LINE
  5
260
330
74
100
AcDbEntity
  8
Calque 1
100
AcDbLine
 10
63.996131
 20
144.61605
 30
0.0
 11
64.057404
 21
145.245064
 31
0.0
  0
LINE
  5
261
330
74
100
AcDbEntity
  8
Calque 1
100
AcDbLine
 10
64.057404
 20
145.245064
 30
0.0
 11
64.27122
 21
145.837959
 31
0.0
  0
LINE
  5
262
330
74
100
AcDbEntity
  8
Calque 1
100
AcDbLine
 10
64.27122
 20
145.837959
 30
0.0
 11
64.814728
 21
146.419675
 31
0.0
  0
LINE
  5
263
330
74
100
AcDbEntity
  8
Calque 1
100
AcDbLine
 10
64.814728
 20
146.419675
 30
0.0
 11
65.79247200000001
 21
147.064739
 31
0.0
  0
LINE
  5
264
330
74
100
AcDbEntity
  8
Calque 1
100
AcDbLine
 10
65.79247200000001
 20
147.064739
 30
0.0
 11
67.066626
 21
147.69509
 31
0.0
  0
LINE
  5
265
330
74
100
AcDbEntity
  8
Calque 1
100
AcDbLine
 10
67.066626
 20
147.69509
 30
0.0
 11
68.499363
 21
148.232668
 31
0.0
  0
LINE
  5
266
330
74
100
AcDbEntity
  8
Calque 1
100
AcDbLine
 10
68.499363
 20
148.232668
 30
0.0
 11
69.99948499999999
 21
148.808309
 31
0.0
  0
LINE
  5
267
330
74
100
AcDbEntity
  8
Calque 1
100
AcDbLine
 10
69.99948499999999
 20
148.808309
 30
0.0
 11
70.724046
 21
149.30288
 31
0.0
  0
LINE
  5
268
330
74
100
AcDbEntity
  8
Calque 1
100
AcDbLine
 10
70.724046
 20
149.30288
 30
0.0
 11
70.779877
 21
149.498714
 31
0.0
  0
LINE
  5
269
330
74
100
AcDbEntity
  8
Calque 1
100
AcDbLine
 10
70.779877
 20
149.498714
 30
0.0
 11
70.623081
 21
149.649021
 31
0.0
  0
LINE
  5
26A
330
74
100
AcDbEntity
  8
Calque 1
100
AcDbLine
 10
70.623081
 20
149.649021
 30
0.0
 11
69.646625
 21
149.77937
 31
0.0
  0
LINE
  5
26B
330
74
100
AcDbEntity
  8
Calque 1
100
AcDbLine
 10
69.646625
 20
149.77937
 30
0.0
 11
67.81218100000001
 21
150.054608
 31
0.0
  0
LINE
  5
26C
330
74
100
AcDbEntity
  8
Calque 1
100
AcDbLine
 10
67.81218100000001
 20
150.054608
 30
0.0
 11
67.32337099999999
 21
150.366334
 31
0.0
  0
LINE
  5
26D
330
74
100
AcDbEntity
  8
Calque 1
100
AcDbLine
 10
67.32337099999999
 20
150.366334
 30
0.0
 11
67.11023
 21
150.797195
 31
0.0
  0
LINE
  5
26E
330
74
100
AcDbEntity
  8
Calque 1
100
AcDbLine
 10
67.11023
 20
150.797195
 30
0.0
 11
67.15091899999999
 21
151.313765
 31
0.0
  0
LINE
  5
26F
330
74
100
AcDbEntity
  8
Calque 1
100
AcDbLine
 10
67.15091899999999
 20
151.313765
 30
0.0
 11
67.42360500000001
 21
151.882617
 31
0.0
  0
LINE
  5
270
330
74
100
AcDbEntity
  8
Calque 1
100
AcDbLine
 10
67.42360500000001
 20
151.882617
 30
0.0
 11
68.57762
 21
153.043465
 31
0.0
  0
LINE
  5
271
330
74
100
AcDbEntity
  8
Calque 1
100
AcDbLine
 10
68.57762
 20
153.043465
 30
0.0
 11
70.397587
 21
154.012328
 31
0.0
  0
LINE
  5
272
330
74
100
AcDbEntity
  8
Calque 1
100
AcDbLine
 10
70.397587
 20
154.012328
 30
0.0
 11
72.07177800000001
 21
154.48939
 31
0.0
  0
LINE
  5
273
330
74
100
AcDbEntity
  8
Calque 1
100
AcDbLine
 10
72.07177800000001
 20
154.48939
 30
0.0
 11
73.19467
 21
154.546013
 31
0.0
  0
LINE
  5
274
330
74
100
AcDbEntity
  8
Calque 1
100
AcDbLine
 10
73.19467
 20
154.546013
 30
0.0
 11
73.478071
 21
154.429588
 31
0.0
  0
LINE
  5
275
330
74
100
AcDbEntity
  8
Calque 1
100
AcDbLine
 10
73.478071
 20
154.429588
 30
0.0
 11
73.538076
 21
154.223566
 31
0.0
  0
LINE
  5
276
330
74
100
AcDbEntity
  8
Calque 1
100
AcDbLine
 10
73.538076
 20
154.223566
 30
0.0
 11
72.873808
 21
153.5634169999999
 31
0.0
  0
LINE
  5
277
330
74
100
AcDbEntity
  8
Calque 1
100
AcDbLine
 10
72.873808
 20
153.5634169999999
 30
0.0
 11
72.50271600000001
 21
153.235006
 31
0.0
  0
LINE
  5
278
330
74
100
AcDbEntity
  8
Calque 1
100
AcDbLine
 10
72.50271600000001
 20
153.235006
 30
0.0
 11
72.28782599999999
 21
152.865552
 31
0.0
  0
LINE
  5
279
330
74
100
AcDbEntity
  8
Calque 1
100
AcDbLine
 10
72.28782599999999
 20
152.865552
 30
0.0
 11
72.277961
 21
152.134408
 31
0.0
  0
LINE
  5
27A
330
74
100
AcDbEntity
  8
Calque 1
100
AcDbLine
 10
72.277961
 20
152.134408
 30
0.0
 11
72.74682099999999
 21
151.631768
 31
0.0
  0
LINE
  5
27B
330
74
100
AcDbEntity
  8
Calque 1
100
AcDbLine
 10
72.74682099999999
 20
151.631768
 30
0.0
 11
73.13034
 21
151.547945
 31
0.0
  0
LINE
  5
27C
330
74
100
AcDbEntity
  8
Calque 1
100
AcDbLine
 10
73.13034
 20
151.547945
 30
0.0
 11
73.59701899999999
 21
151.619417
 31
0.0
  0
LINE
  5
27D
330
74
100
AcDbEntity
  8
Calque 1
100
AcDbLine
 10
73.59701899999999
 20
151.619417
 30
0.0
 11
74.414324
 21
152.076762
 31
0.0
  0
LINE
  5
27E
330
74
100
AcDbEntity
  8
Calque 1
100
AcDbLine
 10
74.414324
 20
152.076762
 30
0.0
 11
75.33627299999999
 21
152.847626
 31
0.0
  0
LINE
  5
27F
330
74
100
AcDbEntity
  8
Calque 1
100
AcDbLine
 10
75.33627299999999
 20
152.847626
 30
0.0
 11
76.089736
 21
153.671957
 31
0.0
  0
LINE
  5
280
330
74
100
AcDbEntity
  8
Calque 1
100
AcDbLine
 10
76.089736
 20
153.671957
 30
0.0
 11
76.40158599999999
 21
154.289705
 31
0.0
  0
LINE
  5
281
330
74
100
AcDbEntity
  8
Calque 1
100
AcDbLine
 10
76.40158599999999
 20
154.289705
 30
0.0
 11
76.21393799999999
 21
154.953849
 31
0.0
  0
LINE
  5
282
330
74
100
AcDbEntity
  8
Calque 1
100
AcDbLine
 10
76.21393799999999
 20
154.953849
 30
0.0
 11
75.723663
 21
155.605511
 31
0.0
  0
LINE
  5
283
330
74
100
AcDbEntity
  8
Calque 1
100
AcDbLine
 10
75.723663
 20
155.605511
 30
0.0
 11
75.039761
 21
156.135038
 31
0.0
  0
LINE
  5
284
330
74
100
AcDbEntity
  8
Calque 1
100
AcDbLine
 10
75.039761
 20
156.135038
 30
0.0
 11
74.27123399999999
 21
156.432779
 31
0.0
  0
LINE
  5
285
330
74
100
AcDbEntity
  8
Calque 1
100
AcDbLine
 10
74.27123399999999
 20
156.432779
 30
0.0
 11
73.229265
 21
156.495203
 31
0.0
  0
LINE
  5
286
330
74
100
AcDbEntity
  8
Calque 1
100
AcDbLine
 10
73.229265
 20
156.495203
 30
0.0
 11
71.988342
 21
156.359087
 31
0.0
  0
LINE
  5
287
330
74
100
AcDbEntity
  8
Calque 1
100
AcDbLine
 10
71.988342
 20
156.359087
 30
0.0
 11
69.23863
 21
155.610939
 31
0.0
  0
LINE
  5
288
330
74
100
AcDbEntity
  8
Calque 1
100
AcDbLine
 10
69.23863
 20
155.610939
 30
0.0
 11
66.680095
 21
154.427739
 31
0.0
  0
LINE
  5
289
330
74
100
AcDbEntity
  8
Calque 1
100
AcDbLine
 10
66.680095
 20
154.427739
 30
0.0
 11
65.67814300000001
 21
153.747809
 31
0.0
  0
LINE
  5
28A
330
74
100
AcDbEntity
  8
Calque 1
100
AcDbLine
 10
65.67814300000001
 20
153.747809
 30
0.0
 11
64.970733
 21
153.048892
 31
0.0
  0
LINE
  5
28B
330
74
100
AcDbEntity
  8
Calque 1
100
AcDbLine
 10
64.970733
 20
153.048892
 30
0.0
 11
64.44548499999999
 21
152.145561
 31
0.0
  0
LINE
  5
28C
330
74
100
AcDbEntity
  8
Calque 1
100
AcDbLine
 10
64.44548499999999
 20
152.145561
 30
0.0
 11
64.28096700000001
 21
151.302516
 31
0.0
  0
LINE
  5
28D
330
74
100
AcDbEntity
  8
Calque 1
100
AcDbLine
 10
64.28096700000001
 20
151.302516
 30
0.0
 11
64.47670200000001
 21
150.544235
 31
0.0
  0
LINE
  5
28E
330
74
100
AcDbEntity
  8
Calque 1
100
AcDbLine
 10
64.47670200000001
 20
150.544235
 30
0.0
 11
65.03221299999999
 21
149.895194
 31
0.0
  0
LINE
  5
28F
330
74
100
AcDbEntity
  8
Calque 1
100
AcDbLine
 10
65.03221299999999
 20
149.895194
 30
0.0
 11
65.79839799999999
 21
149.284262
 31
0.0
  0
LINE
  5
290
330
74
100
AcDbEntity
  8
Calque 1
100
AcDbLine
 10
65.79839799999999
 20
149.284262
 30
0.0
 11
64.08210600000001
 21
148.41788
 31
0.0
  0
LINE
  5
291
330
74
100
AcDbEntity
  8
Calque 1
100
AcDbLine
 10
64.08210600000001
 20
148.41788
 30
0.0
 11
62.68131999999999
 21
147.585909
 31
0.0
  0
LINE
  5
292
330
74
100
AcDbEntity
  8
Calque 1
100
AcDbLine
 10
62.68131999999999
 20
147.585909
 30
0.0
 11
61.680417
 21
146.7062
 31
0.0
  0
LINE
  5
293
330
74
100
AcDbEntity
  8
Calque 1
100
AcDbLine
 10
61.680417
 20
146.7062
 30
0.0
 11
61.079673
 21
145.779063
 31
0.0
  0
LINE
  5
294
330
74
100
AcDbEntity
  8
Calque 1
100
AcDbLine
 10
61.079673
 20
145.779063
 30
0.0
 11
60.87936299999999
 21
144.804811
 31
0.0
  0
LINE
  5
295
330
74
100
AcDbEntity
  8
Calque 1
100
AcDbLine
 10
60.87936299999999
 20
144.804811
 30
0.0
 11
61.066885
 21
143.556423
 31
0.0
  0
LINE
  5
296
330
74
100
AcDbEntity
  8
Calque 1
100
AcDbLine
 10
61.066885
 20
143.556423
 30
0.0
 11
61.65460799999999
 21
142.565103
 31
0.0
  0
LINE
  5
297
330
74
100
AcDbEntity
  8
Calque 1
100
AcDbLine
 10
61.65460799999999
 20
142.565103
 30
0.0
 11
62.680267
 21
141.789528
 31
0.0
  0
LINE
  5
298
330
74
100
AcDbEntity
  8
Calque 1
100
AcDbLine
 10
62.680267
 20
141.789528
 30
0.0
 11
64.18159799999999
 21
141.188371
 31
0.0
  0
LINE
  5
299
330
74
100
AcDbEntity
  8
Calque 1
100
AcDbLine
 10
64.18159799999999
 20
141.188371
 30
0.0
 11
65.02008700000001
 21
141.1318
 31
0.0
  0
LINE
  5
29A
330
74
100
AcDbEntity
  8
Calque 1
100
AcDbLine
 10
65.02008700000001
 20
141.1318
 30
0.0
 11
66.08993000000001
 21
141.378605
 31
0.0
  0
LINE
  5
29B
330
74
100
AcDbEntity
  8
Calque 1
100
AcDbLine
 10
66.08993000000001
 20
141.378605
 30
0.0
 11
67.346446
 21
141.913766
 31
0.0
  0
LINE
  5
29C
330
74
100
AcDbEntity
  8
Calque 1
100
AcDbLine
 10
67.346446
 20
141.913766
 30
0.0
 11
68.744956
 21
142.722265
 31
0.0
  0
LINE
  5
29D
330
74
100
AcDbEntity
  8
Calque 1
100
AcDbLine
 10
68.744956
 20
142.722265
 30
0.0
 11
70.64182800000001
 21
143.785173
 31
0.0
  0
LINE
  5
29E
330
74
100
AcDbEntity
  8
Calque 1
100
AcDbLine
 10
70.64182800000001
 20
143.785173
 30
0.0
 11
70.96622700000001
 21
143.770477
 31
0.0
  0
LINE
  5
29F
330
74
100
AcDbEntity
  8
Calque 1
100
AcDbLine
 10
70.96622700000001
 20
143.770477
 30
0.0
 11
70.92945799999999
 21
143.408926
 31
0.0
  0
LINE
  5
2A0
330
74
100
AcDbEntity
  8
Calque 1
100
AcDbLine
 10
70.92945799999999
 20
143.408926
 30
0.0
 11
70.886222
 21
142.902331
 31
0.0
  0
LINE
  5
2A1
330
74
100
AcDbEntity
  8
Calque 1
100
AcDbLine
 10
70.886222
 20
142.902331
 30
0.0
 11
71.075917
 21
142.405477
 31
0.0
  0
LINE
  5
2A2
330
74
100
AcDbEntity
  8
Calque 1
100
AcDbLine
 10
71.075917
 20
142.405477
 30
0.0
 11
71.430687
 21
142.027404
 31
0.0
  0
LINE
  5
2A3
330
74
100
AcDbEntity
  8
Calque 1
100
AcDbLine
 10
71.430687
 20
142.027404
 30
0.0
 11
71.88268
 21
141.877148
 31
0.0
  0
LINE
  5
2A4
330
74
100
AcDbEntity
  8
Calque 1
100
AcDbLine
 10
71.88268
 20
141.877148
 30
0.0
 11
73.18659499999999
 21
142.213989
 31
0.0
  0
LINE
  5
2A5
330
74
100
AcDbEntity
  8
Calque 1
100
AcDbLine
 10
73.18659499999999
 20
142.213989
 30
0.0
 11
74.778554
 21
143.08187
 31
0.0
  0
LINE
  5
2A6
330
74
100
AcDbEntity
  8
Calque 1
100
AcDbLine
 10
74.778554
 20
143.08187
 30
0.0
 11
75.55441400000001
 21
143.608556
 31
0.0
  0
LINE
  5
2A7
330
74
100
AcDbEntity
  8
Calque 1
100
AcDbLine
 10
75.55441400000001
 20
143.608556
 30
0.0
 11
75.83265400000001
 21
142.876731
 31
0.0
  0
LINE
  5
2A8
330
74
100
AcDbEntity
  8
Calque 1
100
AcDbLine
 10
75.83265400000001
 20
142.876731
 30
0.0
 11
76.34874100000001
 21
142.1510669999999
 31
0.0
  0
LINE
  5
2A9
330
74
100
AcDbEntity
  8
Calque 1
100
AcDbLine
 10
76.34874100000001
 20
142.1510669999999
 30
0.0
 11
77.117885
 21
141.902985
 31
0.0
  0
LINE
  5
2AA
330
74
100
AcDbEntity
  8
Calque 1
100
AcDbLine
 10
77.117885
 20
141.902985
 30
0.0
 11
78.07119200000001
 21
142.1332
 31
0.0
  0
LINE
  5
2AB
330
74
100
AcDbEntity
  8
Calque 1
100
AcDbLine
 10
78.07119200000001
 20
142.1332
 30
0.0
 11
79.139768
 21
142.842427
 31
0.0
  0
LINE
  5
2AC
330
74
100
AcDbEntity
  8
Calque 1
100
AcDbLine
 10
79.139768
 20
142.842427
 30
0.0
 11
79.929186
 21
143.521457
 31
0.0
  0
LINE
  5
2AD
330
74
100
AcDbEntity
  8
Calque 1
100
AcDbLine
 10
79.929186
 20
143.521457
 30
0.0
 11
80.65038499999999
 21
142.657575
 31
0.0
  0
LINE
  5
2AE
330
74
100
AcDbEntity
  8
Calque 1
100
AcDbLine
 10
80.65038499999999
 20
142.657575
 30
0.0
 11
81.42537500000001
 21
141.967709
 31
0.0
  0
LINE
  5
2AF
330
74
100
AcDbEntity
  8
Calque 1
100
AcDbLine
 10
81.42537500000001
 20
141.967709
 30
0.0
 11
82.420655
 21
141.9905
 31
0.0
  0
LINE
  5
2B0
330
74
100
AcDbEntity
  8
Calque 1
100
AcDbLine
 10
82.420655
 20
141.9905
 30
0.0
 11
83.71036600000001
 21
142.415553
 31
0.0
  0
LINE
  5
2B1
330
74
100
AcDbEntity
  8
Calque 1
100
AcDbLine
 10
83.71036600000001
 20
142.415553
 30
0.0
 11
85.33799700000001
 21
143.161118
 31
0.0
  0
LINE
  5
2B2
330
74
100
AcDbEntity
  8
Calque 1
100
AcDbLine
 10
85.33799700000001
 20
143.161118
 30
0.0
 11
87.30725900000001
 21
144.134926
 31
0.0
  0
LINE
  5
2B3
330
74
100
AcDbEntity
  8
Calque 1
100
AcDbLine
 10
87.30725900000001
 20
144.134926
 30
0.0
 11
87.40825200000001
 21
143.608542
 31
0.0
  0
LINE
  5
2B4
330
74
100
AcDbEntity
  8
Calque 1
100
AcDbLine
 10
87.40825200000001
 20
143.608542
 30
0.0
 11
87.58634200000001
 21
142.973669
 31
0.0
  0
LINE
  5
2B5
330
74
100
AcDbEntity
  8
Calque 1
100
AcDbLine
 10
87.58634200000001
 20
142.973669
 30
0.0
 11
88.02691199999999
 21
142.317071
 31
0.0
  0
LINE
  5
2B6
330
74
100
AcDbEntity
  8
Calque 1
100
AcDbLine
 10
88.02691199999999
 20
142.317071
 30
0.0
 11
88.58941800000001
 21
141.802805
 31
0.0
  0
LINE
  5
2B7
330
74
100
AcDbEntity
  8
Calque 1
100
AcDbLine
 10
88.58941800000001
 20
141.802805
 30
0.0
 11
89.13331300000001
 21
141.594926
 31
0.0
  0
LINE
  5
2B8
330
74
100
AcDbEntity
  8
Calque 1
100
AcDbLine
 10
89.13331300000001
 20
141.594926
 30
0.0
 11
90.760932
 21
142.148559
 31
0.0
  0
LINE
  5
2B9
330
74
100
AcDbEntity
  8
Calque 1
100
AcDbLine
 10
90.760932
 20
142.148559
 30
0.0
 11
92.87021199999999
 21
143.365108
 31
0.0
  0
LINE
  5
2BA
330
74
100
AcDbEntity
  8
Calque 1
100
AcDbLine
 10
92.87021199999999
 20
143.365108
 30
0.0
 11
93.57001999999999
 21
143.750686
 31
0.0
  0
LINE
  5
2BB
330
74
100
AcDbEntity
  8
Calque 1
100
AcDbLine
 10
93.57001999999999
 20
143.750686
 30
0.0
 11
93.76641799999999
 21
143.715882
 31
0.0
  0
LINE
  5
2BC
330
74
100
AcDbEntity
  8
Calque 1
100
AcDbLine
 10
93.76641799999999
 20
143.715882
 30
0.0
 11
93.924222
 21
143.5399229999999
 31
0.0
  0
LINE
  5
2BD
330
74
100
AcDbEntity
  8
Calque 1
100
AcDbLine
 10
93.924222
 20
143.5399229999999
 30
0.0
 11
94.177265
 21
142.8042989999999
 31
0.0
  0
LINE
  5
2BE
330
74
100
AcDbEntity
  8
Calque 1
100
AcDbLine
 10
94.177265
 20
142.8042989999999
 30
0.0
 11
94.34183199999999
 21
142.457932
 31
0.0
  0
LINE
  5
2BF
330
74
100
AcDbEntity
  8
Calque 1
100
AcDbLine
 10
94.34183199999999
 20
142.457932
 30
0.0
 11
94.771867
 21
142.161612
 31
0.0
  0
LINE
  5
2C0
330
74
100
AcDbEntity
  8
Calque 1
100
AcDbLine
 10
94.771867
 20
142.161612
 30
0.0
 11
95.38541700000001
 21
141.954849
 31
0.0
  0
LINE
  5
2C1
330
74
100
AcDbEntity
  8
Calque 1
100
AcDbLine
 10
95.38541700000001
 20
141.954849
 30
0.0
 11
96.100527
 21
141.877148
 31
0.0
  0
LINE
  5
2C2
330
74
100
AcDbEntity
  8
Calque 1
100
AcDbLine
 10
96.100527
 20
141.877148
 30
0.0
 11
96.85266999999999
 21
142.020309
 31
0.0
  0
LINE
  5
2C3
330
74
100
AcDbEntity
  8
Calque 1
100
AcDbLine
 10
96.85266999999999
 20
142.020309
 30
0.0
 11
97.60283000000001
 21
142.435685
 31
0.0
  0
LINE
  5
2C4
330
74
100
AcDbEntity
  8
Calque 1
100
AcDbLine
 10
97.60283000000001
 20
142.435685
 30
0.0
 11
98.32226300000002
 21
143.102117
 31
0.0
  0
LINE
  5
2C5
330
74
100
AcDbEntity
  8
Calque 1
100
AcDbLine
 10
98.32226300000002
 20
143.102117
 30
0.0
 11
98.98222199999999
 21
143.9984429999999
 31
0.0
  0
LINE
  5
2C6
330
74
100
AcDbEntity
  8
Calque 1
100
AcDbLine
 10
98.98222199999999
 20
143.9984429999999
 30
0.0
 11
99.61038700000001
 21
144.749458
 31
0.0
  0
LINE
  5
2C7
330
74
100
AcDbEntity
  8
Calque 1
100
AcDbLine
 10
99.61038700000001
 20
144.749458
 30
0.0
 11
100.284472
 21
144.981593
 31
0.0
  0
LINE
  5
2C8
330
74
100
AcDbEntity
  8
Calque 1
100
AcDbLine
 10
100.284472
 20
144.981593
 30
0.0
 11
101.150478
 21
145.310731
 31
0.0
  0
LINE
  5
2C9
330
74
100
AcDbEntity
  8
Calque 1
100
AcDbLine
 10
101.150478
 20
145.310731
 30
0.0
 11
102.307565
 21
146.198905
 31
0.0
  0
LINE
  5
2CA
330
74
100
AcDbEntity
  8
Calque 1
100
AcDbLine
 10
102.307565
 20
146.198905
 30
0.0
 11
103.404766
 21
147.048657
 31
0.0
  0
LINE
  5
2CB
330
74
100
AcDbEntity
  8
Calque 1
100
AcDbLine
 10
103.404766
 20
147.048657
 30
0.0
 11
104.129919
 21
147.307098
 31
0.0
  0
LINE
  5
2CC
330
74
100
AcDbEntity
  8
Calque 1
100
AcDbLine
 10
104.129919
 20
147.307098
 30
0.0
 11
104.501503
 21
147.182392
 31
0.0
  0
LINE
  5
2CD
330
74
100
AcDbEntity
  8
Calque 1
100
AcDbLine
 10
104.501503
 20
147.182392
 30
0.0
 11
104.541016
 21
146.95689
 31
0.0
  0
LINE
  5
2CE
330
74
100
AcDbEntity
  8
Calque 1
100
AcDbLine
 10
104.541016
 20
146.95689
 30
0.0
 11
103.40163
 21
145.718983
 31
0.0
  0
LINE
  5
2CF
330
74
100
AcDbEntity
  8
Calque 1
100
AcDbLine
 10
103.40163
 20
145.718983
 30
0.0
 11
102.562811
 21
144.810178
 31
0.0
  0
LINE
  5
2D0
330
74
100
AcDbEntity
  8
Calque 1
100
AcDbLine
 10
102.562811
 20
144.810178
 30
0.0
 11
102.101821
 21
144.050563
 31
0.0
  0
LINE
  5
2D1
330
74
100
AcDbEntity
  8
Calque 1
100
AcDbLine
 10
102.101821
 20
144.050563
 30
0.0
 11
101.988691
 21
143.364684
 31
0.0
  0
LINE
  5
2D2
330
74
100
AcDbEntity
  8
Calque 1
100
AcDbLine
 10
101.988691
 20
143.364684
 30
0.0
 11
102.193451
 21
142.677085
 31
0.0
  0
LINE
  5
2D3
330
74
100
AcDbEntity
  8
Calque 1
100
AcDbLine
 10
102.193451
 20
142.677085
 30
0.0
 11
102.723078
 21
142.089034
 31
0.0
  0
LINE
  5
2D4
330
74
100
AcDbEntity
  8
Calque 1
100
AcDbLine
 10
102.723078
 20
142.089034
 30
0.0
 11
103.504454
 21
141.922701
 31
0.0
  0
LINE
  5
2D5
330
74
100
AcDbEntity
  8
Calque 1
100
AcDbLine
 10
103.504454
 20
141.922701
 30
0.0
 11
104.514867
 21
142.176972
 31
0.0
  0
LINE
  5
2D6
330
74
100
AcDbEntity
  8
Calque 1
100
AcDbLine
 10
104.514867
 20
142.176972
 30
0.0
 11
105.731606
 21
142.850733
 31
0.0
  0
LINE
  5
2D7
330
74
100
AcDbEntity
  8
Calque 1
100
AcDbLine
 10
105.731606
 20
142.850733
 30
0.0
 11
107.329492
 21
143.852704
 31
0.0
  0
LINE
  5
2D8
330
74
100
AcDbEntity
  8
Calque 1
100
AcDbLine
 10
107.329492
 20
143.852704
 30
0.0
 11
107.846978
 21
142.87497
 31
0.0
  0
LINE
  5
2D9
330
74
100
AcDbEntity
  8
Calque 1
100
AcDbLine
 10
107.846978
 20
142.87497
 30
0.0
 11
108.262623
 21
142.2032
 31
0.0
  0
LINE
  5
2DA
330
74
100
AcDbEntity
  8
Calque 1
100
AcDbLine
 10
108.262623
 20
142.2032
 30
0.0
 11
108.836549
 21
141.780853
 31
0.0
  0
LINE
  5
2DB
330
74
100
AcDbEntity
  8
Calque 1
100
AcDbLine
 10
108.836549
 20
141.780853
 30
0.0
 11
109.554991
 21
141.614202
 31
0.0
  0
LINE
  5
2DC
330
74
100
AcDbEntity
  8
Calque 1
100
AcDbLine
 10
109.554991
 20
141.614202
 30
0.0
 11
110.404188
 21
141.70952
 31
0.0
  0
LINE
  5
2DD
330
74
100
AcDbEntity
  8
Calque 1
100
AcDbLine
 10
110.404188
 20
141.70952
 30
0.0
 11
111.176501
 21
142.07685
 31
0.0
  0
LINE
  5
2DE
330
74
100
AcDbEntity
  8
Calque 1
100
AcDbLine
 10
111.176501
 20
142.07685
 30
0.0
 11
112.076188
 21
142.753716
 31
0.0
  0
LINE
  5
2DF
330
74
100
AcDbEntity
  8
Calque 1
100
AcDbLine
 10
112.076188
 20
142.753716
 30
0.0
 11
112.933175
 21
143.593299
 31
0.0
  0
LINE
  5
2E0
330
74
100
AcDbEntity
  8
Calque 1
100
AcDbLine
 10
112.933175
 20
143.593299
 30
0.0
 11
113.577387
 21
144.448783
 31
0.0
  0
LINE
  5
2E1
330
74
100
AcDbEntity
  8
Calque 1
100
AcDbLine
 10
113.577387
 20
144.448783
 30
0.0
 11
114.084984
 21
145.033939
 31
0.0
  0
LINE
  5
2E2
330
74
100
AcDbEntity
  8
Calque 1
100
AcDbLine
 10
114.084984
 20
145.033939
 30
0.0
 11
114.632991
 21
145.263809
 31
0.0
  0
LINE
  5
2E3
330
74
100
AcDbEntity
  8
Calque 1
100
AcDbLine
 10
114.632991
 20
145.263809
 30
0.0
 11
114.930308
 21
145.215579
 31
0.0
  0
LINE
  5
2E4
330
74
100
AcDbEntity
  8
Calque 1
100
AcDbLine
 10
114.930308
 20
145.215579
 30
0.0
 11
115.112127
 21
145.025992
 31
0.0
  0
LINE
  5
2E5
330
74
100
AcDbEntity
  8
Calque 1
100
AcDbLine
 10
115.112127
 20
145.025992
 30
0.0
 11
115.257713
 21
143.953316
 31
0.0
  0
LINE
  5
2E6
330
74
100
AcDbEntity
  8
Calque 1
100
AcDbLine
 10
115.257713
 20
143.953316
 30
0.0
 11
115.376189
 21
143.036148
 31
0.0
  0
LINE
  5
2E7
330
74
100
AcDbEntity
  8
Calque 1
100
AcDbLine
 10
115.376189
 20
143.036148
 30
0.0
 11
115.653479
 21
142.363241
 31
0.0
  0
LINE
  5
2E8
330
74
100
AcDbEntity
  8
Calque 1
100
AcDbLine
 10
115.653479
 20
142.363241
 30
0.0
 11
116.0927
 21
141.934308
 31
0.0
  0
LINE
  5
2E9
330
74
100
AcDbEntity
  8
Calque 1
100
AcDbLine
 10
116.0927
 20
141.934308
 30
0.0
 11
116.696971
 21
141.74906
 31
0.0
  0
LINE
  5
2EA
330
74
100
AcDbEntity
  8
Calque 1
100
AcDbLine
 10
116.696971
 20
141.74906
 30
0.0
 11
117.46941
 21
141.807209
 31
0.0
  0
LINE
  5
2EB
330
74
100
AcDbEntity
  8
Calque 1
100
AcDbLine
 10
117.46941
 20
141.807209
 30
0.0
 11
118.413136
 21
142.108467
 31
0.0
  0
LINE
  5
2EC
330
74
100
AcDbEntity
  8
Calque 1
100
AcDbLine
 10
118.413136
 20
142.108467
 30
0.0
 11
120.826919
 21
143.439161
 31
0.0
  0
LINE
  5
2ED
330
74
100
AcDbEntity
  8
Calque 1
100
AcDbLine
 10
120.826919
 20
143.439161
 30
0.0
 11
121.600189
 21
143.945826
 31
0.0
  0
LINE
  5
2EE
330
74
100
AcDbEntity
  8
Calque 1
100
AcDbLine
 10
121.600189
 20
143.945826
 30
0.0
 11
121.406703
 21
142.914467
 31
0.0
  0
LINE
  5
2EF
330
74
100
AcDbEntity
  8
Calque 1
100
AcDbLine
 10
121.406703
 20
142.914467
 30
0.0
 11
121.348844
 21
142.045817
 31
0.0
  0
LINE
  5
2F0
330
74
100
AcDbEntity
  8
Calque 1
100
AcDbLine
 10
121.348844
 20
142.045817
 30
0.0
 11
121.717971
 21
141.689417
 31
0.0
  0
LINE
  5
2F1
330
74
100
AcDbEntity
  8
Calque 1
100
AcDbLine
 10
121.717971
 20
141.689417
 30
0.0
 11
122.018658
 21
141.668746
 31
0.0
  0
LINE
  5
2F2
330
74
100
AcDbEntity
  8
Calque 1
100
AcDbLine
 10
122.018658
 20
141.668746
 30
0.0
 11
122.383058
 21
141.839169
 31
0.0
  0
LINE
  5
2F3
330
74
100
AcDbEntity
  8
Calque 1
100
AcDbLine
 10
122.383058
 20
141.839169
 30
0.0
 11
123.45153
 21
142.852988
 31
0.0
  0
LINE
  5
2F4
330
74
100
AcDbEntity
  8
Calque 1
100
AcDbLine
 10
123.45153
 20
142.852988
 30
0.0
 11
124.761848
 21
144.10203
 31
0.0
  0
LINE
  5
2F5
330
74
100
AcDbEntity
  8
Calque 1
100
AcDbLine
 10
124.761848
 20
144.10203
 30
0.0
 11
125.603409
 21
142.66627
 31
0.0
  0
LINE
  5
2F6
330
74
100
AcDbEntity
  8
Calque 1
100
AcDbLine
 10
125.603409
 20
142.66627
 30
0.0
 11
126.551058
 21
141.319125
 31
0.0
  0
LINE
  5
2F7
330
74
100
AcDbEntity
  8
Calque 1
100
AcDbLine
 10
126.551058
 20
141.319125
 30
0.0
 11
127.531142
 21
140.617007
 31
0.0
  0
LINE
  5
2F8
330
74
100
AcDbEntity
  8
Calque 1
100
AcDbLine
 10
127.531142
 20
140.617007
 30
0.0
 11
128.062713
 21
140.496645
 31
0.0
  0
LINE
  5
2F9
330
74
100
AcDbEntity
  8
Calque 1
100
AcDbLine
 10
128.062713
 20
140.496645
 30
0.0
 11
128.637631
 21
140.524112
 31
0.0
  0
LINE
  5
2FA
330
74
100
AcDbEntity
  8
Calque 1
100
AcDbLine
 10
128.637631
 20
140.524112
 30
0.0
 11
129.964496
 21
141.004636
 31
0.0
  0
LINE
  5
2FB
330
74
100
AcDbEntity
  8
Calque 1
100
AcDbLine
 10
129.964496
 20
141.004636
 30
0.0
 11
129.964496
 21
141.004636
 31
0.0
  0
LINE
  5
2FC
330
74
100
AcDbEntity
  8
Calque 1
100
AcDbLine
 10
72.82785099999999
 20
144.294034
 30
0.0
 11
72.790612
 21
144.906324
 31
0.0
  0
LINE
  5
2FD
330
74
100
AcDbEntity
  8
Calque 1
100
AcDbLine
 10
72.790612
 20
144.906324
 30
0.0
 11
73.09635899999999
 21
145.582522
 31
0.0
  0
LINE
  5
2FE
330
74
100
AcDbEntity
  8
Calque 1
100
AcDbLine
 10
73.09635899999999
 20
145.582522
 30
0.0
 11
73.718396
 21
146.28302
 31
0.0
  0
LINE
  5
2FF
330
74
100
AcDbEntity
  8
Calque 1
100
AcDbLine
 10
73.718396
 20
146.28302
 30
0.0
 11
74.63002900000001
 21
146.968206
 31
0.0
  0
LINE
  5
300
330
74
100
AcDbEntity
  8
Calque 1
100
AcDbLine
 10
74.63002900000001
 20
146.968206
 30
0.0
 11
75.93245899999999
 21
147.609532
 31
0.0
  0
LINE
  5
301
330
74
100
AcDbEntity
  8
Calque 1
100
AcDbLine
 10
75.93245899999999
 20
147.609532
 30
0.0
 11
76.392984
 21
147.68848
 31
0.0
  0
LINE
  5
302
330
74
100
AcDbEntity
  8
Calque 1
100
AcDbLine
 10
76.392984
 20
147.68848
 30
0.0
 11
76.71366299999999
 21
147.613957
 31
0.0
  0
LINE
  5
303
330
74
100
AcDbEntity
  8
Calque 1
100
AcDbLine
 10
76.71366299999999
 20
147.613957
 30
0.0
 11
76.884956
 21
147.391716
 31
0.0
  0
LINE
  5
304
330
74
100
AcDbEntity
  8
Calque 1
100
AcDbLine
 10
76.884956
 20
147.391716
 30
0.0
 11
76.89732499999999
 21
147.027513
 31
0.0
  0
LINE
  5
305
330
74
100
AcDbEntity
  8
Calque 1
100
AcDbLine
 10
76.89732499999999
 20
147.027513
 30
0.0
 11
76.40713100000001
 21
145.896235
 31
0.0
  0
LINE
  5
306
330
74
100
AcDbEntity
  8
Calque 1
100
AcDbLine
 10
76.40713100000001
 20
145.896235
 30
0.0
 11
75.48648399999999
 21
144.830956
 31
0.0
  0
LINE
  5
307
330
74
100
AcDbEntity
  8
Calque 1
100
AcDbLine
 10
75.48648399999999
 20
144.830956
 30
0.0
 11
74.391327
 21
144.123006
 31
0.0
  0
LINE
  5
308
330
74
100
AcDbEntity
  8
Calque 1
100
AcDbLine
 10
74.391327
 20
144.123006
 30
0.0
 11
73.40925300000001
 21
143.901121
 31
0.0
  0
LINE
  5
309
330
74
100
AcDbEntity
  8
Calque 1
100
AcDbLine
 10
73.40925300000001
 20
143.901121
 30
0.0
 11
73.050493
 21
144.012682
 31
0.0
  0
LINE
  5
30A
330
74
100
AcDbEntity
  8
Calque 1
100
AcDbLine
 10
73.050493
 20
144.012682
 30
0.0
 11
72.82785099999999
 21
144.294034
 31
0.0
  0
LINE
  5
30B
330
74
100
AcDbEntity
  8
Calque 1
100
AcDbLine
 10
72.82785099999999
 20
144.294034
 30
0.0
 11
72.82785099999999
 21
144.294034
 31
0.0
  0
LINE
  5
313
330
74
100
AcDbEntity
  8
Calque 1
100
AcDbLine
 10
95.87491899999999
 20
144.505458
 30
0.0
 11
96.11014499999999
 21
145.23551
 31
0.0
  0
LINE
  5
314
330
74
100
AcDbEntity
  8
Calque 1
100
AcDbLine
 10
96.11014499999999
 20
145.23551
 30
0.0
 11
96.662169
 21
145.930368
 31
0.0
  0
LINE
  5
315
330
74
100
AcDbEntity
  8
Calque 1
100
AcDbLine
 10
96.662169
 20
145.930368
 30
0.0
 11
97.300509
 21
146.370308
 31
0.0
  0
LINE
  5
316
330
74
100
AcDbEntity
  8
Calque 1
100
AcDbLine
 10
97.300509
 20
146.370308
 30
0.0
 11
97.58002199999999
 21
146.426021
 31
0.0
  0
LINE
  5
317
330
74
100
AcDbEntity
  8
Calque 1
100
AcDbLine
 10
97.58002199999999
 20
146.426021
 30
0.0
 11
97.794682
 21
146.335607
 31
0.0
  0
LINE
  5
318
330
74
100
AcDbEntity
  8
Calque 1
100
AcDbLine
 10
97.794682
 20
146.335607
 30
0.0
 11
98.052671
 21
145.980915
 31
0.0
  0
LINE
  5
319
330
74
100
AcDbEntity
  8
Calque 1
100
AcDbLine
 10
98.052671
 20
145.980915
 30
0.0
 11
98.10206200000001
 21
145.604835
 31
0.0
  0
LINE
  5
31A
330
74
100
AcDbEntity
  8
Calque 1
100
AcDbLine
 10
98.10206200000001
 20
145.604835
 30
0.0
 11
97.54776899999999
 21
144.59632
 31
0.0
  0
LINE
  5
31B
330
74
100
AcDbEntity
  8
Calque 1
100
AcDbLine
 10
97.54776899999999
 20
144.59632
 30
0.0
 11
96.97206600000001
 21
144.055023
 31
0.0
  0
LINE
  5
31C
330
74
100
AcDbEntity
  8
Calque 1
100
AcDbLine
 10
96.97206600000001
 20
144.055023
 30
0.0
 11
96.43194799999999
 21
143.855677
 31
0.0
  0
LINE
  5
31D
330
74
100
AcDbEntity
  8
Calque 1
100
AcDbLine
 10
96.43194799999999
 20
143.855677
 30
0.0
 11
96.03152800000001
 21
144.003937
 31
0.0
  0
LINE
  5
31E
330
74
100
AcDbEntity
  8
Calque 1
100
AcDbLine
 10
96.03152800000001
 20
144.003937
 30
0.0
 11
95.87491899999999
 21
144.505458
 31
0.0
  0
LINE
  5
31F
330
74
100
AcDbEntity
  8
Calque 1
100
AcDbLine
 10
95.87491899999999
 20
144.505458
 30
0.0
 11
95.87491899999999
 21
144.505458
 31
0.0
  0
LINE
  5
320
330
74
100
AcDbEntity
  8
Calque 1
100
AcDbLine
 10
109.986242
 20
144.275783
 30
0.0
 11
109.776594
 21
144.785148
 31
0.0
  0
LINE
  5
321
330
74
100
AcDbEntity
  8
Calque 1
100
AcDbLine
 10
109.776594
 20
144.785148
 30
0.0
 11
109.988291
 21
145.551495
 31
0.0
  0
LINE
  5
322
330
74
100
AcDbEntity
  8
Calque 1
100
AcDbLine
 10
109.988291
 20
145.551495
 30
0.0
 11
110.411595
 21
146.241907
 31
0.0
  0
LINE
  5
323
330
74
100
AcDbEntity
  8
Calque 1
100
AcDbLine
 10
110.411595
 20
146.241907
 30
0.0
 11
111.053395
 21
146.978532
 31
0.0
  0
LINE
  5
324
330
74
100
AcDbEntity
  8
Calque 1
100
AcDbLine
 10
111.053395
 20
146.978532
 30
0.0
 11
111.719286
 21
147.564719
 31
0.0
  0
LINE
  5
325
330
74
100
AcDbEntity
  8
Calque 1
100
AcDbLine
 10
111.719286
 20
147.564719
 30
0.0
 11
112.214866
 21
147.803815
 31
0.0
  0
LINE
  5
326
330
74
100
AcDbEntity
  8
Calque 1
100
AcDbLine
 10
112.214866
 20
147.803815
 30
0.0
 11
112.308252
 21
147.37583
 31
0.0
  0
LINE
  5
327
330
74
100
AcDbEntity
  8
Calque 1
100
AcDbLine
 10
112.308252
 20
147.37583
 30
0.0
 11
112.237924
 21
146.346843
 31
0.0
  0
LINE
  5
328
330
74
100
AcDbEntity
  8
Calque 1
100
AcDbLine
 10
112.237924
 20
146.346843
 30
0.0
 11
111.943752
 21
145.111811
 31
0.0
  0
LINE
  5
329
330
74
100
AcDbEntity
  8
Calque 1
100
AcDbLine
 10
111.943752
 20
145.111811
 30
0.0
 11
111.410589
 21
144.371287
 31
0.0
  0
LINE
  5
32A
330
74
100
AcDbEntity
  8
Calque 1
100
AcDbLine
 10
111.410589
 20
144.371287
 30
0.0
 11
110.577275
 21
143.882974
 31
0.0
  0
LINE
  5
32B
330
74
100
AcDbEntity
  8
Calque 1
100
AcDbLine
 10
110.577275
 20
143.882974
 30
0.0
 11
110.290858
 21
143.971879
 31
0.0
  0
LINE
  5
32C
330
74
100
AcDbEntity
  8
Calque 1
100
AcDbLine
 10
110.290858
 20
143.971879
 30
0.0
 11
109.986242
 21
144.275783
 31
0.0
  0
LINE
  5
32D
330
74
100
AcDbEntity
  8
Calque 1
100
AcDbLine
 10
109.986242
 20
144.275783
 30
0.0
 11
109.986242
 21
144.275783
 31
0.0
  0
LINE
  5
337
330
74
100
AcDbEntity
  8
Calque 1
100
AcDbLine
 10
83.17491899999998
 20
146.660564
 30
0.0
 11
83.468903
 21
147.073972
 31
0.0
  0
LINE
  5
338
330
74
100
AcDbEntity
  8
Calque 1
100
AcDbLine
 10
83.468903
 20
147.073972
 30
0.0
 11
84.175716
 21
147.691767
 31
0.0
  0
LINE
  5
339
330
74
100
AcDbEntity
  8
Calque 1
100
AcDbLine
 10
84.175716
 20
147.691767
 30
0.0
 11
85.00911999999999
 21
148.203064
 31
0.0
  0
LINE
  5
33A
330
74
100
AcDbEntity
  8
Calque 1
100
AcDbLine
 10
85.00911999999999
 20
148.203064
 30
0.0
 11
85.47326299999999
 21
148.158359
 31
0.0
  0
LINE
  5
33B
330
74
100
AcDbEntity
  8
Calque 1
100
AcDbLine
 10
85.47326299999999
 20
148.158359
 30
0.0
 11
85.54458999999999
 21
147.981911
 31
0.0
  0
LINE
  5
33C
330
74
100
AcDbEntity
  8
Calque 1
100
AcDbLine
 10
85.54458999999999
 20
147.981911
 30
0.0
 11
85.44248299999999
 21
147.757539
 31
0.0
  0
LINE
  5
33D
330
74
100
AcDbEntity
  8
Calque 1
100
AcDbLine
 10
85.44248299999999
 20
147.757539
 30
0.0
 11
84.689177
 21
147.127153
 31
0.0
  0
LINE
  5
33E
330
74
100
AcDbEntity
  8
Calque 1
100
AcDbLine
 10
84.689177
 20
147.127153
 30
0.0
 11
83.49932700000001
 21
146.439111
 31
0.0
  0
LINE
  5
33F
330
74
100
AcDbEntity
  8
Calque 1
100
AcDbLine
 10
83.49932700000001
 20
146.439111
 30
0.0
 11
83.249252
 21
146.442408
 31
0.0
  0
LINE
  5
340
330
74
100
AcDbEntity
  8
Calque 1
100
AcDbLine
 10
83.249252
 20
146.442408
 30
0.0
 11
83.17491899999998
 21
146.660564
 31
0.0
  0
LINE
  5
341
330
74
100
AcDbEntity
  8
Calque 1
100
AcDbLine
 10
83.17491899999998
 20
146.660564
 30
0.0
 11
83.17491899999998
 21
146.660564
 31
0.0
  0
LINE
  5
342
330
74
100
AcDbEntity
  8
Calque 1
100
AcDbLine
 10
97.85047500000001
 20
149.4244929999999
 30
0.0
 11
98.50850600000001
 21
150.38181
 31
0.0
  0
LINE
  5
343
330
74
100
AcDbEntity
  8
Calque 1
100
AcDbLine
 10
98.50850600000001
 20
150.38181
 30
0.0
 11
99.989193
 21
152.034209
 31
0.0
  0
LINE
  5
344
330
74
100
AcDbEntity
  8
Calque 1
100
AcDbLine
 10
99.989193
 20
152.034209
 30
0.0
 11
101.552421
 21
153.599358
 31
0.0
  0
LINE
  5
345
330
74
100
AcDbEntity
  8
Calque 1
100
AcDbLine
 10
101.552421
 20
153.599358
 30
0.0
 11
102.458077
 21
154.294926
 31
0.0
  0
LINE
  5
346
330
74
100
AcDbEntity
  8
Calque 1
100
AcDbLine
 10
102.458077
 20
154.294926
 30
0.0
 11
102.687358
 21
154.180422
 31
0.0
  0
LINE
  5
347
330
74
100
AcDbEntity
  8
Calque 1
100
AcDbLine
 10
102.687358
 20
154.180422
 30
0.0
 11
102.667026
 21
153.861528
 31
0.0
  0
LINE
  5
348
330
74
100
AcDbEntity
  8
Calque 1
100
AcDbLine
 10
102.667026
 20
153.861528
 30
0.0
 11
101.992212
 21
152.758276
 31
0.0
  0
LINE
  5
349
330
74
100
AcDbEntity
  8
Calque 1
100
AcDbLine
 10
101.992212
 20
152.758276
 30
0.0
 11
100.663014
 21
151.280583
 31
0.0
  0
LINE
  5
34A
330
74
100
AcDbEntity
  8
Calque 1
100
AcDbLine
 10
100.663014
 20
151.280583
 30
0.0
 11
98.90880799999999
 21
149.72386
 31
0.0
  0
LINE
  5
34B
330
74
100
AcDbEntity
  8
Calque 1
100
AcDbLine
 10
98.90880799999999
 20
149.72386
 30
0.0
 11
98.02812600000001
 21
149.116552
 31
0.0
  0
LINE
  5
34C
330
74
100
AcDbEntity
  8
Calque 1
100
AcDbLine
 10
98.02812600000001
 20
149.116552
 30
0.0
 11
97.88402099999998
 21
149.165338
 31
0.0
  0
LINE
  5
34D
330
74
100
AcDbEntity
  8
Calque 1
100
AcDbLine
 10
97.88402099999998
 20
149.165338
 30
0.0
 11
97.85047500000001
 21
149.4244929999999
 31
0.0
  0
LINE
  5
34E
330
74
100
AcDbEntity
  8
Calque 1
100
AcDbLine
 10
97.85047500000001
 20
149.4244929999999
 30
0.0
 11
97.85047500000001
 21
149.4244929999999
 31
0.0
  0
ENDSEC
  0
SECTION
  2
OBJECTS
  0
DICTIONARY
  5
C
330
0
100
AcDbDictionary
281
     1
  3
ACAD_COLOR
350
6A
  3
ACAD_GROUP
350
D
  3
ACAD_LAYOUT
350
69
  3
ACAD_MATERIAL
350
10
  3
ACAD_MLEADERSTYLE
350
6D
  3
ACAD_MLINESTYLE
350
66
  3
ACAD_PLOTSETTINGS
350
68
  3
ACAD_PLOTSTYLENAME
350
E
  3
ACAD_SCALELIST
350
3A
  3
ACAD_TABLESTYLE
350
6B
  3
ACAD_VISUALSTYLE
350
29
  3
ACDB_RECOMPOSE_DATA
350
36D
  3
AcDbVariableDictionary
350
364
  3
DWGPROPS
350
36E
  0
DICTIONARY
  5
360
330
5C
100
AcDbDictionary
280
     1
281
     1
  3
ADSK_XREC_LAYER_RECONCILED
360
361
  0
DICTIONARY
  5
362
330
78
100
AcDbDictionary
280
     1
281
     1
  3
ADSK_XREC_LAYER_RECONCILED
360
363
  0
DICTIONARY
  5
6A
102
{ACAD_REACTORS
330
C
102
}
330
C
100
AcDbDictionary
281
     1
  0
DICTIONARY
  5
D
102
{ACAD_REACTORS
330
C
102
}
330
C
100
AcDbDictionary
281
     1
  0
DICTIONARY
  5
69
102
{ACAD_REACTORS
330
C
102
}
330
C
100
AcDbDictionary
281
     1
  3
Model
350
77
  3
Présentation1
350
73
  0
DICTIONARY
  5
10
102
{ACAD_REACTORS
330
C
102
}
330
C
100
AcDbDictionary
281
     1
  3
ByBlock
350
19
  3
ByLayer
350
11
  3
Global
350
21
  0
DICTIONARY
  5
6D
102
{ACAD_REACTORS
330
C
102
}
330
C
100
AcDbDictionary
281
     1
  3
Standard
350
6E
  0
DICTIONARY
  5
66
102
{ACAD_REACTORS
330
C
102
}
330
C
100
AcDbDictionary
281
     1
  3
Standard
350
67
  0
DICTIONARY
  5
68
102
{ACAD_REACTORS
330
C
102
}
330
C
100
AcDbDictionary
281
     1
  0
ACDBDICTIONARYWDFLT
  5
E
102
{ACAD_REACTORS
330
C
102
}
330
C
100
AcDbDictionary
281
     1
  3
Normal
350
F
100
AcDbDictionaryWithDefault
340
F
  0
DICTIONARY
  5
3A
102
{ACAD_REACTORS
330
C
102
}
330
C
100
AcDbDictionary
281
     1
  3
A0
350
3B
  3
A1
350
3C
  3
A2
350
3D
  3
A3
350
3E
  3
A4
350
3F
  3
A5
350
40
  3
A6
350
41
  3
A7
350
42
  3
A8
350
43
  3
A9
350
44
  3
B0
350
45
  3
B1
350
46
  3
B2
350
47
  3
B3
350
48
  3
B4
350
49
  3
B5
350
4A
  3
B6
350
4B
  3
B7
350
4C
  3
B8
350
4D
  3
B9
350
4E
  3
C0
350
4F
  3
C1
350
50
  3
C2
350
51
  3
C3
350
52
  3
C4
350
53
  3
C5
350
54
  3
C6
350
55
  3
C7
350
56
  3
C8
350
57
  3
C9
350
58
  3
D0
350
59
  3
D1
350
5A
  3
D2
350
5B
  0
DICTIONARY
  5
6B
102
{ACAD_REACTORS
330
C
102
}
330
C
100
AcDbDictionary
281
     1
  3
Standard
350
6C
  0
DICTIONARY
  5
29
102
{ACAD_REACTORS
330
C
102
}
330
C
100
AcDbDictionary
281
     1
  3
2dWireframe
350
2F
  3
3D Hidden
350
31
  3
3dWireframe
350
30
  3
Basic
350
2E
  3
Brighten
350
35
  3
ColorChange
350
39
  3
Conceptual
350
32
  3
Dim
350
34
  3
Facepattern
350
38
  3
Flat
350
2A
  3
FlatWithEdges
350
2B
  3
Gouraud
350
2C
  3
GouraudWithEdges
350
2D
  3
Linepattern
350
37
  3
Realistic
350
33
  3
Thicken
350
36
  0
XRECORD
  5
36D
102
{ACAD_REACTORS
330
C
102
}
330
C
100
AcDbXrecord
280
     1
 90
        1
330
6C
  0
DICTIONARY
  5
364
102
{ACAD_REACTORS
330
C
102
}
330
C
100
AcDbDictionary
281
     1
  3
CANNOSCALE
350
367
  3
CMLEADERSTYLE
350
366
  3
CTABLESTYLE
350
365
  3
DIMASSOC
350
36A
  3
INDEXCTL
350
369
  3
SORTENTS
350
368
  0
XRECORD
  5
36E
102
{ACAD_REACTORS
330
C
102
}
330
C
100
AcDbXrecord
280
     1
  1
DWGPROPS COOKIE
  2

  3

  4

  6

  7

  8
Administrateur
  9

300
=
301
=
302
=
303
=
304
=
305
=
306
=
307
=
308
=
309
=
 40
0.0005682986111111
 41
2454976.001885972
 42
2454976.002453808
  1

 90
        0
  0
XRECORD
  5
361
102
{ACAD_REACTORS
330
360
102
}
330
360
100
AcDbXrecord
280
     1
290
     1
  0
XRECORD
  5
363
102
{ACAD_REACTORS
330
362
102
}
330
362
100
AcDbXrecord
280
     1
290
     1
  0
LAYOUT
  5
77
102
{ACAD_XDICTIONARY
360
375
102
}
102
{ACAD_REACTORS
330
69
102
}
330
69
100
AcDbPlotSettings
  1

  2
Canon PIXMA iP1500
  4

  6

 40
0.0
 41
0.0
 42
0.0
 43
0.0
 44
0.0
 45
0.0
 46
0.0
 47
0.0
 48
0.0
 49
0.0
140
0.0
141
0.0
142
1.0
143
1.0
 70
  1712
 72
     0
 73
     0
 74
     0
  7

 75
     0
147
1.0
148
0.0
149
0.0
100
AcDbLayout
  1
Model
 70
     1
 71
     0
 10
0.0
 20
0.0
 11
12.0
 21
9.0
 12
0.0
 22
0.0
 32
0.0
 14
0.0
 24
0.0
 34
0.0
 15
0.0
 25
0.0
 35
0.0
146
0.0
 13
0.0
 23
0.0
 33
0.0
 16
1.0
 26
0.0
 36
0.0
 17
0.0
 27
1.0
 37
0.0
 76
     0
330
74
331
359
  0
LAYOUT
  5
73
102
{ACAD_XDICTIONARY
360
373
102
}
102
{ACAD_REACTORS
330
69
102
}
330
69
100
AcDbPlotSettings
  1

  2
Canon PIXMA iP1500
  4

  6

 40
0.0
 41
0.0
 42
0.0
 43
0.0
 44
0.0
 45
0.0
 46
0.0
 47
0.0
 48
0.0
 49
0.0
140
0.0
141
0.0
142
1.0
143
1.0
 70
   688
 72
     0
 73
     0
 74
     5
  7

 75
    16
147
1.0
148
0.0
149
0.0
100
AcDbLayout
  1
Présentation1
 70
     1
 71
     1
 10
0.0
 20
0.0
 11
12.0
 21
9.0
 12
0.0
 22
0.0
 32
0.0
 14
1.000000000000000E+20
 24
1.000000000000000E+20
 34
1.000000000000000E+20
 15
-1.000000000000000E+20
 25
-1.000000000000000E+20
 35
-1.000000000000000E+20
146
0.0
 13
0.0
 23
0.0
 33
0.0
 16
1.0
 26
0.0
 36
0.0
 17
0.0
 27
1.0
 37
0.0
 76
     0
330
70
  0
MATERIAL
  5
19
102
{ACAD_XDICTIONARY
360
1A
102
}
102
{ACAD_REACTORS
330
10
102
}
330
10
100
AcDbMaterial
  1
ByBlock
 72
     0
 43
0.0208333333333333
 43
0.0
 43
0.0
 43
0.0
 43
0.0
 43
0.0208333333333333
 43
0.0
 43
0.0
 43
0.0
 43
0.0
 43
1.0
 43
0.0
 43
0.0
 43
0.0
 43
0.0
 43
1.0
 77
     0
 47
0.0208333333333333
 47
0.0
 47
0.0
 47
0.0
 47
0.0
 47
0.0208333333333333
 47
0.0
 47
0.0
 47
0.0
 47
0.0
 47
1.0
 47
0.0
 47
0.0
 47
0.0
 47
0.0
 47
1.0
171
     0
 49
0.0208333333333333
 49
0.0
 49
0.0
 49
0.0
 49
0.0
 49
0.0208333333333333
 49
0.0
 49
0.0
 49
0.0
 49
0.0
 49
1.0
 49
0.0
 49
0.0
 49
0.0
 49
0.0
 49
1.0
175
     0
142
0.0208333333333333
142
0.0
142
0.0
142
0.0
142
0.0
142
0.0208333333333333
142
0.0
142
0.0
142
0.0
142
0.0
142
1.0
142
0.0
142
0.0
142
0.0
142
0.0
142
1.0
179
     0
144
0.0208333333333333
144
0.0
144
0.0
144
0.0
144
0.0
144
0.0208333333333333
144
0.0
144
0.0
144
0.0
144
0.0
144
1.0
144
0.0
144
0.0
144
0.0
144
0.0
144
1.0
147
0.0208333333333333
147
0.0
147
0.0
147
0.0
147
0.0
147
0.0208333333333333
147
0.0
147
0.0
147
0.0
147
0.0
147
1.0
147
0.0
147
0.0
147
0.0
147
0.0
147
1.0
  0
MATERIAL
  5
11
102
{ACAD_XDICTIONARY
360
12
102
}
102
{ACAD_REACTORS
330
10
102
}
330
10
100
AcDbMaterial
  1
ByLayer
 72
     0
 43
0.0208333333333333
 43
0.0
 43
0.0
 43
0.0
 43
0.0
 43
0.0208333333333333
 43
0.0
 43
0.0
 43
0.0
 43
0.0
 43
1.0
 43
0.0
 43
0.0
 43
0.0
 43
0.0
 43
1.0
 77
     0
 47
0.0208333333333333
 47
0.0
 47
0.0
 47
0.0
 47
0.0
 47
0.0208333333333333
 47
0.0
 47
0.0
 47
0.0
 47
0.0
 47
1.0
 47
0.0
 47
0.0
 47
0.0
 47
0.0
 47
1.0
171
     0
 49
0.0208333333333333
 49
0.0
 49
0.0
 49
0.0
 49
0.0
 49
0.0208333333333333
 49
0.0
 49
0.0
 49
0.0
 49
0.0
 49
1.0
 49
0.0
 49
0.0
 49
0.0
 49
0.0
 49
1.0
175
     0
142
0.0208333333333333
142
0.0
142
0.0
142
0.0
142
0.0
142
0.0208333333333333
142
0.0
142
0.0
142
0.0
142
0.0
142
1.0
142
0.0
142
0.0
142
0.0
142
0.0
142
1.0
179
     0
144
0.0208333333333333
144
0.0
144
0.0
144
0.0
144
0.0
144
0.0208333333333333
144
0.0
144
0.0
144
0.0
144
0.0
144
1.0
144
0.0
144
0.0
144
0.0
144
0.0
144
1.0
147
0.0208333333333333
147
0.0
147
0.0
147
0.0
147
0.0
147
0.0208333333333333
147
0.0
147
0.0
147
0.0
147
0.0
147
1.0
147
0.0
147
0.0
147
0.0
147
0.0
147
1.0
  0
MATERIAL
  5
21
102
{ACAD_XDICTIONARY
360
22
102
}
102
{ACAD_REACTORS
330
10
102
}
330
10
100
AcDbMaterial
  1
Global
 72
     0
 43
0.0208333333333333
 43
0.0
 43
0.0
 43
0.0
 43
0.0
 43
0.0208333333333333
 43
0.0
 43
0.0
 43
0.0
 43
0.0
 43
1.0
 43
0.0
 43
0.0
 43
0.0
 43
0.0
 43
1.0
 77
     0
 47
0.0208333333333333
 47
0.0
 47
0.0
 47
0.0
 47
0.0
 47
0.0208333333333333
 47
0.0
 47
0.0
 47
0.0
 47
0.0
 47
1.0
 47
0.0
 47
0.0
 47
0.0
 47
0.0
 47
1.0
171
     0
 49
0.0208333333333333
 49
0.0
 49
0.0
 49
0.0
 49
0.0
 49
0.0208333333333333
 49
0.0
 49
0.0
 49
0.0
 49
0.0
 49
1.0
 49
0.0
 49
0.0
 49
0.0
 49
0.0
 49
1.0
175
     0
142
0.0208333333333333
142
0.0
142
0.0
142
0.0
142
0.0
142
0.0208333333333333
142
0.0
142
0.0
142
0.0
142
0.0
142
1.0
142
0.0
142
0.0
142
0.0
142
0.0
142
1.0
179
     0
144
0.0208333333333333
144
0.0
144
0.0
144
0.0
144
0.0
144
0.0208333333333333
144
0.0
144
0.0
144
0.0
144
0.0
144
1.0
144
0.0
144
0.0
144
0.0
144
0.0
144
1.0
147
0.0208333333333333
147
0.0
147
0.0
147
0.0
147
0.0
147
0.0208333333333333
147
0.0
147
0.0
147
0.0
147
0.0
147
1.0
147
0.0
147
0.0
147
0.0
147
0.0
147
1.0
  0
MLEADERSTYLE
  5
6E
102
{ACAD_REACTORS
330
6D
102
}
330
6D
100
AcDbMLeaderStyle
170
     2
171
     1
172
     0
 90
        2
 40
0.0
 41
0.0
173
     1
 91
-1056964608
340
62
 92
       -2
290
     1
 42
0.09
291
     1
 43
0.36
  3
Standard
 44
0.18
300

342
5D
174
     1
178
     6
175
     1
176
     0
 93
-1056964608
 45
0.18
292
     0
297
     0
 46
0.18
 94
-1056964608
 47
1.0
 49
1.0
140
1.0
293
     1
141
0.0
294
     1
177
     0
142
1.0
295
     0
296
     0
143
0.125
1001
ACAD_MLEADERVER
1070
     2
  0
MLINESTYLE
  5
67
102
{ACAD_REACTORS
330
66
102
}
330
66
100
AcDbMlineStyle
  2
STANDARD
 70
     0
  3

 62
   256
 51
90.0
 52
90.0
 71
     2
 49
0.5
 62
   256
  6
BYLAYER
 49
-0.5
 62
   256
  6
BYLAYER
  0
ACDBPLACEHOLDER
  5
F
102
{ACAD_REACTORS
330
E
102
}
330
E
  0
SCALE
  5
3B
102
{ACAD_REACTORS
330
3A
102
}
330
3A
100
AcDbScale
 70
     0
300
1:1
140
1.0
141
1.0
290
     1
  0
SCALE
  5
3C
102
{ACAD_REACTORS
330
3A
102
}
330
3A
100
AcDbScale
 70
     0
300
1:2
140
1.0
141
2.0
290
     0
  0
SCALE
  5
3D
102
{ACAD_REACTORS
330
3A
102
}
330
3A
100
AcDbScale
 70
     0
300
1:4
140
1.0
141
4.0
290
     0
  0
SCALE
  5
3E
102
{ACAD_REACTORS
330
3A
102
}
330
3A
100
AcDbScale
 70
     0
300
1:5
140
1.0
141
5.0
290
     0
  0
SCALE
  5
3F
102
{ACAD_REACTORS
330
3A
102
}
330
3A
100
AcDbScale
 70
     0
300
1:8
140
1.0
141
8.0
290
     0
  0
SCALE
  5
40
102
{ACAD_REACTORS
330
3A
102
}
330
3A
100
AcDbScale
 70
     0
300
1:10
140
1.0
141
10.0
290
     0
  0
SCALE
  5
41
102
{ACAD_REACTORS
330
3A
102
}
330
3A
100
AcDbScale
 70
     0
300
1:16
140
1.0
141
16.0
290
     0
  0
SCALE
  5
42
102
{ACAD_REACTORS
330
3A
102
}
330
3A
100
AcDbScale
 70
     0
300
1:20
140
1.0
141
20.0
290
     0
  0
SCALE
  5
43
102
{ACAD_REACTORS
330
3A
102
}
330
3A
100
AcDbScale
 70
     0
300
1:30
140
1.0
141
30.0
290
     0
  0
SCALE
  5
44
102
{ACAD_REACTORS
330
3A
102
}
330
3A
100
AcDbScale
 70
     0
300
1:40
140
1.0
141
40.0
290
     0
  0
SCALE
  5
45
102
{ACAD_REACTORS
330
3A
102
}
330
3A
100
AcDbScale
 70
     0
300
1:50
140
1.0
141
50.0
290
     0
  0
SCALE
  5
46
102
{ACAD_REACTORS
330
3A
102
}
330
3A
100
AcDbScale
 70
     0
300
1:100
140
1.0
141
100.0
290
     0
  0
SCALE
  5
47
102
{ACAD_REACTORS
330
3A
102
}
330
3A
100
AcDbScale
 70
     0
300
2:1
140
2.0
141
1.0
290
     0
  0
SCALE
  5
48
102
{ACAD_REACTORS
330
3A
102
}
330
3A
100
AcDbScale
 70
     0
300
4:1
140
4.0
141
1.0
290
     0
  0
SCALE
  5
49
102
{ACAD_REACTORS
330
3A
102
}
330
3A
100
AcDbScale
 70
     0
300
8:1
140
8.0
141
1.0
290
     0
  0
SCALE
  5
4A
102
{ACAD_REACTORS
330
3A
102
}
330
3A
100
AcDbScale
 70
     0
300
10:1
140
10.0
141
1.0
290
     0
  0
SCALE
  5
4B
102
{ACAD_REACTORS
330
3A
102
}
330
3A
100
AcDbScale
 70
     0
300
100:1
140
100.0
141
1.0
290
     0
  0
SCALE
  5
4C
102
{ACAD_REACTORS
330
3A
102
}
330
3A
100
AcDbScale
 70
     0
300
1/128" = 1'-0"
140
0.0078125
141
12.0
290
     0
  0
SCALE
  5
4D
102
{ACAD_REACTORS
330
3A
102
}
330
3A
100
AcDbScale
 70
     0
300
1/64" = 1'-0"
140
0.015625
141
12.0
290
     0
  0
SCALE
  5
4E
102
{ACAD_REACTORS
330
3A
102
}
330
3A
100
AcDbScale
 70
     0
300
1/32" = 1'-0"
140
0.03125
141
12.0
290
     0
  0
SCALE
  5
4F
102
{ACAD_REACTORS
330
3A
102
}
330
3A
100
AcDbScale
 70
     0
300
1/16" = 1'-0"
140
0.0625
141
12.0
290
     0
  0
SCALE
  5
50
102
{ACAD_REACTORS
330
3A
102
}
330
3A
100
AcDbScale
 70
     0
300
3/32" = 1'-0"
140
0.09375
141
12.0
290
     0
  0
SCALE
  5
51
102
{ACAD_REACTORS
330
3A
102
}
330
3A
100
AcDbScale
 70
     0
300
1/8" = 1'-0"
140
0.125
141
12.0
290
     0
  0
SCALE
  5
52
102
{ACAD_REACTORS
330
3A
102
}
330
3A
100
AcDbScale
 70
     0
300
3/16" = 1'-0"
140
0.1875
141
12.0
290
     0
  0
SCALE
  5
53
102
{ACAD_REACTORS
330
3A
102
}
330
3A
100
AcDbScale
 70
     0
300
1/4" = 1'-0"
140
0.25
141
12.0
290
     0
  0
SCALE
  5
54
102
{ACAD_REACTORS
330
3A
102
}
330
3A
100
AcDbScale
 70
     0
300
3/8" = 1'-0"
140
0.375
141
12.0
290
     0
  0
SCALE
  5
55
102
{ACAD_REACTORS
330
3A
102
}
330
3A
100
AcDbScale
 70
     0
300
1/2" = 1'-0"
140
0.5
141
12.0
290
     0
  0
SCALE
  5
56
102
{ACAD_REACTORS
330
3A
102
}
330
3A
100
AcDbScale
 70
     0
300
3/4" = 1'-0"
140
0.75
141
12.0
290
     0
  0
SCALE
  5
57
102
{ACAD_REACTORS
330
3A
102
}
330
3A
100
AcDbScale
 70
     0
300
1" = 1'-0"
140
1.0
141
12.0
290
     0
  0
SCALE
  5
58
102
{ACAD_REACTORS
330
3A
102
}
330
3A
100
AcDbScale
 70
     0
300
1-1/2" = 1'-0"
140
1.5
141
12.0
290
     0
  0
SCALE
  5
59
102
{ACAD_REACTORS
330
3A
102
}
330
3A
100
AcDbScale
 70
     0
300
3" = 1'-0"
140
3.0
141
12.0
290
     0
  0
SCALE
  5
5A
102
{ACAD_REACTORS
330
3A
102
}
330
3A
100
AcDbScale
 70
     0
300
6" = 1'-0"
140
6.0
141
12.0
290
     0
  0
SCALE
  5
5B
102
{ACAD_REACTORS
330
3A
102
}
330
3A
100
AcDbScale
 70
     0
300
1'-0" = 1'-0"
140
12.0
141
12.0
290
     0
  0
TABLESTYLE
  5
6C
102
{ACAD_XDICTIONARY
360
36B
102
}
102
{ACAD_REACTORS
330
6B
102
}
330
6B
100
AcDbTableStyle
  3
Standard
 70
     0
 71
     0
 40
0.06
 41
0.06
280
     0
281
     0
  7
Standard
140
0.18
170
     2
 62
     0
 63
     7
283
     0
274
    -2
284
     1
 64
     0
275
    -2
285
     1
 65
     0
276
    -2
286
     1
 66
     0
277
    -2
287
     1
 67
     0
278
    -2
288
     1
 68
     0
279
    -2
289
     1
 69
     0
  7
Standard
140
0.25
170
     5
 62
     0
 63
     7
283
     0
274
    -2
284
     1
 64
     0
275
    -2
285
     1
 65
     0
276
    -2
286
     1
 66
     0
277
    -2
287
     1
 67
     0
278
    -2
288
     1
 68
     0
279
    -2
289
     1
 69
     0
  7
Standard
140
0.18
170
     5
 62
     0
 63
     7
283
     0
274
    -2
284
     1
 64
     0
275
    -2
285
     1
 65
     0
276
    -2
286
     1
 66
     0
277
    -2
287
     1
 67
     0
278
    -2
288
     1
 68
     0
279
    -2
289
     1
 69
     0
  0
VISUALSTYLE
  5
2F
102
{ACAD_REACTORS
330
29
102
}
330
29
100
AcDbVisualStyle
  2
2dWireframe
 70
     4
 71
     0
 72
     2
 73
     0
 90
        0
 40
-0.6
 41
-30.0
 62
     5
 63
     7
 74
     1
 91
        4
 64
     7
 65
   257
 75
     1
175
     1
 42
1.0
 92
        0
 66
   257
 43
1.0
 76
     1
 77
     6
 78
     2
 67
     7
 79
     5
170
     0
171
     0
290
     0
174
     0
 93
        1
 44
0.0
173
     0
291
     0
 45
0.0
1001
ACAD
1000
AcDbSavedByObjectVersion
1070
     0
  0
VISUALSTYLE
  5
31
102
{ACAD_REACTORS
330
29
102
}
330
29
100
AcDbVisualStyle
  2
3D Hidden
 70
     6
 71
     1
 72
     2
 73
     2
 90
        0
 40
-0.6
 41
-30.0
 62
     5
 63
     7
 74
     2
 91
        2
 64
     7
 65
   257
 75
     2
175
     1
 42
40.0
 92
        0
 66
   257
 43
1.0
 76
     1
 77
     6
 78
     2
 67
     7
 79
     3
170
     0
171
     0
290
     0
174
     0
 93
        1
 44
0.0
173
     0
291
     0
 45
0.0
1001
ACAD
1000
AcDbSavedByObjectVersion
1070
     0
  0
VISUALSTYLE
  5
30
102
{ACAD_REACTORS
330
29
102
}
330
29
100
AcDbVisualStyle
  2
3dWireframe
 70
     5
 71
     0
 72
     2
 73
     0
 90
        0
 40
-0.6
 41
-30.0
 62
     5
 63
     7
 74
     1
 91
        4
 64
     7
 65
   257
 75
     1
175
     1
 42
1.0
 92
        0
 66
   257
 43
1.0
 76
     1
 77
     6
 78
     2
 67
     7
 79
     5
170
     0
171
     0
290
     0
174
     0
 93
        1
 44
0.0
173
     0
291
     0
 45
0.0
1001
ACAD
1000
AcDbSavedByObjectVersion
1070
     0
  0
VISUALSTYLE
  5
2E
102
{ACAD_REACTORS
330
29
102
}
330
29
100
AcDbVisualStyle
  2
Basic
 70
     7
 71
     1
 72
     0
 73
     1
 90
        0
 40
-0.6
 41
-30.0
 62
     5
 63
     7
 74
     0
 91
        4
 64
     7
 65
   257
 75
     1
175
     1
 42
1.0
 92
        8
 66
     7
 43
1.0
 76
     1
 77
     6
 78
     2
 67
     7
 79
     5
170
     0
171
     0
290
     0
174
     0
 93
        1
 44
0.0
173
     0
291
     1
 45
0.0
1001
ACAD
1000
AcDbSavedByObjectVersion
1070
     0
  0
VISUALSTYLE
  5
35
102
{ACAD_REACTORS
330
29
102
}
330
29
100
AcDbVisualStyle
  2
Brighten
 70
    12
 71
     2
 72
     2
 73
     0
 90
        0
 40
-0.6
 41
-30.0
 62
     5
 63
     7
 74
     1
 91
        4
 64
     7
 65
   257
 75
     1
175
     1
 42
1.0
 92
        8
 66
     7
 43
1.0
 76
     1
 77
     6
 78
     2
 67
     7
 79
     5
170
     0
171
     0
290
     0
174
     0
 93
        1
 44
50.0
173
     0
291
     1
 45
0.0
1001
ACAD
1000
AcDbSavedByObjectVersion
1070
     0
  0
VISUALSTYLE
  5
39
102
{ACAD_REACTORS
330
29
102
}
330
29
100
AcDbVisualStyle
  2
ColorChange
 70
    16
 71
     2
 72
     2
 73
     3
 90
        0
 40
-0.6
 41
-30.0
 62
     5
 63
     8
 74
     1
 91
        4
 64
     7
 65
   257
 75
     1
175
     1
 42
1.0
 92
        8
 66
     8
 43
1.0
 76
     1
 77
     6
 78
     2
 67
     7
 79
     5
170
     0
171
     0
290
     0
174
     0
 93
        1
 44
0.0
173
     0
291
     1
 45
0.0
1001
ACAD
1000
AcDbSavedByObjectVersion
1070
     0
  0
VISUALSTYLE
  5
32
102
{ACAD_REACTORS
330
29
102
}
330
29
100
AcDbVisualStyle
  2
Conceptual
 70
     9
 71
     3
 72
     2
 73
     0
 90
        0
 40
-0.6
 41
-30.0
 62
     5
 63
     7
 74
     2
 91
        2
 64
     7
 65
   257
 75
     1
175
     1
 42
40.0
 92
        8
 66
     7
 43
1.0
 76
     1
 77
     6
 78
     2
 67
     7
 79
     3
170
     0
171
     0
290
     0
174
     0
 93
        1
 44
0.0
173
     0
291
     0
 45
0.0
1001
ACAD
1000
AcDbSavedByObjectVersion
1070
     0
  0
VISUALSTYLE
  5
34
102
{ACAD_REACTORS
330
29
102
}
330
29
100
AcDbVisualStyle
  2
Dim
 70
    11
 71
     2
 72
     2
 73
     0
 90
        0
 40
-0.6
 41
-30.0
 62
     5
 63
     7
 74
     1
 91
        4
 64
     7
 65
   257
 75
     1
175
     1
 42
1.0
 92
        8
 66
     7
 43
1.0
 76
     1
 77
     6
 78
     2
 67
     7
 79
     5
170
     0
171
     0
290
     0
174
     0
 93
        1
 44
-50.0
173
     0
291
     1
 45
0.0
1001
ACAD
1000
AcDbSavedByObjectVersion
1070
     0
  0
VISUALSTYLE
  5
38
102
{ACAD_REACTORS
330
29
102
}
330
29
100
AcDbVisualStyle
  2
Facepattern
 70
    15
 71
     2
 72
     2
 73
     0
 90
        0
 40
-0.6
 41
-30.0
 62
     5
 63
     7
 74
     1
 91
        4
 64
     7
 65
   257
 75
     1
175
     1
 42
1.0
 92
        8
 66
     7
 43
1.0
 76
     1
 77
     6
 78
     2
 67
     7
 79
     5
170
     0
171
     0
290
     0
174
     0
 93
        1
 44
0.0
173
     0
291
     1
 45
0.0
1001
ACAD
1000
AcDbSavedByObjectVersion
1070
     0
  0
VISUALSTYLE
  5
2A
102
{ACAD_REACTORS
330
29
102
}
330
29
100
AcDbVisualStyle
  2
Flat
 70
     0
 71
     2
 72
     1
 73
     1
 90
        2
 40
-0.6
 41
30.0
 62
     5
 63
     7
 74
     0
 91
        4
 64
     7
 65
   257
 75
     1
175
     1
 42
1.0
 92
        8
 66
     7
 43
1.0
 76
     1
 77
     6
 78
     2
 67
     7
 79
     5
170
     0
171
     0
290
     0
174
     0
 93
       13
 44
0.0
173
     0
291
     1
 45
0.0
1001
ACAD
1000
AcDbSavedByObjectVersion
1070
     0
  0
VISUALSTYLE
  5
2B
102
{ACAD_REACTORS
330
29
102
}
330
29
100
AcDbVisualStyle
  2
FlatWithEdges
 70
     1
 71
     2
 72
     1
 73
     1
 90
        2
 40
-0.6
 41
30.0
 62
     5
 63
     7
 74
     1
 91
        4
 64
     7
 65
   257
 75
     1
175
     1
 42
1.0
 92
        0
 66
   257
 43
1.0
 76
     1
 77
     6
 78
     2
 67
     7
 79
     5
170
     0
171
     0
290
     0
174
     0
 93
       13
 44
0.0
173
     0
291
     1
 45
0.0
1001
ACAD
1000
AcDbSavedByObjectVersion
1070
     0
  0
VISUALSTYLE
  5
2C
102
{ACAD_REACTORS
330
29
102
}
330
29
100
AcDbVisualStyle
  2
Gouraud
 70
     2
 71
     2
 72
     2
 73
     1
 90
        2
 40
-0.6
 41
30.0
 62
     5
 63
     7
 74
     0
 91
        4
 64
     7
 65
   257
 75
     1
175
     1
 42
1.0
 92
        0
 66
     7
 43
1.0
 76
     1
 77
     6
 78
     2
 67
     7
 79
     5
170
     0
171
     0
290
     0
174
     0
 93
       13
 44
0.0
173
     0
291
     1
 45
0.0
1001
ACAD
1000
AcDbSavedByObjectVersion
1070
     0
  0
VISUALSTYLE
  5
2D
102
{ACAD_REACTORS
330
29
102
}
330
29
100
AcDbVisualStyle
  2
GouraudWithEdges
 70
     3
 71
     2
 72
     2
 73
     1
 90
        2
 40
-0.6
 41
30.0
 62
     5
 63
     7
 74
     1
 91
        4
 64
     7
 65
   257
 75
     1
175
     1
 42
1.0
 92
        0
 66
   257
 43
1.0
 76
     1
 77
     6
 78
     2
 67
     7
 79
     5
170
     0
171
     0
290
     0
174
     0
 93
       13
 44
0.0
173
     0
291
     1
 45
0.0
1001
ACAD
1000
AcDbSavedByObjectVersion
1070
     0
  0
VISUALSTYLE
  5
37
102
{ACAD_REACTORS
330
29
102
}
330
29
100
AcDbVisualStyle
  2
Linepattern
 70
    14
 71
     2
 72
     2
 73
     0
 90
        0
 40
-0.6
 41
-30.0
 62
     5
 63
     7
 74
     1
 91
        4
 64
     7
 65
   257
 75
     7
175
     7
 42
1.0
 92
        8
 66
     7
 43
1.0
 76
     1
 77
     6
 78
     2
 67
     7
 79
     5
170
     0
171
     0
290
     0
174
     0
 93
        1
 44
0.0
173
     0
291
     1
 45
0.0
1001
ACAD
1000
AcDbSavedByObjectVersion
1070
     0
  0
VISUALSTYLE
  5
33
102
{ACAD_REACTORS
330
29
102
}
330
29
100
AcDbVisualStyle
  2
Realistic
 70
     8
 71
     2
 72
     2
 73
     0
 90
        0
 40
-0.6
 41
-30.0
 62
     5
 63
     7
 74
     1
 91
        0
 64
     7
 65
   257
 75
     1
175
     1
 42
1.0
 92
        8
 66
     8
 43
1.0
 76
     1
 77
     6
 78
     2
 67
     7
 79
     5
170
     0
171
     0
290
     0
174
     0
 93
       13
 44
0.0
173
     0
291
     0
 45
0.0
1001
ACAD
1000
AcDbSavedByObjectVersion
1070
     0
  0
VISUALSTYLE
  5
36
102
{ACAD_REACTORS
330
29
102
}
330
29
100
AcDbVisualStyle
  2
Thicken
 70
    13
 71
     2
 72
     2
 73
     0
 90
        0
 40
-0.6
 41
-30.0
 62
     5
 63
     7
 74
     1
 91
        4
 64
     7
 65
   257
 75
     1
175
     1
 42
1.0
 92
       12
 66
     7
 43
1.0
 76
     1
 77
     6
 78
     2
 67
     7
 79
     5
170
     0
171
     0
290
     0
174
     0
 93
        1
 44
0.0
173
     0
291
     1
 45
0.0
1001
ACAD
1000
AcDbSavedByObjectVersion
1070
     0
  0
DICTIONARYVAR
  5
367
102
{ACAD_REACTORS
330
364
102
}
330
364
100
DictionaryVariables
280
     0
  1
1:1
  0
DICTIONARYVAR
  5
366
102
{ACAD_REACTORS
330
364
102
}
330
364
100
DictionaryVariables
280
     0
  1
STANDARD
  0
DICTIONARYVAR
  5
365
102
{ACAD_REACTORS
330
364
102
}
330
364
100
DictionaryVariables
280
     0
  1
STANDARD
  0
DICTIONARYVAR
  5
36A
102
{ACAD_REACTORS
330
364
102
}
330
364
100
DictionaryVariables
280
     0
  1
1
  0
DICTIONARYVAR
  5
369
102
{ACAD_REACTORS
330
364
102
}
330
364
100
DictionaryVariables
280
     0
  1
0
  0
DICTIONARYVAR
  5
368
102
{ACAD_REACTORS
330
364
102
}
330
364
100
DictionaryVariables
280
     0
  1
127
  0
DICTIONARY
  5
375
330
77
100
AcDbDictionary
280
     1
281
     1
  3
ACAD_XREC_ROUNDTRIP
360
376
  0
DICTIONARY
  5
373
330
73
100
AcDbDictionary
280
     1
281
     1
  3
ACAD_XREC_ROUNDTRIP
360
374
  0
DICTIONARY
  5
1A
330
19
100
AcDbDictionary
280
     1
281
     1
  3
ACAD_XREC_ROUNDTRIP
360
370
  3
BUMPTILE
360
1C
  3
DIFFUSETILE
360
1B
  3
OPACITYTILE
360
1F
  3
REFLECTIONTILE
360
1E
  3
REFRACTIONTILE
360
20
  3
SPECULARTILE
360
1D
  0
DICTIONARY
  5
12
330
11
100
AcDbDictionary
280
     1
281
     1
  3
ACAD_XREC_ROUNDTRIP
360
36F
  3
BUMPTILE
360
14
  3
DIFFUSETILE
360
13
  3
OPACITYTILE
360
17
  3
REFLECTIONTILE
360
16
  3
REFRACTIONTILE
360
18
  3
SPECULARTILE
360
15
  0
DICTIONARY
  5
22
330
21
100
AcDbDictionary
280
     1
281
     1
  3
ACAD_XREC_ROUNDTRIP
360
371
  3
BUMPTILE
360
24
  3
DIFFUSETILE
360
23
  3
OPACITYTILE
360
27
  3
REFLECTIONTILE
360
26
  3
REFRACTIONTILE
360
28
  3
SPECULARTILE
360
25
  0
DICTIONARY
  5
36B
330
6C
100
AcDbDictionary
280
     1
281
     1
  3
ACAD_ROUNDTRIP_2008_TABLESTYLE_CELLSTYLEMAP
360
36C
  3
ACAD_XREC_ROUNDTRIP
360
372
  0
XRECORD
  5
376
102
{ACAD_REACTORS
330
375
102
}
330
375
100
AcDbXrecord
280
     1
102
SHADEPLOT
 70
     0
102
SHADEPLOTRESLEVEL
 70
     2
102
SHADEPLOTCUSTOMDPI
 70
   300
  0
XRECORD
  5
374
102
{ACAD_REACTORS
330
373
102
}
330
373
100
AcDbXrecord
280
     1
102
SHADEPLOT
 70
     0
102
SHADEPLOTRESLEVEL
 70
     2
102
SHADEPLOTCUSTOMDPI
 70
   300
  0
XRECORD
  5
370
102
{ACAD_REACTORS
330
1A
102
}
330
1A
100
AcDbXrecord
280
     1
102
MATERIAL
148
0.0
149
0.0
149
0.0
 93
        0
 94
      127
282
     0
 72
     0
 77
     0
171
     0
175
     0
179
     0
273
     0
  0
XRECORD
  5
1C
102
{ACAD_REACTORS
330
1A
102
}
330
1A
100
AcDbXrecord
280
     1
270
     1
271
     1
  0
XRECORD
  5
1B
102
{ACAD_REACTORS
330
1A
102
}
330
1A
100
AcDbXrecord
280
     1
270
     1
271
     1
  0
XRECORD
  5
1F
102
{ACAD_REACTORS
330
1A
102
}
330
1A
100
AcDbXrecord
280
     1
270
     1
271
     1
  0
XRECORD
  5
1E
102
{ACAD_REACTORS
330
1A
102
}
330
1A
100
AcDbXrecord
280
     1
270
     1
271
     1
  0
XRECORD
  5
20
102
{ACAD_REACTORS
330
1A
102
}
330
1A
100
AcDbXrecord
280
     1
270
     1
271
     1
  0
XRECORD
  5
1D
102
{ACAD_REACTORS
330
1A
102
}
330
1A
100
AcDbXrecord
280
     1
270
     1
271
     1
  0
XRECORD
  5
36F
102
{ACAD_REACTORS
330
12
102
}
330
12
100
AcDbXrecord
280
     1
102
MATERIAL
148
0.0
149
0.0
149
0.0
 93
        0
 94
      127
282
     0
 72
     0
 77
     0
171
     0
175
     0
179
     0
273
     0
  0
XRECORD
  5
14
102
{ACAD_REACTORS
330
12
102
}
330
12
100
AcDbXrecord
280
     1
270
     1
271
     1
  0
XRECORD
  5
13
102
{ACAD_REACTORS
330
12
102
}
330
12
100
AcDbXrecord
280
     1
270
     1
271
     1
  0
XRECORD
  5
17
102
{ACAD_REACTORS
330
12
102
}
330
12
100
AcDbXrecord
280
     1
270
     1
271
     1
  0
XRECORD
  5
16
102
{ACAD_REACTORS
330
12
102
}
330
12
100
AcDbXrecord
280
     1
270
     1
271
     1
  0
XRECORD
  5
18
102
{ACAD_REACTORS
330
12
102
}
330
12
100
AcDbXrecord
280
     1
270
     1
271
     1
  0
XRECORD
  5
15
102
{ACAD_REACTORS
330
12
102
}
330
12
100
AcDbXrecord
280
     1
270
     1
271
     1
  0
XRECORD
  5
371
102
{ACAD_REACTORS
330
22
102
}
330
22
100
AcDbXrecord
280
     1
102
MATERIAL
148
0.0
149
0.0
149
0.0
 93
        0
 94
      127
282
     0
 72
     0
 77
     0
171
     0
175
     0
179
     0
273
     0
  0
XRECORD
  5
24
102
{ACAD_REACTORS
330
22
102
}
330
22
100
AcDbXrecord
280
     1
270
     1
271
     1
  0
XRECORD
  5
23
102
{ACAD_REACTORS
330
22
102
}
330
22
100
AcDbXrecord
280
     1
270
     1
271
     1
  0
XRECORD
  5
27
102
{ACAD_REACTORS
330
22
102
}
330
22
100
AcDbXrecord
280
     1
270
     1
271
     1
  0
XRECORD
  5
26
102
{ACAD_REACTORS
330
22
102
}
330
22
100
AcDbXrecord
280
     1
270
     1
271
     1
  0
XRECORD
  5
28
102
{ACAD_REACTORS
330
22
102
}
330
22
100
AcDbXrecord
280
     1
270
     1
271
     1
  0
XRECORD
  5
25
102
{ACAD_REACTORS
330
22
102
}
330
22
100
AcDbXrecord
280
     1
270
     1
271
     1
  0
CELLSTYLEMAP
  5
36C
102
{ACAD_REACTORS
330
36B
102
}
330
36B
100
AcDbCellStyleMap
 90
        3
300
CELLSTYLE
  1
TABLEFORMAT_BEGIN
 90
        5
170
     1
 91
        0
 92
    32768
 62
   257
 93
        1
300
CONTENTFORMAT
  1
CONTENTFORMAT_BEGIN
 90
        0
 91
        0
 92
      512
 93
        0
300

 40
0.0
140
1.0
 94
        5
 62
     0
340
5D
144
0.25
309
CONTENTFORMAT_END
171
     0
 94
        0
309
TABLEFORMAT_END
  1
CELLSTYLE_BEGIN
 90
        1
 91
        1
300
_TITLE
309
CELLSTYLE_END
300
CELLSTYLE
  1
TABLEFORMAT_BEGIN
 90
        5
170
     1
 91
        0
 92
        0
 62
   257
 93
        1
300
CONTENTFORMAT
  1
CONTENTFORMAT_BEGIN
 90
        0
 91
        0
 92
      512
 93
        0
300

 40
0.0
140
1.0
 94
        5
 62
     0
340
5D
144
0.18
309
CONTENTFORMAT_END
171
     0
 94
        0
309
TABLEFORMAT_END
  1
CELLSTYLE_BEGIN
 90
        2
 91
        1
300
_HEADER
309
CELLSTYLE_END
300
CELLSTYLE
  1
TABLEFORMAT_BEGIN
 90
        5
170
     1
 91
        0
 92
        0
 62
   257
 93
        1
300
CONTENTFORMAT
  1
CONTENTFORMAT_BEGIN
 90
        0
 91
        0
 92
      512
 93
        0
300

 40
0.0
140
1.0
 94
        2
 62
     0
340
5D
144
0.18
309
CONTENTFORMAT_END
171
     0
 94
        0
309
TABLEFORMAT_END
  1
CELLSTYLE_BEGIN
 90
        3
 91
        2
300
_DATA
309
CELLSTYLE_END
  0
XRECORD
  5
372
102
{ACAD_REACTORS
330
36B
102
}
330
36B
100
AcDbXrecord
280
     1
102
ACAD_ROUNDTRIP_PRE2007_TABLESTYLE
 90
      512
 91
        0
  1

 92
      512
 93
        0
  2

 94
      512
 95
        0
  3

  0
ENDSEC
  0
EOF
