   0
SECTION
   2
HEADER
 999
Original drawing name : Untitled1
 999
Exported from PartMaster Gear Designer: Friday, June 12, 2009 20:23:47
 999
UNITS::MM
   9
$EXTMIN
  10
-22.000000
  20
-22.000000
   9
$EXTMAX
  10
22.000000
  20
22.000000
   9
$LIMMIN
  10
-24.200000
  20
-24.200000
   9
$LIMMAX
  10
24.200000
  20
24.200000
   0
ENDSEC
   0
SECTION
   2
TABLES
   0
TABLE
   2
LTYPE
  70
3
   0
LTYPE
   2
DASHDOTDOT
  70
64
   3
Dash-Dot-Dot Line
  72
65
  73
6
  40
4.194667
  49
1.613333
  49
0.968000
  49
-0.322667
  49
-0.322667
  49
-0.322667
  49
-0.322667
   0
LTYPE
   2
SOLID
  70
64
   3
Solid line
  72
65
  73
0
  40
0.000000E+000
   0
ENDTAB
   0
TABLE
   2
LAYER
  70
1
   0
LAYER
   2
INVOLUTE
  62
7
  70
0
   6
SOLID
   0
ENDTAB
   0
TABLE
   2
STYLE
   0
ENDTAB
   0
TABLE
   2
VIEW
  70
0
   0
ENDTAB
   0
ENDSEC
   0
SECTION
   2
BLOCKS
   0
ENDSEC
   0
SECTION
   2
ENTITIES
   0
ARC
   8
INVOLUTE
   6
DASHDOTDOT
  62
5
  39
0.000000E+000
  10
0.000000E+000
  20
0.000000E+000
  30
0.000000E+000
  40
20.000000
  50
90.000000
  51
270.000000
   0
ARC
   8
INVOLUTE
   6
DASHDOTDOT
  62
5
  39
0.000000E+000
  10
0.000000E+000
  20
0.000000E+000
  30
0.000000E+000
  40
20.000000
  50
270.000000
  51
90.000000
   0
ARC
   8
INVOLUTE
   6
SOLID
  62
7
  39
0.000000E+000
  10
0.000000E+000
  20
0.000000E+000
  30
0.000000E+000
  40
17.500000
  50
81.000000
  51
84.646042
   0
LINE
   8
INVOLUTE
   6
SOLID
  62
7
  39
0.000000E+000
  10
1.632895
  20
17.423652
  30
0.000000E+000
  11
1.753622
  21
18.711860
  31
0.000000E+000
   0
ARC
   8
INVOLUTE
   6
SOLID
  62
7
  39
0.000000E+000
  10
1.202872
  20
18.756586
  30
0.000000E+000
  40
0.552563
  50
355.357227
  51
357.357804
   0
ARC
   8
INVOLUTE
   6
SOLID
  62
7
  39
0.000000E+000
  10
0.573014
  20
18.785652
  30
0.000000E+000
  40
1.183092
  50
357.357804
  51
359.062340
   0
ARC
   8
INVOLUTE
   6
SOLID
  62
7
  39
0.000000E+000
  10
0.028160
  20
18.794570
  30
0.000000E+000
  40
1.728018
  50
359.062340
  51
0.789012
   0
ARC
   8
INVOLUTE
   6
SOLID
  62
7
  39
0.000000E+000
  10
-0.543614
  20
18.786696
  30
0.000000E+000
  40
2.299847
  50
0.789012
  51
2.523063
   0
ARC
   8
INVOLUTE
   6
SOLID
  62
7
  39
0.000000E+000
  10
-1.111722
  20
18.761662
  30
0.000000E+000
  40
2.868506
  50
2.523063
  51
4.260469
   0
ARC
   8
INVOLUTE
   6
SOLID
  62
7
  39
0.000000E+000
  10
-1.680527
  20
18.719288
  30
0.000000E+000
  40
3.438887
  50
4.260469
  51
5.999680
   0
ARC
   8
INVOLUTE
   6
SOLID
  62
7
  39
0.000000E+000
  10
-2.248057
  20
18.659642
  30
0.000000E+000
  40
4.009543
  50
5.999680
  51
7.739975
   0
ARC
   8
INVOLUTE
   6
SOLID
  62
7
  39
0.000000E+000
  10
-2.813829
  20
18.582744
  30
0.000000E+000
  40
4.580517
  50
7.739975
  51
9.480972
   0
ARC
   8
INVOLUTE
   6
SOLID
  62
7
  39
0.000000E+000
  10
-3.377184
  20
18.488663
  30
0.000000E+000
  40
5.151673
  50
9.480972
  51
11.222448
   0
ARC
   8
INVOLUTE
   6
SOLID
  62
7
  39
0.000000E+000
  10
-3.937550
  20
18.377480
  30
0.000000E+000
  40
5.722963
  50
11.222448
  51
12.964267
   0
ARC
   8
INVOLUTE
   6
SOLID
  62
7
  39
0.000000E+000
  10
-4.494372
  20
18.249293
  30
0.000000E+000
  40
6.294350
  50
12.964267
  51
14.706339
   0
ARC
   8
INVOLUTE
   6
SOLID
  62
7
  39
0.000000E+000
  10
-5.047109
  20
18.104220
  30
0.000000E+000
  40
6.865808
  50
14.706339
  51
16.448603
   0
ARC
   8
INVOLUTE
   6
SOLID
  62
7
  39
0.000000E+000
  10
-5.595236
  20
17.942392
  30
0.000000E+000
  40
7.437324
  50
16.448603
  51
18.191017
   0
ARC
   8
INVOLUTE
   6
SOLID
  62
7
  39
0.000000E+000
  10
-6.138216
  20
17.763964
  30
0.000000E+000
  40
8.008870
  50
18.191017
  51
19.933550
   0
ARC
   8
INVOLUTE
   6
SOLID
  62
7
  39
0.000000E+000
  10
-6.675634
  20
17.569065
  30
0.000000E+000
  40
8.580537
  50
19.933550
  51
21.676179
   0
ARC
   8
INVOLUTE
   6
SOLID
  62
7
  39
0.000000E+000
  10
-7.206416
  20
17.358097
  30
0.000000E+000
  40
9.151708
  50
21.676179
  51
23.418886
   0
ARC
   8
INVOLUTE
   6
SOLID
  62
7
  39
0.000000E+000
  10
-7.733449
  20
17.129823
  30
0.000000E+000
  40
9.726054
  50
23.418886
  51
25.161658
   0
ARC
   8
INVOLUTE
   6
SOLID
  62
7
  39
0.000000E+000
  10
-8.236214
  20
16.893650
  30
0.000000E+000
  40
10.281527
  50
25.161658
  51
26.904485
   0
ARC
   8
INVOLUTE
   6
SOLID
  62
7
  39
0.000000E+000
  10
-8.832735
  20
16.590959
  30
0.000000E+000
  40
10.950451
  50
26.904485
  51
29.534918
   0
ARC
   8
INVOLUTE
   6
SOLID
  62
7
  39
0.000000E+000
  10
0.000000E+000
  20
0.000000E+000
  30
0.000000E+000
  40
22.000000
  50
88.190287
  51
90.000000
   0
ARC
   8
INVOLUTE
   6
SOLID
  62
7
  39
0.000000E+000
  10
0.000000E+000
  20
0.000000E+000
  30
0.000000E+000
  40
22.000000
  50
90.000000
  51
91.809713
   0
ARC
   8
INVOLUTE
   6
SOLID
  62
7
  39
0.000000E+000
  10
8.832735
  20
16.590959
  30
0.000000E+000
  40
10.950451
  50
150.465082
  51
153.095515
   0
ARC
   8
INVOLUTE
   6
SOLID
  62
7
  39
0.000000E+000
  10
8.236214
  20
16.893650
  30
0.000000E+000
  40
10.281527
  50
153.095515
  51
154.838342
   0
ARC
   8
INVOLUTE
   6
SOLID
  62
7
  39
0.000000E+000
  10
7.733449
  20
17.129823
  30
0.000000E+000
  40
9.726054
  50
154.838342
  51
156.581114
   0
ARC
   8
INVOLUTE
   6
SOLID
  62
7
  39
0.000000E+000
  10
7.206416
  20
17.358097
  30
0.000000E+000
  40
9.151708
  50
156.581114
  51
158.323821
   0
ARC
   8
INVOLUTE
   6
SOLID
  62
7
  39
0.000000E+000
  10
6.675634
  20
17.569065
  30
0.000000E+000
  40
8.580537
  50
158.323821
  51
160.066450
   0
ARC
   8
INVOLUTE
   6
SOLID
  62
7
  39
0.000000E+000
  10
6.138216
  20
17.763964
  30
0.000000E+000
  40
8.008870
  50
160.066450
  51
161.808983
   0
ARC
   8
INVOLUTE
   6
SOLID
  62
7
  39
0.000000E+000
  10
5.595236
  20
17.942392
  30
0.000000E+000
  40
7.437324
  50
161.808983
  51
163.551397
   0
ARC
   8
INVOLUTE
   6
SOLID
  62
7
  39
0.000000E+000
  10
5.047109
  20
18.104220
  30
0.000000E+000
  40
6.865808
  50
163.551397
  51
165.293661
   0
ARC
   8
INVOLUTE
   6
SOLID
  62
7
  39
0.000000E+000
  10
4.494372
  20
18.249293
  30
0.000000E+000
  40
6.294350
  50
165.293661
  51
167.035733
   0
ARC
   8
INVOLUTE
   6
SOLID
  62
7
  39
0.000000E+000
  10
3.937550
  20
18.377480
  30
0.000000E+000
  40
5.722963
  50
167.035733
  51
168.777552
   0
ARC
   8
INVOLUTE
   6
SOLID
  62
7
  39
0.000000E+000
  10
3.377184
  20
18.488663
  30
0.000000E+000
  40
5.151673
  50
168.777552
  51
170.519028
   0
ARC
   8
INVOLUTE
   6
SOLID
  62
7
  39
0.000000E+000
  10
2.813829
  20
18.582744
  30
0.000000E+000
  40
4.580517
  50
170.519028
  51
172.260025
   0
ARC
   8
INVOLUTE
   6
SOLID
  62
7
  39
0.000000E+000
  10
2.248057
  20
18.659642
  30
0.000000E+000
  40
4.009543
  50
172.260025
  51
174.000320
   0
ARC
   8
INVOLUTE
   6
SOLID
  62
7
  39
0.000000E+000
  10
1.680527
  20
18.719288
  30
0.000000E+000
  40
3.438887
  50
174.000320
  51
175.739531
   0
ARC
   8
INVOLUTE
   6
SOLID
  62
7
  39
0.000000E+000
  10
1.111722
  20
18.761662
  30
0.000000E+000
  40
2.868506
  50
175.739531
  51
177.476937
   0
ARC
   8
INVOLUTE
   6
SOLID
  62
7
  39
0.000000E+000
  10
0.543614
  20
18.786696
  30
0.000000E+000
  40
2.299847
  50
177.476937
  51
179.210988
   0
ARC
   8
INVOLUTE
   6
SOLID
  62
7
  39
0.000000E+000
  10
-0.028160
  20
18.794570
  30
0.000000E+000
  40
1.728018
  50
179.210988
  51
180.937660
   0
ARC
   8
INVOLUTE
   6
SOLID
  62
7
  39
0.000000E+000
  10
-0.573014
  20
18.785652
  30
0.000000E+000
  40
1.183092
  50
180.937660
  51
182.642196
   0
ARC
   8
INVOLUTE
   6
SOLID
  62
7
  39
0.000000E+000
  10
-1.202872
  20
18.756586
  30
0.000000E+000
  40
0.552563
  50
182.642196
  51
184.642773
   0
LINE
   8
INVOLUTE
   6
SOLID
  62
7
  39
0.000000E+000
  10
-1.753622
  20
18.711860
  30
0.000000E+000
  11
-1.632895
  21
17.423652
  31
0.000000E+000
   0
ARC
   8
INVOLUTE
   6
SOLID
  62
7
  39
0.000000E+000
  10
0.000000E+000
  20
0.000000E+000
  30
0.000000E+000
  40
17.500000
  50
95.353958
  51
99.000000
   0
ARC
   8
INVOLUTE
   6
SOLID
  62
7
  39
0.000000E+000
  10
0.000000E+000
  20
0.000000E+000
  30
0.000000E+000
  40
17.500000
  50
99.000000
  51
102.646042
   0
LINE
   8
INVOLUTE
   6
SOLID
  62
7
  39
0.000000E+000
  10
-3.831229
  20
17.075470
  30
0.000000E+000
  11
-4.114489
  21
18.337935
  31
0.000000E+000
   0
ARC
   8
INVOLUTE
   6
SOLID
  62
7
  39
0.000000E+000
  10
-4.652104
  20
18.210281
  30
0.000000E+000
  40
0.552563
  50
13.357227
  51
15.357804
   0
ARC
   8
INVOLUTE
   6
SOLID
  62
7
  39
0.000000E+000
  10
-5.260118
  20
18.043288
  30
0.000000E+000
  40
1.183092
  50
15.357804
  51
17.062340
   0
ARC
   8
INVOLUTE
   6
SOLID
  62
7
  39
0.000000E+000
  10
-5.781060
  20
17.883400
  30
0.000000E+000
  40
1.728018
  50
17.062340
  51
18.789012
   0
ARC
   8
INVOLUTE
   6
SOLID
  62
7
  39
0.000000E+000
  10
-6.322416
  20
17.699223
  30
0.000000E+000
  40
2.299847
  50
18.789012
  51
20.523063
   0
ARC
   8
INVOLUTE
   6
SOLID
  62
7
  39
0.000000E+000
  10
-6.854983
  20
17.499860
  30
0.000000E+000
  40
2.868506
  50
20.523063
  51
22.260469
   0
ARC
   8
INVOLUTE
   6
SOLID
  62
7
  39
0.000000E+000
  10
-7.382854
  20
17.283790
  30
0.000000E+000
  40
3.438887
  50
22.260469
  51
23.999680
   0
ARC
   8
INVOLUTE
   6
SOLID
  62
7
  39
0.000000E+000
  10
-7.904176
  20
17.051686
  30
0.000000E+000
  40
4.009543
  50
23.999680
  51
25.739975
   0
ARC
   8
INVOLUTE
   6
SOLID
  62
7
  39
0.000000E+000
  10
-8.418494
  20
16.803719
  30
0.000000E+000
  40
4.580517
  50
25.739975
  51
27.480972
   0
ARC
   8
INVOLUTE
   6
SOLID
  62
7
  39
0.000000E+000
  10
-8.925204
  20
16.540157
  30
0.000000E+000
  40
5.151673
  50
27.480972
  51
29.222448
   0
ARC
   8
INVOLUTE
   6
SOLID
  62
7
  39
0.000000E+000
  10
-9.423786
  20
16.261252
  30
0.000000E+000
  40
5.722963
  50
29.222448
  51
30.964267
   0
ARC
   8
INVOLUTE
   6
SOLID
  62
7
  39
0.000000E+000
  10
-9.913744
  20
15.967272
  30
0.000000E+000
  40
6.294350
  50
30.964267
  51
32.706339
   0
ARC
   8
INVOLUTE
   6
SOLID
  62
7
  39
0.000000E+000
  10
-10.394598
  20
15.658494
  30
0.000000E+000
  40
6.865808
  50
32.706339
  51
34.448603
   0
ARC
   8
INVOLUTE
   6
SOLID
  62
7
  39
0.000000E+000
  10
-10.865889
  20
15.335206
  30
0.000000E+000
  40
7.437324
  50
34.448603
  51
36.191017
   0
ARC
   8
INVOLUTE
   6
SOLID
  62
7
  39
0.000000E+000
  10
-11.327157
  20
14.997720
  30
0.000000E+000
  40
8.008870
  50
36.191017
  51
37.933550
   0
ARC
   8
INVOLUTE
   6
SOLID
  62
7
  39
0.000000E+000
  10
-11.778045
  20
14.646289
  30
0.000000E+000
  40
8.580537
  50
37.933550
  51
39.676179
   0
ARC
   8
INVOLUTE
   6
SOLID
  62
7
  39
0.000000E+000
  10
-12.217655
  20
14.281626
  30
0.000000E+000
  40
9.151708
  50
39.676179
  51
41.418886
   0
ARC
   8
INVOLUTE
   6
SOLID
  62
7
  39
0.000000E+000
  10
-12.648353
  20
13.901663
  30
0.000000E+000
  40
9.726054
  50
41.418886
  51
43.161658
   0
ARC
   8
INVOLUTE
   6
SOLID
  62
7
  39
0.000000E+000
  10
-13.053530
  20
13.521686
  30
0.000000E+000
  40
10.281527
  50
43.161658
  51
44.904485
   0
ARC
   8
INVOLUTE
   6
SOLID
  62
7
  39
0.000000E+000
  10
-13.527319
  20
13.049474
  30
0.000000E+000
  40
10.950451
  50
44.904485
  51
47.534918
   0
ARC
   8
INVOLUTE
   6
SOLID
  62
7
  39
0.000000E+000
  10
0.000000E+000
  20
0.000000E+000
  30
0.000000E+000
  40
22.000000
  50
106.190287
  51
108.000000
   0
ARC
   8
INVOLUTE
   6
SOLID
  62
7
  39
0.000000E+000
  10
0.000000E+000
  20
0.000000E+000
  30
0.000000E+000
  40
22.000000
  50
108.000000
  51
109.809713
   0
ARC
   8
INVOLUTE
   6
SOLID
  62
7
  39
0.000000E+000
  10
3.273542
  20
18.508405
  30
0.000000E+000
  40
10.950451
  50
168.465082
  51
171.095515
   0
ARC
   8
INVOLUTE
   6
SOLID
  62
7
  39
0.000000E+000
  10
2.612680
  20
18.611946
  30
0.000000E+000
  40
10.281527
  50
171.095515
  51
172.838342
   0
ARC
   8
INVOLUTE
   6
SOLID
  62
7
  39
0.000000E+000
  10
2.061540
  20
18.681197
  30
0.000000E+000
  40
9.726054
  50
172.838342
  51
174.581114
   0
ARC
   8
INVOLUTE
   6
SOLID
  62
7
  39
0.000000E+000
  10
1.489762
  20
18.735436
  30
0.000000E+000
  40
9.151708
  50
174.581114
  51
176.323821
   0
ARC
   8
INVOLUTE
   6
SOLID
  62
7
  39
0.000000E+000
  10
0.919765
  20
18.772058
  30
0.000000E+000
  40
8.580537
  50
176.323821
  51
178.066450
   0
ARC
   8
INVOLUTE
   6
SOLID
  62
7
  39
0.000000E+000
  10
0.348423
  20
18.791346
  30
0.000000E+000
  40
8.008870
  50
178.066450
  51
179.808983
   0
ARC
   8
INVOLUTE
   6
SOLID
  62
7
  39
0.000000E+000
  10
-0.223119
  20
18.793252
  30
0.000000E+000
  40
7.437324
  50
179.808983
  51
181.551397
   0
ARC
   8
INVOLUTE
   6
SOLID
  62
7
  39
0.000000E+000
  10
-0.794425
  20
18.777779
  30
0.000000E+000
  40
6.865808
  50
181.551397
  51
183.293661
   0
ARC
   8
INVOLUTE
   6
SOLID
  62
7
  39
0.000000E+000
  10
-1.364940
  20
18.744946
  30
0.000000E+000
  40
6.294350
  50
183.293661
  51
185.035733
   0
ARC
   8
INVOLUTE
   6
SOLID
  62
7
  39
0.000000E+000
  10
-1.934121
  20
18.694792
  30
0.000000E+000
  40
5.722963
  50
185.035733
  51
186.777552
   0
ARC
   8
INVOLUTE
   6
SOLID
  62
7
  39
0.000000E+000
  10
-2.501418
  20
18.627371
  30
0.000000E+000
  40
5.151673
  50
186.777552
  51
188.519028
   0
ARC
   8
INVOLUTE
   6
SOLID
  62
7
  39
0.000000E+000
  10
-3.066273
  20
18.542761
  30
0.000000E+000
  40
4.580517
  50
188.519028
  51
190.260025
   0
ARC
   8
INVOLUTE
   6
SOLID
  62
7
  39
0.000000E+000
  10
-3.628117
  20
18.441062
  30
0.000000E+000
  40
4.009543
  50
190.260025
  51
192.000320
   0
ARC
   8
INVOLUTE
   6
SOLID
  62
7
  39
0.000000E+000
  10
-4.186302
  20
18.322413
  30
0.000000E+000
  40
3.438887
  50
192.000320
  51
193.739531
   0
ARC
   8
INVOLUTE
   6
SOLID
  62
7
  39
0.000000E+000
  10
-4.740362
  20
18.186942
  30
0.000000E+000
  40
2.868506
  50
193.739531
  51
195.476937
   0
ARC
   8
INVOLUTE
   6
SOLID
  62
7
  39
0.000000E+000
  10
-5.288400
  20
18.035195
  30
0.000000E+000
  40
2.299847
  50
195.476937
  51
197.210988
   0
ARC
   8
INVOLUTE
   6
SOLID
  62
7
  39
0.000000E+000
  10
-5.834623
  20
17.865996
  30
0.000000E+000
  40
1.728018
  50
197.210988
  51
198.937660
   0
ARC
   8
INVOLUTE
   6
SOLID
  62
7
  39
0.000000E+000
  10
-6.350054
  20
17.689146
  30
0.000000E+000
  40
1.183092
  50
198.937660
  51
200.642196
   0
ARC
   8
INVOLUTE
   6
SOLID
  62
7
  39
0.000000E+000
  10
-6.940103
  20
17.466865
  30
0.000000E+000
  40
0.552563
  50
200.642196
  51
202.642773
   0
LINE
   8
INVOLUTE
   6
SOLID
  62
7
  39
0.000000E+000
  10
-7.450076
  20
17.254137
  30
0.000000E+000
  11
-6.937180
  21
16.066286
  31
0.000000E+000
   0
ARC
   8
INVOLUTE
   6
SOLID
  62
7
  39
0.000000E+000
  10
0.000000E+000
  20
0.000000E+000
  30
0.000000E+000
  40
17.500000
  50
113.353958
  51
117.000000
   0
ARC
   8
INVOLUTE
   6
SOLID
  62
7
  39
0.000000E+000
  10
0.000000E+000
  20
0.000000E+000
  30
0.000000E+000
  40
17.500000
  50
117.000000
  51
120.646042
   0
LINE
   8
INVOLUTE
   6
SOLID
  62
7
  39
0.000000E+000
  10
-8.920326
  20
15.055822
  30
0.000000E+000
  11
-9.579845
  21
16.168966
  31
0.000000E+000
   0
ARC
   8
INVOLUTE
   6
SOLID
  62
7
  39
0.000000E+000
  10
-10.051700
  20
15.881427
  30
0.000000E+000
  40
0.552563
  50
31.357227
  51
33.357804
   0
ARC
   8
INVOLUTE
   6
SOLID
  62
7
  39
0.000000E+000
  10
-10.578352
  20
15.534721
  30
0.000000E+000
  40
1.183092
  50
33.357804
  51
35.062340
   0
ARC
   8
INVOLUTE
   6
SOLID
  62
7
  39
0.000000E+000
  10
-11.024389
  20
15.221678
  30
0.000000E+000
  40
1.728018
  50
35.062340
  51
36.789012
   0
ARC
   8
INVOLUTE
   6
SOLID
  62
7
  39
0.000000E+000
  10
-11.482336
  20
14.879228
  30
0.000000E+000
  40
2.299847
  50
36.789012
  51
38.523063
   0
ARC
   8
INVOLUTE
   6
SOLID
  62
7
  39
0.000000E+000
  10
-11.927231
  20
14.525050
  30
0.000000E+000
  40
2.868506
  50
38.523063
  51
40.260469
   0
ARC
   8
INVOLUTE
   6
SOLID
  62
7
  39
0.000000E+000
  10
-12.362496
  20
14.156434
  30
0.000000E+000
  40
3.438887
  50
40.260469
  51
41.999680
   0
ARC
   8
INVOLUTE
   6
SOLID
  62
7
  39
0.000000E+000
  10
-12.786579
  20
13.774592
  30
0.000000E+000
  40
4.009543
  50
41.999680
  51
43.739975
   0
ARC
   8
INVOLUTE
   6
SOLID
  62
7
  39
0.000000E+000
  10
-13.199099
  20
13.379829
  30
0.000000E+000
  40
4.580517
  50
43.739975
  51
45.480972
   0
ARC
   8
INVOLUTE
   6
SOLID
  62
7
  39
0.000000E+000
  10
-13.599563
  20
12.972584
  30
0.000000E+000
  40
5.151673
  50
45.480972
  51
47.222448
   0
ARC
   8
INVOLUTE
   6
SOLID
  62
7
  39
0.000000E+000
  10
-13.987557
  20
12.553259
  30
0.000000E+000
  40
5.722963
  50
47.222448
  51
48.964267
   0
ARC
   8
INVOLUTE
   6
SOLID
  62
7
  39
0.000000E+000
  10
-14.362689
  20
12.122263
  30
0.000000E+000
  40
6.294350
  50
48.964267
  51
50.706339
   0
ARC
   8
INVOLUTE
   6
SOLID
  62
7
  39
0.000000E+000
  10
-14.724591
  20
11.680005
  30
0.000000E+000
  40
6.865808
  50
50.706339
  51
52.448603
   0
ARC
   8
INVOLUTE
   6
SOLID
  62
7
  39
0.000000E+000
  10
-15.072914
  20
11.226903
  30
0.000000E+000
  40
7.437324
  50
52.448603
  51
54.191017
   0
ARC
   8
INVOLUTE
   6
SOLID
  62
7
  39
0.000000E+000
  10
-15.407317
  20
10.763396
  30
0.000000E+000
  40
8.008870
  50
54.191017
  51
55.933550
   0
ARC
   8
INVOLUTE
   6
SOLID
  62
7
  39
0.000000E+000
  10
-15.727538
  20
10.289833
  30
0.000000E+000
  40
8.580537
  50
55.933550
  51
57.676179
   0
ARC
   8
INVOLUTE
   6
SOLID
  62
7
  39
0.000000E+000
  10
-16.032946
  20
9.807170
  30
0.000000E+000
  40
9.151708
  50
57.676179
  51
59.418886
   0
ARC
   8
INVOLUTE
   6
SOLID
  62
7
  39
0.000000E+000
  10
-16.325149
  20
9.312711
  30
0.000000E+000
  40
9.726054
  50
59.418886
  51
61.161658
   0
ARC
   8
INVOLUTE
   6
SOLID
  62
7
  39
0.000000E+000
  10
-16.593076
  20
8.826125
  30
0.000000E+000
  40
10.281527
  50
61.161658
  51
62.904485
   0
ARC
   8
INVOLUTE
   6
SOLID
  62
7
  39
0.000000E+000
  10
-16.897754
  20
8.230616
  30
0.000000E+000
  40
10.950451
  50
62.904485
  51
65.534918
   0
ARC
   8
INVOLUTE
   6
SOLID
  62
7
  39
0.000000E+000
  10
0.000000E+000
  20
0.000000E+000
  30
0.000000E+000
  40
22.000000
  50
124.190287
  51
126.000000
   0
ARC
   8
INVOLUTE
   6
SOLID
  62
7
  39
0.000000E+000
  10
0.000000E+000
  20
0.000000E+000
  30
0.000000E+000
  40
22.000000
  50
126.000000
  51
127.809713
   0
ARC
   8
INVOLUTE
   6
SOLID
  62
7
  39
0.000000E+000
  10
-2.606088
  20
18.614119
  30
0.000000E+000
  40
10.950451
  50
186.465082
  51
189.095515
   0
ARC
   8
INVOLUTE
   6
SOLID
  62
7
  39
0.000000E+000
  10
-3.266602
  20
18.508375
  30
0.000000E+000
  40
10.281527
  50
189.095515
  51
190.838342
   0
ARC
   8
INVOLUTE
   6
SOLID
  62
7
  39
0.000000E+000
  10
-3.812166
  20
18.403925
  30
0.000000E+000
  40
9.726054
  50
190.838342
  51
192.581114
   0
ARC
   8
INVOLUTE
   6
SOLID
  62
7
  39
0.000000E+000
  10
-4.372721
  20
18.278820
  30
0.000000E+000
  40
9.151708
  50
192.581114
  51
194.323821
   0
ARC
   8
INVOLUTE
   6
SOLID
  62
7
  39
0.000000E+000
  10
-4.926136
  20
18.137511
  30
0.000000E+000
  40
8.580537
  50
194.323821
  51
196.066450
   0
ARC
   8
INVOLUTE
   6
SOLID
  62
7
  39
0.000000E+000
  10
-5.475475
  20
17.979301
  30
0.000000E+000
  40
8.008870
  50
196.066450
  51
197.808983
   0
ARC
   8
INVOLUTE
   6
SOLID
  62
7
  39
0.000000E+000
  10
-6.019633
  20
17.804497
  30
0.000000E+000
  40
7.437324
  50
197.808983
  51
199.551397
   0
ARC
   8
INVOLUTE
   6
SOLID
  62
7
  39
0.000000E+000
  10
-6.558196
  20
17.613238
  30
0.000000E+000
  40
6.865808
  50
199.551397
  51
201.293661
   0
ARC
   8
INVOLUTE
   6
SOLID
  62
7
  39
0.000000E+000
  10
-7.090642
  20
17.405714
  30
0.000000E+000
  40
6.294350
  50
201.293661
  51
203.035733
   0
ARC
   8
INVOLUTE
   6
SOLID
  62
7
  39
0.000000E+000
  10
-7.616466
  20
17.182127
  30
0.000000E+000
  40
5.722963
  50
203.035733
  51
204.777552
   0
ARC
   8
INVOLUTE
   6
SOLID
  62
7
  39
0.000000E+000
  10
-8.135165
  20
16.942702
  30
0.000000E+000
  40
5.151673
  50
204.777552
  51
206.519028
   0
ARC
   8
INVOLUTE
   6
SOLID
  62
7
  39
0.000000E+000
  10
-8.646228
  20
16.687683
  30
0.000000E+000
  40
4.580517
  50
206.519028
  51
208.260025
   0
ARC
   8
INVOLUTE
   6
SOLID
  62
7
  39
0.000000E+000
  10
-9.149146
  20
16.417342
  30
0.000000E+000
  40
4.009543
  50
208.260025
  51
210.000320
   0
ARC
   8
INVOLUTE
   6
SOLID
  62
7
  39
0.000000E+000
  10
-9.643347
  20
16.132011
  30
0.000000E+000
  40
3.438887
  50
210.000320
  51
211.739531
   0
ARC
   8
INVOLUTE
   6
SOLID
  62
7
  39
0.000000E+000
  10
-10.128426
  20
15.831958
  30
0.000000E+000
  40
2.868506
  50
211.739531
  51
213.476937
   0
ARC
   8
INVOLUTE
   6
SOLID
  62
7
  39
0.000000E+000
  10
-10.602750
  20
15.518284
  30
0.000000E+000
  40
2.299847
  50
213.476937
  51
215.210988
   0
ARC
   8
INVOLUTE
   6
SOLID
  62
7
  39
0.000000E+000
  10
-11.069953
  20
15.188575
  30
0.000000E+000
  40
1.728018
  50
215.210988
  51
216.937660
   0
ARC
   8
INVOLUTE
   6
SOLID
  62
7
  39
0.000000E+000
  10
-11.505507
  20
14.861103
  30
0.000000E+000
  40
1.183092
  50
216.937660
  51
218.642196
   0
ARC
   8
INVOLUTE
   6
SOLID
  62
7
  39
0.000000E+000
  10
-11.997989
  20
14.467366
  30
0.000000E+000
  40
0.552563
  50
218.642196
  51
220.642773
   0
LINE
   8
INVOLUTE
   6
SOLID
  62
7
  39
0.000000E+000
  10
-12.417265
  20
14.107460
  30
0.000000E+000
  11
-11.562405
  21
13.136239
  31
0.000000E+000
   0
ARC
   8
INVOLUTE
   6
SOLID
  62
7
  39
0.000000E+000
  10
0.000000E+000
  20
0.000000E+000
  30
0.000000E+000
  40
17.500000
  50
131.353958
  51
135.000000
   0
ARC
   8
INVOLUTE
   6
SOLID
  62
7
  39
0.000000E+000
  10
0.000000E+000
  20
0.000000E+000
  30
0.000000E+000
  40
17.500000
  50
135.000000
  51
138.646042
   0
LINE
   8
INVOLUTE
   6
SOLID
  62
7
  39
0.000000E+000
  10
-13.136239
  20
11.562405
  30
0.000000E+000
  11
-14.107460
  21
12.417265
  31
0.000000E+000
   0
ARC
   8
INVOLUTE
   6
SOLID
  62
7
  39
0.000000E+000
  10
-14.467366
  20
11.997989
  30
0.000000E+000
  40
0.552563
  50
49.357227
  51
51.357804
   0
ARC
   8
INVOLUTE
   6
SOLID
  62
7
  39
0.000000E+000
  10
-14.861103
  20
11.505507
  30
0.000000E+000
  40
1.183092
  50
51.357804
  51
53.062340
   0
ARC
   8
INVOLUTE
   6
SOLID
  62
7
  39
0.000000E+000
  10
-15.188575
  20
11.069953
  30
0.000000E+000
  40
1.728018
  50
53.062340
  51
54.789012
   0
ARC
   8
INVOLUTE
   6
SOLID
  62
7
  39
0.000000E+000
  10
-15.518284
  20
10.602750
  30
0.000000E+000
  40
2.299847
  50
54.789012
  51
56.523063
   0
ARC
   8
INVOLUTE
   6
SOLID
  62
7
  39
0.000000E+000
  10
-15.831958
  20
10.128426
  30
0.000000E+000
  40
2.868506
  50
56.523063
  51
58.260469
   0
ARC
   8
INVOLUTE
   6
SOLID
  62
7
  39
0.000000E+000
  10
-16.132011
  20
9.643347
  30
0.000000E+000
  40
3.438887
  50
58.260469
  51
59.999680
   0
ARC
   8
INVOLUTE
   6
SOLID
  62
7
  39
0.000000E+000
  10
-16.417342
  20
9.149146
  30
0.000000E+000
  40
4.009543
  50
59.999680
  51
61.739975
   0
ARC
   8
INVOLUTE
   6
SOLID
  62
7
  39
0.000000E+000
  10
-16.687683
  20
8.646228
  30
0.000000E+000
  40
4.580517
  50
61.739975
  51
63.480972
   0
ARC
   8
INVOLUTE
   6
SOLID
  62
7
  39
0.000000E+000
  10
-16.942702
  20
8.135165
  30
0.000000E+000
  40
5.151673
  50
63.480972
  51
65.222448
   0
ARC
   8
INVOLUTE
   6
SOLID
  62
7
  39
0.000000E+000
  10
-17.182127
  20
7.616466
  30
0.000000E+000
  40
5.722963
  50
65.222448
  51
66.964267
   0
ARC
   8
INVOLUTE
   6
SOLID
  62
7
  39
0.000000E+000
  10
-17.405714
  20
7.090642
  30
0.000000E+000
  40
6.294350
  50
66.964267
  51
68.706339
   0
ARC
   8
INVOLUTE
   6
SOLID
  62
7
  39
0.000000E+000
  10
-17.613238
  20
6.558196
  30
0.000000E+000
  40
6.865808
  50
68.706339
  51
70.448603
   0
ARC
   8
INVOLUTE
   6
SOLID
  62
7
  39
0.000000E+000
  10
-17.804497
  20
6.019633
  30
0.000000E+000
  40
7.437324
  50
70.448603
  51
72.191017
   0
ARC
   8
INVOLUTE
   6
SOLID
  62
7
  39
0.000000E+000
  10
-17.979301
  20
5.475475
  30
0.000000E+000
  40
8.008870
  50
72.191017
  51
73.933550
   0
ARC
   8
INVOLUTE
   6
SOLID
  62
7
  39
0.000000E+000
  10
-18.137511
  20
4.926136
  30
0.000000E+000
  40
8.580537
  50
73.933550
  51
75.676179
   0
ARC
   8
INVOLUTE
   6
SOLID
  62
7
  39
0.000000E+000
  10
-18.278820
  20
4.372721
  30
0.000000E+000
  40
9.151708
  50
75.676179
  51
77.418886
   0
ARC
   8
INVOLUTE
   6
SOLID
  62
7
  39
0.000000E+000
  10
-18.403925
  20
3.812166
  30
0.000000E+000
  40
9.726054
  50
77.418886
  51
79.161658
   0
ARC
   8
INVOLUTE
   6
SOLID
  62
7
  39
0.000000E+000
  10
-18.508375
  20
3.266602
  30
0.000000E+000
  40
10.281527
  50
79.161658
  51
80.904485
   0
ARC
   8
INVOLUTE
   6
SOLID
  62
7
  39
0.000000E+000
  10
-18.614119
  20
2.606088
  30
0.000000E+000
  40
10.950451
  50
80.904485
  51
83.534918
   0
ARC
   8
INVOLUTE
   6
SOLID
  62
7
  39
0.000000E+000
  10
0.000000E+000
  20
0.000000E+000
  30
0.000000E+000
  40
22.000000
  50
142.190287
  51
144.000000
   0
ARC
   8
INVOLUTE
   6
SOLID
  62
7
  39
0.000000E+000
  10
0.000000E+000
  20
0.000000E+000
  30
0.000000E+000
  40
22.000000
  50
144.000000
  51
145.809713
   0
ARC
   8
INVOLUTE
   6
SOLID
  62
7
  39
0.000000E+000
  10
-8.230616
  20
16.897754
  30
0.000000E+000
  40
10.950451
  50
204.465082
  51
207.095515
   0
ARC
   8
INVOLUTE
   6
SOLID
  62
7
  39
0.000000E+000
  10
-8.826125
  20
16.593076
  30
0.000000E+000
  40
10.281527
  50
207.095515
  51
208.838342
   0
ARC
   8
INVOLUTE
   6
SOLID
  62
7
  39
0.000000E+000
  10
-9.312711
  20
16.325149
  30
0.000000E+000
  40
9.726054
  50
208.838342
  51
210.581114
   0
ARC
   8
INVOLUTE
   6
SOLID
  62
7
  39
0.000000E+000
  10
-9.807170
  20
16.032946
  30
0.000000E+000
  40
9.151708
  50
210.581114
  51
212.323821
   0
ARC
   8
INVOLUTE
   6
SOLID
  62
7
  39
0.000000E+000
  10
-10.289833
  20
15.727538
  30
0.000000E+000
  40
8.580537
  50
212.323821
  51
214.066450
   0
ARC
   8
INVOLUTE
   6
SOLID
  62
7
  39
0.000000E+000
  10
-10.763396
  20
15.407317
  30
0.000000E+000
  40
8.008870
  50
214.066450
  51
215.808983
   0
ARC
   8
INVOLUTE
   6
SOLID
  62
7
  39
0.000000E+000
  10
-11.226903
  20
15.072914
  30
0.000000E+000
  40
7.437324
  50
215.808983
  51
217.551397
   0
ARC
   8
INVOLUTE
   6
SOLID
  62
7
  39
0.000000E+000
  10
-11.680005
  20
14.724591
  30
0.000000E+000
  40
6.865808
  50
217.551397
  51
219.293661
   0
ARC
   8
INVOLUTE
   6
SOLID
  62
7
  39
0.000000E+000
  10
-12.122263
  20
14.362689
  30
0.000000E+000
  40
6.294350
  50
219.293661
  51
221.035733
   0
ARC
   8
INVOLUTE
   6
SOLID
  62
7
  39
0.000000E+000
  10
-12.553259
  20
13.987557
  30
0.000000E+000
  40
5.722963
  50
221.035733
  51
222.777552
   0
ARC
   8
INVOLUTE
   6
SOLID
  62
7
  39
0.000000E+000
  10
-12.972584
  20
13.599563
  30
0.000000E+000
  40
5.151673
  50
222.777552
  51
224.519028
   0
ARC
   8
INVOLUTE
   6
SOLID
  62
7
  39
0.000000E+000
  10
-13.379829
  20
13.199099
  30
0.000000E+000
  40
4.580517
  50
224.519028
  51
226.260025
   0
ARC
   8
INVOLUTE
   6
SOLID
  62
7
  39
0.000000E+000
  10
-13.774592
  20
12.786579
  30
0.000000E+000
  40
4.009543
  50
226.260025
  51
228.000320
   0
ARC
   8
INVOLUTE
   6
SOLID
  62
7
  39
0.000000E+000
  10
-14.156434
  20
12.362496
  30
0.000000E+000
  40
3.438887
  50
228.000320
  51
229.739531
   0
ARC
   8
INVOLUTE
   6
SOLID
  62
7
  39
0.000000E+000
  10
-14.525050
  20
11.927231
  30
0.000000E+000
  40
2.868506
  50
229.739531
  51
231.476937
   0
ARC
   8
INVOLUTE
   6
SOLID
  62
7
  39
0.000000E+000
  10
-14.879228
  20
11.482336
  30
0.000000E+000
  40
2.299847
  50
231.476937
  51
233.210988
   0
ARC
   8
INVOLUTE
   6
SOLID
  62
7
  39
0.000000E+000
  10
-15.221678
  20
11.024389
  30
0.000000E+000
  40
1.728018
  50
233.210988
  51
234.937660
   0
ARC
   8
INVOLUTE
   6
SOLID
  62
7
  39
0.000000E+000
  10
-15.534721
  20
10.578352
  30
0.000000E+000
  40
1.183092
  50
234.937660
  51
236.642196
   0
ARC
   8
INVOLUTE
   6
SOLID
  62
7
  39
0.000000E+000
  10
-15.881427
  20
10.051700
  30
0.000000E+000
  40
0.552563
  50
236.642196
  51
238.642773
   0
LINE
   8
INVOLUTE
   6
SOLID
  62
7
  39
0.000000E+000
  10
-16.168966
  20
9.579845
  30
0.000000E+000
  11
-15.055822
  21
8.920326
  31
0.000000E+000
   0
ARC
   8
INVOLUTE
   6
SOLID
  62
7
  39
0.000000E+000
  10
0.000000E+000
  20
0.000000E+000
  30
0.000000E+000
  40
17.500000
  50
149.353958
  51
153.000000
   0
ARC
   8
INVOLUTE
   6
SOLID
  62
7
  39
0.000000E+000
  10
0.000000E+000
  20
0.000000E+000
  30
0.000000E+000
  40
17.500000
  50
153.000000
  51
156.646042
   0
LINE
   8
INVOLUTE
   6
SOLID
  62
7
  39
0.000000E+000
  10
-16.066286
  20
6.937180
  30
0.000000E+000
  11
-17.254137
  21
7.450076
  31
0.000000E+000
   0
ARC
   8
INVOLUTE
   6
SOLID
  62
7
  39
0.000000E+000
  10
-17.466865
  20
6.940103
  30
0.000000E+000
  40
0.552563
  50
67.357227
  51
69.357804
   0
ARC
   8
INVOLUTE
   6
SOLID
  62
7
  39
0.000000E+000
  10
-17.689146
  20
6.350054
  30
0.000000E+000
  40
1.183092
  50
69.357804
  51
71.062340
   0
ARC
   8
INVOLUTE
   6
SOLID
  62
7
  39
0.000000E+000
  10
-17.865996
  20
5.834623
  30
0.000000E+000
  40
1.728018
  50
71.062340
  51
72.789012
   0
ARC
   8
INVOLUTE
   6
SOLID
  62
7
  39
0.000000E+000
  10
-18.035195
  20
5.288400
  30
0.000000E+000
  40
2.299847
  50
72.789012
  51
74.523063
   0
ARC
   8
INVOLUTE
   6
SOLID
  62
7
  39
0.000000E+000
  10
-18.186942
  20
4.740362
  30
0.000000E+000
  40
2.868506
  50
74.523063
  51
76.260469
   0
ARC
   8
INVOLUTE
   6
SOLID
  62
7
  39
0.000000E+000
  10
-18.322413
  20
4.186302
  30
0.000000E+000
  40
3.438887
  50
76.260469
  51
77.999680
   0
ARC
   8
INVOLUTE
   6
SOLID
  62
7
  39
0.000000E+000
  10
-18.441062
  20
3.628117
  30
0.000000E+000
  40
4.009543
  50
77.999680
  51
79.739975
   0
ARC
   8
INVOLUTE
   6
SOLID
  62
7
  39
0.000000E+000
  10
-18.542761
  20
3.066273
  30
0.000000E+000
  40
4.580517
  50
79.739975
  51
81.480972
   0
ARC
   8
INVOLUTE
   6
SOLID
  62
7
  39
0.000000E+000
  10
-18.627371
  20
2.501418
  30
0.000000E+000
  40
5.151673
  50
81.480972
  51
83.222448
   0
ARC
   8
INVOLUTE
   6
SOLID
  62
7
  39
0.000000E+000
  10
-18.694792
  20
1.934121
  30
0.000000E+000
  40
5.722963
  50
83.222448
  51
84.964267
   0
ARC
   8
INVOLUTE
   6
SOLID
  62
7
  39
0.000000E+000
  10
-18.744946
  20
1.364940
  30
0.000000E+000
  40
6.294350
  50
84.964267
  51
86.706339
   0
ARC
   8
INVOLUTE
   6
SOLID
  62
7
  39
0.000000E+000
  10
-18.777779
  20
0.794425
  30
0.000000E+000
  40
6.865808
  50
86.706339
  51
88.448603
   0
ARC
   8
INVOLUTE
   6
SOLID
  62
7
  39
0.000000E+000
  10
-18.793252
  20
0.223119
  30
0.000000E+000
  40
7.437324
  50
88.448603
  51
90.191017
   0
ARC
   8
INVOLUTE
   6
SOLID
  62
7
  39
0.000000E+000
  10
-18.791346
  20
-0.348423
  30
0.000000E+000
  40
8.008870
  50
90.191017
  51
91.933550
   0
ARC
   8
INVOLUTE
   6
SOLID
  62
7
  39
0.000000E+000
  10
-18.772058
  20
-0.919765
  30
0.000000E+000
  40
8.580537
  50
91.933550
  51
93.676179
   0
ARC
   8
INVOLUTE
   6
SOLID
  62
7
  39
0.000000E+000
  10
-18.735436
  20
-1.489762
  30
0.000000E+000
  40
9.151708
  50
93.676179
  51
95.418886
   0
ARC
   8
INVOLUTE
   6
SOLID
  62
7
  39
0.000000E+000
  10
-18.681197
  20
-2.061540
  30
0.000000E+000
  40
9.726054
  50
95.418886
  51
97.161658
   0
ARC
   8
INVOLUTE
   6
SOLID
  62
7
  39
0.000000E+000
  10
-18.611946
  20
-2.612680
  30
0.000000E+000
  40
10.281527
  50
97.161658
  51
98.904485
   0
ARC
   8
INVOLUTE
   6
SOLID
  62
7
  39
0.000000E+000
  10
-18.508405
  20
-3.273542
  30
0.000000E+000
  40
10.950451
  50
98.904485
  51
101.534918
   0
ARC
   8
INVOLUTE
   6
SOLID
  62
7
  39
0.000000E+000
  10
0.000000E+000
  20
0.000000E+000
  30
0.000000E+000
  40
22.000000
  50
160.190287
  51
162.000000
   0
ARC
   8
INVOLUTE
   6
SOLID
  62
7
  39
0.000000E+000
  10
0.000000E+000
  20
0.000000E+000
  30
0.000000E+000
  40
22.000000
  50
162.000000
  51
163.809713
   0
ARC
   8
INVOLUTE
   6
SOLID
  62
7
  39
0.000000E+000
  10
-13.049474
  20
13.527319
  30
0.000000E+000
  40
10.950451
  50
222.465082
  51
225.095515
   0
ARC
   8
INVOLUTE
   6
SOLID
  62
7
  39
0.000000E+000
  10
-13.521686
  20
13.053530
  30
0.000000E+000
  40
10.281527
  50
225.095515
  51
226.838342
   0
ARC
   8
INVOLUTE
   6
SOLID
  62
7
  39
0.000000E+000
  10
-13.901663
  20
12.648353
  30
0.000000E+000
  40
9.726054
  50
226.838342
  51
228.581114
   0
ARC
   8
INVOLUTE
   6
SOLID
  62
7
  39
0.000000E+000
  10
-14.281626
  20
12.217655
  30
0.000000E+000
  40
9.151708
  50
228.581114
  51
230.323821
   0
ARC
   8
INVOLUTE
   6
SOLID
  62
7
  39
0.000000E+000
  10
-14.646289
  20
11.778045
  30
0.000000E+000
  40
8.580537
  50
230.323821
  51
232.066450
   0
ARC
   8
INVOLUTE
   6
SOLID
  62
7
  39
0.000000E+000
  10
-14.997720
  20
11.327157
  30
0.000000E+000
  40
8.008870
  50
232.066450
  51
233.808983
   0
ARC
   8
INVOLUTE
   6
SOLID
  62
7
  39
0.000000E+000
  10
-15.335206
  20
10.865889
  30
0.000000E+000
  40
7.437324
  50
233.808983
  51
235.551397
   0
ARC
   8
INVOLUTE
   6
SOLID
  62
7
  39
0.000000E+000
  10
-15.658494
  20
10.394598
  30
0.000000E+000
  40
6.865808
  50
235.551397
  51
237.293661
   0
ARC
   8
INVOLUTE
   6
SOLID
  62
7
  39
0.000000E+000
  10
-15.967272
  20
9.913744
  30
0.000000E+000
  40
6.294350
  50
237.293661
  51
239.035733
   0
ARC
   8
INVOLUTE
   6
SOLID
  62
7
  39
0.000000E+000
  10
-16.261252
  20
9.423786
  30
0.000000E+000
  40
5.722963
  50
239.035733
  51
240.777552
   0
ARC
   8
INVOLUTE
   6
SOLID
  62
7
  39
0.000000E+000
  10
-16.540157
  20
8.925204
  30
0.000000E+000
  40
5.151673
  50
240.777552
  51
242.519028
   0
ARC
   8
INVOLUTE
   6
SOLID
  62
7
  39
0.000000E+000
  10
-16.803719
  20
8.418494
  30
0.000000E+000
  40
4.580517
  50
242.519028
  51
244.260025
   0
ARC
   8
INVOLUTE
   6
SOLID
  62
7
  39
0.000000E+000
  10
-17.051686
  20
7.904176
  30
0.000000E+000
  40
4.009543
  50
244.260025
  51
246.000320
   0
ARC
   8
INVOLUTE
   6
SOLID
  62
7
  39
0.000000E+000
  10
-17.283790
  20
7.382854
  30
0.000000E+000
  40
3.438887
  50
246.000320
  51
247.739531
   0
ARC
   8
INVOLUTE
   6
SOLID
  62
7
  39
0.000000E+000
  10
-17.499860
  20
6.854983
  30
0.000000E+000
  40
2.868506
  50
247.739531
  51
249.476937
   0
ARC
   8
INVOLUTE
   6
SOLID
  62
7
  39
0.000000E+000
  10
-17.699223
  20
6.322416
  30
0.000000E+000
  40
2.299847
  50
249.476937
  51
251.210988
   0
ARC
   8
INVOLUTE
   6
SOLID
  62
7
  39
0.000000E+000
  10
-17.883400
  20
5.781060
  30
0.000000E+000
  40
1.728018
  50
251.210988
  51
252.937660
   0
ARC
   8
INVOLUTE
   6
SOLID
  62
7
  39
0.000000E+000
  10
-18.043288
  20
5.260118
  30
0.000000E+000
  40
1.183092
  50
252.937660
  51
254.642196
   0
ARC
   8
INVOLUTE
   6
SOLID
  62
7
  39
0.000000E+000
  10
-18.210281
  20
4.652104
  30
0.000000E+000
  40
0.552563
  50
254.642196
  51
256.642773
   0
LINE
   8
INVOLUTE
   6
SOLID
  62
7
  39
0.000000E+000
  10
-18.337935
  20
4.114489
  30
0.000000E+000
  11
-17.075470
  21
3.831229
  31
0.000000E+000
   0
ARC
   8
INVOLUTE
   6
SOLID
  62
7
  39
0.000000E+000
  10
0.000000E+000
  20
0.000000E+000
  30
0.000000E+000
  40
17.500000
  50
167.353958
  51
171.000000
   0
ARC
   8
INVOLUTE
   6
SOLID
  62
7
  39
0.000000E+000
  10
0.000000E+000
  20
0.000000E+000
  30
0.000000E+000
  40
17.500000
  50
171.000000
  51
174.646042
   0
LINE
   8
INVOLUTE
   6
SOLID
  62
7
  39
0.000000E+000
  10
-17.423652
  20
1.632895
  30
0.000000E+000
  11
-18.711860
  21
1.753622
  31
0.000000E+000
   0
ARC
   8
INVOLUTE
   6
SOLID
  62
7
  39
0.000000E+000
  10
-18.756586
  20
1.202872
  30
0.000000E+000
  40
0.552563
  50
85.357227
  51
87.357804
   0
ARC
   8
INVOLUTE
   6
SOLID
  62
7
  39
0.000000E+000
  10
-18.785652
  20
0.573014
  30
0.000000E+000
  40
1.183092
  50
87.357804
  51
89.062340
   0
ARC
   8
INVOLUTE
   6
SOLID
  62
7
  39
0.000000E+000
  10
-18.794570
  20
0.028160
  30
0.000000E+000
  40
1.728018
  50
89.062340
  51
90.789012
   0
ARC
   8
INVOLUTE
   6
SOLID
  62
7
  39
0.000000E+000
  10
-18.786696
  20
-0.543614
  30
0.000000E+000
  40
2.299847
  50
90.789012
  51
92.523063
   0
ARC
   8
INVOLUTE
   6
SOLID
  62
7
  39
0.000000E+000
  10
-18.761662
  20
-1.111722
  30
0.000000E+000
  40
2.868506
  50
92.523063
  51
94.260469
   0
ARC
   8
INVOLUTE
   6
SOLID
  62
7
  39
0.000000E+000
  10
-18.719288
  20
-1.680527
  30
0.000000E+000
  40
3.438887
  50
94.260469
  51
95.999680
   0
ARC
   8
INVOLUTE
   6
SOLID
  62
7
  39
0.000000E+000
  10
-18.659642
  20
-2.248057
  30
0.000000E+000
  40
4.009543
  50
95.999680
  51
97.739975
   0
ARC
   8
INVOLUTE
   6
SOLID
  62
7
  39
0.000000E+000
  10
-18.582744
  20
-2.813829
  30
0.000000E+000
  40
4.580517
  50
97.739975
  51
99.480972
   0
ARC
   8
INVOLUTE
   6
SOLID
  62
7
  39
0.000000E+000
  10
-18.488663
  20
-3.377184
  30
0.000000E+000
  40
5.151673
  50
99.480972
  51
101.222448
   0
ARC
   8
INVOLUTE
   6
SOLID
  62
7
  39
0.000000E+000
  10
-18.377480
  20
-3.937550
  30
0.000000E+000
  40
5.722963
  50
101.222448
  51
102.964267
   0
ARC
   8
INVOLUTE
   6
SOLID
  62
7
  39
0.000000E+000
  10
-18.249293
  20
-4.494372
  30
0.000000E+000
  40
6.294350
  50
102.964267
  51
104.706339
   0
ARC
   8
INVOLUTE
   6
SOLID
  62
7
  39
0.000000E+000
  10
-18.104220
  20
-5.047109
  30
0.000000E+000
  40
6.865808
  50
104.706339
  51
106.448603
   0
ARC
   8
INVOLUTE
   6
SOLID
  62
7
  39
0.000000E+000
  10
-17.942392
  20
-5.595236
  30
0.000000E+000
  40
7.437324
  50
106.448603
  51
108.191017
   0
ARC
   8
INVOLUTE
   6
SOLID
  62
7
  39
0.000000E+000
  10
-17.763964
  20
-6.138216
  30
0.000000E+000
  40
8.008870
  50
108.191017
  51
109.933550
   0
ARC
   8
INVOLUTE
   6
SOLID
  62
7
  39
0.000000E+000
  10
-17.569065
  20
-6.675634
  30
0.000000E+000
  40
8.580537
  50
109.933550
  51
111.676179
   0
ARC
   8
INVOLUTE
   6
SOLID
  62
7
  39
0.000000E+000
  10
-17.358097
  20
-7.206416
  30
0.000000E+000
  40
9.151708
  50
111.676179
  51
113.418886
   0
ARC
   8
INVOLUTE
   6
SOLID
  62
7
  39
0.000000E+000
  10
-17.129823
  20
-7.733449
  30
0.000000E+000
  40
9.726054
  50
113.418886
  51
115.161658
   0
ARC
   8
INVOLUTE
   6
SOLID
  62
7
  39
0.000000E+000
  10
-16.893650
  20
-8.236214
  30
0.000000E+000
  40
10.281527
  50
115.161658
  51
116.904485
   0
ARC
   8
INVOLUTE
   6
SOLID
  62
7
  39
0.000000E+000
  10
-16.590959
  20
-8.832735
  30
0.000000E+000
  40
10.950451
  50
116.904485
  51
119.534918
   0
ARC
   8
INVOLUTE
   6
SOLID
  62
7
  39
0.000000E+000
  10
0.000000E+000
  20
0.000000E+000
  30
0.000000E+000
  40
22.000000
  50
178.190287
  51
180.000000
   0
ARC
   8
INVOLUTE
   6
SOLID
  62
7
  39
0.000000E+000
  10
0.000000E+000
  20
0.000000E+000
  30
0.000000E+000
  40
22.000000
  50
180.000000
  51
181.809713
   0
ARC
   8
INVOLUTE
   6
SOLID
  62
7
  39
0.000000E+000
  10
-16.590959
  20
8.832735
  30
0.000000E+000
  40
10.950451
  50
240.465082
  51
243.095515
   0
ARC
   8
INVOLUTE
   6
SOLID
  62
7
  39
0.000000E+000
  10
-16.893650
  20
8.236214
  30
0.000000E+000
  40
10.281527
  50
243.095515
  51
244.838342
   0
ARC
   8
INVOLUTE
   6
SOLID
  62
7
  39
0.000000E+000
  10
-17.129823
  20
7.733449
  30
0.000000E+000
  40
9.726054
  50
244.838342
  51
246.581114
   0
ARC
   8
INVOLUTE
   6
SOLID
  62
7
  39
0.000000E+000
  10
-17.358097
  20
7.206416
  30
0.000000E+000
  40
9.151708
  50
246.581114
  51
248.323821
   0
ARC
   8
INVOLUTE
   6
SOLID
  62
7
  39
0.000000E+000
  10
-17.569065
  20
6.675634
  30
0.000000E+000
  40
8.580537
  50
248.323821
  51
250.066450
   0
ARC
   8
INVOLUTE
   6
SOLID
  62
7
  39
0.000000E+000
  10
-17.763964
  20
6.138216
  30
0.000000E+000
  40
8.008870
  50
250.066450
  51
251.808983
   0
ARC
   8
INVOLUTE
   6
SOLID
  62
7
  39
0.000000E+000
  10
-17.942392
  20
5.595236
  30
0.000000E+000
  40
7.437324
  50
251.808983
  51
253.551397
   0
ARC
   8
INVOLUTE
   6
SOLID
  62
7
  39
0.000000E+000
  10
-18.104220
  20
5.047109
  30
0.000000E+000
  40
6.865808
  50
253.551397
  51
255.293661
   0
ARC
   8
INVOLUTE
   6
SOLID
  62
7
  39
0.000000E+000
  10
-18.249293
  20
4.494372
  30
0.000000E+000
  40
6.294350
  50
255.293661
  51
257.035733
   0
ARC
   8
INVOLUTE
   6
SOLID
  62
7
  39
0.000000E+000
  10
-18.377480
  20
3.937550
  30
0.000000E+000
  40
5.722963
  50
257.035733
  51
258.777552
   0
ARC
   8
INVOLUTE
   6
SOLID
  62
7
  39
0.000000E+000
  10
-18.488663
  20
3.377184
  30
0.000000E+000
  40
5.151673
  50
258.777552
  51
260.519028
   0
ARC
   8
INVOLUTE
   6
SOLID
  62
7
  39
0.000000E+000
  10
-18.582744
  20
2.813829
  30
0.000000E+000
  40
4.580517
  50
260.519028
  51
262.260025
   0
ARC
   8
INVOLUTE
   6
SOLID
  62
7
  39
0.000000E+000
  10
-18.659642
  20
2.248057
  30
0.000000E+000
  40
4.009543
  50
262.260025
  51
264.000320
   0
ARC
   8
INVOLUTE
   6
SOLID
  62
7
  39
0.000000E+000
  10
-18.719288
  20
1.680527
  30
0.000000E+000
  40
3.438887
  50
264.000320
  51
265.739531
   0
ARC
   8
INVOLUTE
   6
SOLID
  62
7
  39
0.000000E+000
  10
-18.761662
  20
1.111722
  30
0.000000E+000
  40
2.868506
  50
265.739531
  51
267.476937
   0
ARC
   8
INVOLUTE
   6
SOLID
  62
7
  39
0.000000E+000
  10
-18.786696
  20
0.543614
  30
0.000000E+000
  40
2.299847
  50
267.476937
  51
269.210988
   0
ARC
   8
INVOLUTE
   6
SOLID
  62
7
  39
0.000000E+000
  10
-18.794570
  20
-0.028160
  30
0.000000E+000
  40
1.728018
  50
269.210988
  51
270.937660
   0
ARC
   8
INVOLUTE
   6
SOLID
  62
7
  39
0.000000E+000
  10
-18.785652
  20
-0.573014
  30
0.000000E+000
  40
1.183092
  50
270.937660
  51
272.642196
   0
ARC
   8
INVOLUTE
   6
SOLID
  62
7
  39
0.000000E+000
  10
-18.756586
  20
-1.202872
  30
0.000000E+000
  40
0.552563
  50
272.642196
  51
274.642773
   0
LINE
   8
INVOLUTE
   6
SOLID
  62
7
  39
0.000000E+000
  10
-18.711860
  20
-1.753622
  30
0.000000E+000
  11
-17.423652
  21
-1.632895
  31
0.000000E+000
   0
ARC
   8
INVOLUTE
   6
SOLID
  62
7
  39
0.000000E+000
  10
0.000000E+000
  20
0.000000E+000
  30
0.000000E+000
  40
17.500000
  50
185.353958
  51
189.000000
   0
ARC
   8
INVOLUTE
   6
SOLID
  62
7
  39
0.000000E+000
  10
0.000000E+000
  20
0.000000E+000
  30
0.000000E+000
  40
17.500000
  50
189.000000
  51
192.646042
   0
LINE
   8
INVOLUTE
   6
SOLID
  62
7
  39
0.000000E+000
  10
-17.075470
  20
-3.831229
  30
0.000000E+000
  11
-18.337935
  21
-4.114489
  31
0.000000E+000
   0
ARC
   8
INVOLUTE
   6
SOLID
  62
7
  39
0.000000E+000
  10
-18.210281
  20
-4.652104
  30
0.000000E+000
  40
0.552563
  50
103.357227
  51
105.357804
   0
ARC
   8
INVOLUTE
   6
SOLID
  62
7
  39
0.000000E+000
  10
-18.043288
  20
-5.260118
  30
0.000000E+000
  40
1.183092
  50
105.357804
  51
107.062340
   0
ARC
   8
INVOLUTE
   6
SOLID
  62
7
  39
0.000000E+000
  10
-17.883400
  20
-5.781060
  30
0.000000E+000
  40
1.728018
  50
107.062340
  51
108.789012
   0
ARC
   8
INVOLUTE
   6
SOLID
  62
7
  39
0.000000E+000
  10
-17.699223
  20
-6.322416
  30
0.000000E+000
  40
2.299847
  50
108.789012
  51
110.523063
   0
ARC
   8
INVOLUTE
   6
SOLID
  62
7
  39
0.000000E+000
  10
-17.499860
  20
-6.854983
  30
0.000000E+000
  40
2.868506
  50
110.523063
  51
112.260469
   0
ARC
   8
INVOLUTE
   6
SOLID
  62
7
  39
0.000000E+000
  10
-17.283790
  20
-7.382854
  30
0.000000E+000
  40
3.438887
  50
112.260469
  51
113.999680
   0
ARC
   8
INVOLUTE
   6
SOLID
  62
7
  39
0.000000E+000
  10
-17.051686
  20
-7.904176
  30
0.000000E+000
  40
4.009543
  50
113.999680
  51
115.739975
   0
ARC
   8
INVOLUTE
   6
SOLID
  62
7
  39
0.000000E+000
  10
-16.803719
  20
-8.418494
  30
0.000000E+000
  40
4.580517
  50
115.739975
  51
117.480972
   0
ARC
   8
INVOLUTE
   6
SOLID
  62
7
  39
0.000000E+000
  10
-16.540157
  20
-8.925204
  30
0.000000E+000
  40
5.151673
  50
117.480972
  51
119.222448
   0
ARC
   8
INVOLUTE
   6
SOLID
  62
7
  39
0.000000E+000
  10
-16.261252
  20
-9.423786
  30
0.000000E+000
  40
5.722963
  50
119.222448
  51
120.964267
   0
ARC
   8
INVOLUTE
   6
SOLID
  62
7
  39
0.000000E+000
  10
-15.967272
  20
-9.913744
  30
0.000000E+000
  40
6.294350
  50
120.964267
  51
122.706339
   0
ARC
   8
INVOLUTE
   6
SOLID
  62
7
  39
0.000000E+000
  10
-15.658494
  20
-10.394598
  30
0.000000E+000
  40
6.865808
  50
122.706339
  51
124.448603
   0
ARC
   8
INVOLUTE
   6
SOLID
  62
7
  39
0.000000E+000
  10
-15.335206
  20
-10.865889
  30
0.000000E+000
  40
7.437324
  50
124.448603
  51
126.191017
   0
ARC
   8
INVOLUTE
   6
SOLID
  62
7
  39
0.000000E+000
  10
-14.997720
  20
-11.327157
  30
0.000000E+000
  40
8.008870
  50
126.191017
  51
127.933550
   0
ARC
   8
INVOLUTE
   6
SOLID
  62
7
  39
0.000000E+000
  10
-14.646289
  20
-11.778045
  30
0.000000E+000
  40
8.580537
  50
127.933550
  51
129.676179
   0
ARC
   8
INVOLUTE
   6
SOLID
  62
7
  39
0.000000E+000
  10
-14.281626
  20
-12.217655
  30
0.000000E+000
  40
9.151708
  50
129.676179
  51
131.418886
   0
ARC
   8
INVOLUTE
   6
SOLID
  62
7
  39
0.000000E+000
  10
-13.901663
  20
-12.648353
  30
0.000000E+000
  40
9.726054
  50
131.418886
  51
133.161658
   0
ARC
   8
INVOLUTE
   6
SOLID
  62
7
  39
0.000000E+000
  10
-13.521686
  20
-13.053530
  30
0.000000E+000
  40
10.281527
  50
133.161658
  51
134.904485
   0
ARC
   8
INVOLUTE
   6
SOLID
  62
7
  39
0.000000E+000
  10
-13.049474
  20
-13.527319
  30
0.000000E+000
  40
10.950451
  50
134.904485
  51
137.534918
   0
ARC
   8
INVOLUTE
   6
SOLID
  62
7
  39
0.000000E+000
  10
0.000000E+000
  20
0.000000E+000
  30
0.000000E+000
  40
22.000000
  50
196.190287
  51
198.000000
   0
ARC
   8
INVOLUTE
   6
SOLID
  62
7
  39
0.000000E+000
  10
0.000000E+000
  20
0.000000E+000
  30
0.000000E+000
  40
22.000000
  50
198.000000
  51
199.809713
   0
ARC
   8
INVOLUTE
   6
SOLID
  62
7
  39
0.000000E+000
  10
-18.508405
  20
3.273542
  30
0.000000E+000
  40
10.950451
  50
258.465082
  51
261.095515
   0
ARC
   8
INVOLUTE
   6
SOLID
  62
7
  39
0.000000E+000
  10
-18.611946
  20
2.612680
  30
0.000000E+000
  40
10.281527
  50
261.095515
  51
262.838342
   0
ARC
   8
INVOLUTE
   6
SOLID
  62
7
  39
0.000000E+000
  10
-18.681197
  20
2.061540
  30
0.000000E+000
  40
9.726054
  50
262.838342
  51
264.581114
   0
ARC
   8
INVOLUTE
   6
SOLID
  62
7
  39
0.000000E+000
  10
-18.735436
  20
1.489762
  30
0.000000E+000
  40
9.151708
  50
264.581114
  51
266.323821
   0
ARC
   8
INVOLUTE
   6
SOLID
  62
7
  39
0.000000E+000
  10
-18.772058
  20
0.919765
  30
0.000000E+000
  40
8.580537
  50
266.323821
  51
268.066450
   0
ARC
   8
INVOLUTE
   6
SOLID
  62
7
  39
0.000000E+000
  10
-18.791346
  20
0.348423
  30
0.000000E+000
  40
8.008870
  50
268.066450
  51
269.808983
   0
ARC
   8
INVOLUTE
   6
SOLID
  62
7
  39
0.000000E+000
  10
-18.793252
  20
-0.223119
  30
0.000000E+000
  40
7.437324
  50
269.808983
  51
271.551397
   0
ARC
   8
INVOLUTE
   6
SOLID
  62
7
  39
0.000000E+000
  10
-18.777779
  20
-0.794425
  30
0.000000E+000
  40
6.865808
  50
271.551397
  51
273.293661
   0
ARC
   8
INVOLUTE
   6
SOLID
  62
7
  39
0.000000E+000
  10
-18.744946
  20
-1.364940
  30
0.000000E+000
  40
6.294350
  50
273.293661
  51
275.035733
   0
ARC
   8
INVOLUTE
   6
SOLID
  62
7
  39
0.000000E+000
  10
-18.694792
  20
-1.934121
  30
0.000000E+000
  40
5.722963
  50
275.035733
  51
276.777552
   0
ARC
   8
INVOLUTE
   6
SOLID
  62
7
  39
0.000000E+000
  10
-18.627371
  20
-2.501418
  30
0.000000E+000
  40
5.151673
  50
276.777552
  51
278.519028
   0
ARC
   8
INVOLUTE
   6
SOLID
  62
7
  39
0.000000E+000
  10
-18.542761
  20
-3.066273
  30
0.000000E+000
  40
4.580517
  50
278.519028
  51
280.260025
   0
ARC
   8
INVOLUTE
   6
SOLID
  62
7
  39
0.000000E+000
  10
-18.441062
  20
-3.628117
  30
0.000000E+000
  40
4.009543
  50
280.260025
  51
282.000320
   0
ARC
   8
INVOLUTE
   6
SOLID
  62
7
  39
0.000000E+000
  10
-18.322413
  20
-4.186302
  30
0.000000E+000
  40
3.438887
  50
282.000320
  51
283.739531
   0
ARC
   8
INVOLUTE
   6
SOLID
  62
7
  39
0.000000E+000
  10
-18.186942
  20
-4.740362
  30
0.000000E+000
  40
2.868506
  50
283.739531
  51
285.476937
   0
ARC
   8
INVOLUTE
   6
SOLID
  62
7
  39
0.000000E+000
  10
-18.035195
  20
-5.288400
  30
0.000000E+000
  40
2.299847
  50
285.476937
  51
287.210988
   0
ARC
   8
INVOLUTE
   6
SOLID
  62
7
  39
0.000000E+000
  10
-17.865996
  20
-5.834623
  30
0.000000E+000
  40
1.728018
  50
287.210988
  51
288.937660
   0
ARC
   8
INVOLUTE
   6
SOLID
  62
7
  39
0.000000E+000
  10
-17.689146
  20
-6.350054
  30
0.000000E+000
  40
1.183092
  50
288.937660
  51
290.642196
   0
ARC
   8
INVOLUTE
   6
SOLID
  62
7
  39
0.000000E+000
  10
-17.466865
  20
-6.940103
  30
0.000000E+000
  40
0.552563
  50
290.642196
  51
292.642773
   0
LINE
   8
INVOLUTE
   6
SOLID
  62
7
  39
0.000000E+000
  10
-17.254137
  20
-7.450076
  30
0.000000E+000
  11
-16.066286
  21
-6.937180
  31
0.000000E+000
   0
ARC
   8
INVOLUTE
   6
SOLID
  62
7
  39
0.000000E+000
  10
0.000000E+000
  20
0.000000E+000
  30
0.000000E+000
  40
17.500000
  50
203.353958
  51
207.000000
   0
ARC
   8
INVOLUTE
   6
SOLID
  62
7
  39
0.000000E+000
  10
0.000000E+000
  20
0.000000E+000
  30
0.000000E+000
  40
17.500000
  50
207.000000
  51
210.646042
   0
LINE
   8
INVOLUTE
   6
SOLID
  62
7
  39
0.000000E+000
  10
-15.055822
  20
-8.920326
  30
0.000000E+000
  11
-16.168966
  21
-9.579845
  31
0.000000E+000
   0
ARC
   8
INVOLUTE
   6
SOLID
  62
7
  39
0.000000E+000
  10
-15.881427
  20
-10.051700
  30
0.000000E+000
  40
0.552563
  50
121.357227
  51
123.357804
   0
ARC
   8
INVOLUTE
   6
SOLID
  62
7
  39
0.000000E+000
  10
-15.534721
  20
-10.578352
  30
0.000000E+000
  40
1.183092
  50
123.357804
  51
125.062340
   0
ARC
   8
INVOLUTE
   6
SOLID
  62
7
  39
0.000000E+000
  10
-15.221678
  20
-11.024389
  30
0.000000E+000
  40
1.728018
  50
125.062340
  51
126.789012
   0
ARC
   8
INVOLUTE
   6
SOLID
  62
7
  39
0.000000E+000
  10
-14.879228
  20
-11.482336
  30
0.000000E+000
  40
2.299847
  50
126.789012
  51
128.523063
   0
ARC
   8
INVOLUTE
   6
SOLID
  62
7
  39
0.000000E+000
  10
-14.525050
  20
-11.927231
  30
0.000000E+000
  40
2.868506
  50
128.523063
  51
130.260469
   0
ARC
   8
INVOLUTE
   6
SOLID
  62
7
  39
0.000000E+000
  10
-14.156434
  20
-12.362496
  30
0.000000E+000
  40
3.438887
  50
130.260469
  51
131.999680
   0
ARC
   8
INVOLUTE
   6
SOLID
  62
7
  39
0.000000E+000
  10
-13.774592
  20
-12.786579
  30
0.000000E+000
  40
4.009543
  50
131.999680
  51
133.739975
   0
ARC
   8
INVOLUTE
   6
SOLID
  62
7
  39
0.000000E+000
  10
-13.379829
  20
-13.199099
  30
0.000000E+000
  40
4.580517
  50
133.739975
  51
135.480972
   0
ARC
   8
INVOLUTE
   6
SOLID
  62
7
  39
0.000000E+000
  10
-12.972584
  20
-13.599563
  30
0.000000E+000
  40
5.151673
  50
135.480972
  51
137.222448
   0
ARC
   8
INVOLUTE
   6
SOLID
  62
7
  39
0.000000E+000
  10
-12.553259
  20
-13.987557
  30
0.000000E+000
  40
5.722963
  50
137.222448
  51
138.964267
   0
ARC
   8
INVOLUTE
   6
SOLID
  62
7
  39
0.000000E+000
  10
-12.122263
  20
-14.362689
  30
0.000000E+000
  40
6.294350
  50
138.964267
  51
140.706339
   0
ARC
   8
INVOLUTE
   6
SOLID
  62
7
  39
0.000000E+000
  10
-11.680005
  20
-14.724591
  30
0.000000E+000
  40
6.865808
  50
140.706339
  51
142.448603
   0
ARC
   8
INVOLUTE
   6
SOLID
  62
7
  39
0.000000E+000
  10
-11.226903
  20
-15.072914
  30
0.000000E+000
  40
7.437324
  50
142.448603
  51
144.191017
   0
ARC
   8
INVOLUTE
   6
SOLID
  62
7
  39
0.000000E+000
  10
-10.763396
  20
-15.407317
  30
0.000000E+000
  40
8.008870
  50
144.191017
  51
145.933550
   0
ARC
   8
INVOLUTE
   6
SOLID
  62
7
  39
0.000000E+000
  10
-10.289833
  20
-15.727538
  30
0.000000E+000
  40
8.580537
  50
145.933550
  51
147.676179
   0
ARC
   8
INVOLUTE
   6
SOLID
  62
7
  39
0.000000E+000
  10
-9.807170
  20
-16.032946
  30
0.000000E+000
  40
9.151708
  50
147.676179
  51
149.418886
   0
ARC
   8
INVOLUTE
   6
SOLID
  62
7
  39
0.000000E+000
  10
-9.312711
  20
-16.325149
  30
0.000000E+000
  40
9.726054
  50
149.418886
  51
151.161658
   0
ARC
   8
INVOLUTE
   6
SOLID
  62
7
  39
0.000000E+000
  10
-8.826125
  20
-16.593076
  30
0.000000E+000
  40
10.281527
  50
151.161658
  51
152.904485
   0
ARC
   8
INVOLUTE
   6
SOLID
  62
7
  39
0.000000E+000
  10
-8.230616
  20
-16.897754
  30
0.000000E+000
  40
10.950451
  50
152.904485
  51
155.534918
   0
ARC
   8
INVOLUTE
   6
SOLID
  62
7
  39
0.000000E+000
  10
0.000000E+000
  20
0.000000E+000
  30
0.000000E+000
  40
22.000000
  50
214.190287
  51
216.000000
   0
ARC
   8
INVOLUTE
   6
SOLID
  62
7
  39
0.000000E+000
  10
0.000000E+000
  20
0.000000E+000
  30
0.000000E+000
  40
22.000000
  50
216.000000
  51
217.809713
   0
ARC
   8
INVOLUTE
   6
SOLID
  62
7
  39
0.000000E+000
  10
-18.614119
  20
-2.606088
  30
0.000000E+000
  40
10.950451
  50
276.465082
  51
279.095515
   0
ARC
   8
INVOLUTE
   6
SOLID
  62
7
  39
0.000000E+000
  10
-18.508375
  20
-3.266602
  30
0.000000E+000
  40
10.281527
  50
279.095515
  51
280.838342
   0
ARC
   8
INVOLUTE
   6
SOLID
  62
7
  39
0.000000E+000
  10
-18.403925
  20
-3.812166
  30
0.000000E+000
  40
9.726054
  50
280.838342
  51
282.581114
   0
ARC
   8
INVOLUTE
   6
SOLID
  62
7
  39
0.000000E+000
  10
-18.278820
  20
-4.372721
  30
0.000000E+000
  40
9.151708
  50
282.581114
  51
284.323821
   0
ARC
   8
INVOLUTE
   6
SOLID
  62
7
  39
0.000000E+000
  10
-18.137511
  20
-4.926136
  30
0.000000E+000
  40
8.580537
  50
284.323821
  51
286.066450
   0
ARC
   8
INVOLUTE
   6
SOLID
  62
7
  39
0.000000E+000
  10
-17.979301
  20
-5.475475
  30
0.000000E+000
  40
8.008870
  50
286.066450
  51
287.808983
   0
ARC
   8
INVOLUTE
   6
SOLID
  62
7
  39
0.000000E+000
  10
-17.804497
  20
-6.019633
  30
0.000000E+000
  40
7.437324
  50
287.808983
  51
289.551397
   0
ARC
   8
INVOLUTE
   6
SOLID
  62
7
  39
0.000000E+000
  10
-17.613238
  20
-6.558196
  30
0.000000E+000
  40
6.865808
  50
289.551397
  51
291.293661
   0
ARC
   8
INVOLUTE
   6
SOLID
  62
7
  39
0.000000E+000
  10
-17.405714
  20
-7.090642
  30
0.000000E+000
  40
6.294350
  50
291.293661
  51
293.035733
   0
ARC
   8
INVOLUTE
   6
SOLID
  62
7
  39
0.000000E+000
  10
-17.182127
  20
-7.616466
  30
0.000000E+000
  40
5.722963
  50
293.035733
  51
294.777552
   0
ARC
   8
INVOLUTE
   6
SOLID
  62
7
  39
0.000000E+000
  10
-16.942702
  20
-8.135165
  30
0.000000E+000
  40
5.151673
  50
294.777552
  51
296.519028
   0
ARC
   8
INVOLUTE
   6
SOLID
  62
7
  39
0.000000E+000
  10
-16.687683
  20
-8.646228
  30
0.000000E+000
  40
4.580517
  50
296.519028
  51
298.260025
   0
ARC
   8
INVOLUTE
   6
SOLID
  62
7
  39
0.000000E+000
  10
-16.417342
  20
-9.149146
  30
0.000000E+000
  40
4.009543
  50
298.260025
  51
300.000320
   0
ARC
   8
INVOLUTE
   6
SOLID
  62
7
  39
0.000000E+000
  10
-16.132011
  20
-9.643347
  30
0.000000E+000
  40
3.438887
  50
300.000320
  51
301.739531
   0
ARC
   8
INVOLUTE
   6
SOLID
  62
7
  39
0.000000E+000
  10
-15.831958
  20
-10.128426
  30
0.000000E+000
  40
2.868506
  50
301.739531
  51
303.476937
   0
ARC
   8
INVOLUTE
   6
SOLID
  62
7
  39
0.000000E+000
  10
-15.518284
  20
-10.602750
  30
0.000000E+000
  40
2.299847
  50
303.476937
  51
305.210988
   0
ARC
   8
INVOLUTE
   6
SOLID
  62
7
  39
0.000000E+000
  10
-15.188575
  20
-11.069953
  30
0.000000E+000
  40
1.728018
  50
305.210988
  51
306.937660
   0
ARC
   8
INVOLUTE
   6
SOLID
  62
7
  39
0.000000E+000
  10
-14.861103
  20
-11.505507
  30
0.000000E+000
  40
1.183092
  50
306.937660
  51
308.642196
   0
ARC
   8
INVOLUTE
   6
SOLID
  62
7
  39
0.000000E+000
  10
-14.467366
  20
-11.997989
  30
0.000000E+000
  40
0.552563
  50
308.642196
  51
310.642773
   0
LINE
   8
INVOLUTE
   6
SOLID
  62
7
  39
0.000000E+000
  10
-14.107460
  20
-12.417265
  30
0.000000E+000
  11
-13.136239
  21
-11.562405
  31
0.000000E+000
   0
ARC
   8
INVOLUTE
   6
SOLID
  62
7
  39
0.000000E+000
  10
0.000000E+000
  20
0.000000E+000
  30
0.000000E+000
  40
17.500000
  50
221.353958
  51
225.000000
   0
ARC
   8
INVOLUTE
   6
SOLID
  62
7
  39
0.000000E+000
  10
0.000000E+000
  20
0.000000E+000
  30
0.000000E+000
  40
17.500000
  50
225.000000
  51
228.646042
   0
LINE
   8
INVOLUTE
   6
SOLID
  62
7
  39
0.000000E+000
  10
-11.562405
  20
-13.136239
  30
0.000000E+000
  11
-12.417265
  21
-14.107460
  31
0.000000E+000
   0
ARC
   8
INVOLUTE
   6
SOLID
  62
7
  39
0.000000E+000
  10
-11.997989
  20
-14.467366
  30
0.000000E+000
  40
0.552563
  50
139.357227
  51
141.357804
   0
ARC
   8
INVOLUTE
   6
SOLID
  62
7
  39
0.000000E+000
  10
-11.505507
  20
-14.861103
  30
0.000000E+000
  40
1.183092
  50
141.357804
  51
143.062340
   0
ARC
   8
INVOLUTE
   6
SOLID
  62
7
  39
0.000000E+000
  10
-11.069953
  20
-15.188575
  30
0.000000E+000
  40
1.728018
  50
143.062340
  51
144.789012
   0
ARC
   8
INVOLUTE
   6
SOLID
  62
7
  39
0.000000E+000
  10
-10.602750
  20
-15.518284
  30
0.000000E+000
  40
2.299847
  50
144.789012
  51
146.523063
   0
ARC
   8
INVOLUTE
   6
SOLID
  62
7
  39
0.000000E+000
  10
-10.128426
  20
-15.831958
  30
0.000000E+000
  40
2.868506
  50
146.523063
  51
148.260469
   0
ARC
   8
INVOLUTE
   6
SOLID
  62
7
  39
0.000000E+000
  10
-9.643347
  20
-16.132011
  30
0.000000E+000
  40
3.438887
  50
148.260469
  51
149.999680
   0
ARC
   8
INVOLUTE
   6
SOLID
  62
7
  39
0.000000E+000
  10
-9.149146
  20
-16.417342
  30
0.000000E+000
  40
4.009543
  50
149.999680
  51
151.739975
   0
ARC
   8
INVOLUTE
   6
SOLID
  62
7
  39
0.000000E+000
  10
-8.646228
  20
-16.687683
  30
0.000000E+000
  40
4.580517
  50
151.739975
  51
153.480972
   0
ARC
   8
INVOLUTE
   6
SOLID
  62
7
  39
0.000000E+000
  10
-8.135165
  20
-16.942702
  30
0.000000E+000
  40
5.151673
  50
153.480972
  51
155.222448
   0
ARC
   8
INVOLUTE
   6
SOLID
  62
7
  39
0.000000E+000
  10
-7.616466
  20
-17.182127
  30
0.000000E+000
  40
5.722963
  50
155.222448
  51
156.964267
   0
ARC
   8
INVOLUTE
   6
SOLID
  62
7
  39
0.000000E+000
  10
-7.090642
  20
-17.405714
  30
0.000000E+000
  40
6.294350
  50
156.964267
  51
158.706339
   0
ARC
   8
INVOLUTE
   6
SOLID
  62
7
  39
0.000000E+000
  10
-6.558196
  20
-17.613238
  30
0.000000E+000
  40
6.865808
  50
158.706339
  51
160.448603
   0
ARC
   8
INVOLUTE
   6
SOLID
  62
7
  39
0.000000E+000
  10
-6.019633
  20
-17.804497
  30
0.000000E+000
  40
7.437324
  50
160.448603
  51
162.191017
   0
ARC
   8
INVOLUTE
   6
SOLID
  62
7
  39
0.000000E+000
  10
-5.475475
  20
-17.979301
  30
0.000000E+000
  40
8.008870
  50
162.191017
  51
163.933550
   0
ARC
   8
INVOLUTE
   6
SOLID
  62
7
  39
0.000000E+000
  10
-4.926136
  20
-18.137511
  30
0.000000E+000
  40
8.580537
  50
163.933550
  51
165.676179
   0
ARC
   8
INVOLUTE
   6
SOLID
  62
7
  39
0.000000E+000
  10
-4.372721
  20
-18.278820
  30
0.000000E+000
  40
9.151708
  50
165.676179
  51
167.418886
   0
ARC
   8
INVOLUTE
   6
SOLID
  62
7
  39
0.000000E+000
  10
-3.812166
  20
-18.403925
  30
0.000000E+000
  40
9.726054
  50
167.418886
  51
169.161658
   0
ARC
   8
INVOLUTE
   6
SOLID
  62
7
  39
0.000000E+000
  10
-3.266602
  20
-18.508375
  30
0.000000E+000
  40
10.281527
  50
169.161658
  51
170.904485
   0
ARC
   8
INVOLUTE
   6
SOLID
  62
7
  39
0.000000E+000
  10
-2.606088
  20
-18.614119
  30
0.000000E+000
  40
10.950451
  50
170.904485
  51
173.534918
   0
ARC
   8
INVOLUTE
   6
SOLID
  62
7
  39
0.000000E+000
  10
0.000000E+000
  20
0.000000E+000
  30
0.000000E+000
  40
22.000000
  50
232.190287
  51
234.000000
   0
ARC
   8
INVOLUTE
   6
SOLID
  62
7
  39
0.000000E+000
  10
0.000000E+000
  20
0.000000E+000
  30
0.000000E+000
  40
22.000000
  50
234.000000
  51
235.809713
   0
ARC
   8
INVOLUTE
   6
SOLID
  62
7
  39
0.000000E+000
  10
-16.897754
  20
-8.230616
  30
0.000000E+000
  40
10.950451
  50
294.465082
  51
297.095515
   0
ARC
   8
INVOLUTE
   6
SOLID
  62
7
  39
0.000000E+000
  10
-16.593076
  20
-8.826125
  30
0.000000E+000
  40
10.281527
  50
297.095515
  51
298.838342
   0
ARC
   8
INVOLUTE
   6
SOLID
  62
7
  39
0.000000E+000
  10
-16.325149
  20
-9.312711
  30
0.000000E+000
  40
9.726054
  50
298.838342
  51
300.581114
   0
ARC
   8
INVOLUTE
   6
SOLID
  62
7
  39
0.000000E+000
  10
-16.032946
  20
-9.807170
  30
0.000000E+000
  40
9.151708
  50
300.581114
  51
302.323821
   0
ARC
   8
INVOLUTE
   6
SOLID
  62
7
  39
0.000000E+000
  10
-15.727538
  20
-10.289833
  30
0.000000E+000
  40
8.580537
  50
302.323821
  51
304.066450
   0
ARC
   8
INVOLUTE
   6
SOLID
  62
7
  39
0.000000E+000
  10
-15.407317
  20
-10.763396
  30
0.000000E+000
  40
8.008870
  50
304.066450
  51
305.808983
   0
ARC
   8
INVOLUTE
   6
SOLID
  62
7
  39
0.000000E+000
  10
-15.072914
  20
-11.226903
  30
0.000000E+000
  40
7.437324
  50
305.808983
  51
307.551397
   0
ARC
   8
INVOLUTE
   6
SOLID
  62
7
  39
0.000000E+000
  10
-14.724591
  20
-11.680005
  30
0.000000E+000
  40
6.865808
  50
307.551397
  51
309.293661
   0
ARC
   8
INVOLUTE
   6
SOLID
  62
7
  39
0.000000E+000
  10
-14.362689
  20
-12.122263
  30
0.000000E+000
  40
6.294350
  50
309.293661
  51
311.035733
   0
ARC
   8
INVOLUTE
   6
SOLID
  62
7
  39
0.000000E+000
  10
-13.987557
  20
-12.553259
  30
0.000000E+000
  40
5.722963
  50
311.035733
  51
312.777552
   0
ARC
   8
INVOLUTE
   6
SOLID
  62
7
  39
0.000000E+000
  10
-13.599563
  20
-12.972584
  30
0.000000E+000
  40
5.151673
  50
312.777552
  51
314.519028
   0
ARC
   8
INVOLUTE
   6
SOLID
  62
7
  39
0.000000E+000
  10
-13.199099
  20
-13.379829
  30
0.000000E+000
  40
4.580517
  50
314.519028
  51
316.260025
   0
ARC
   8
INVOLUTE
   6
SOLID
  62
7
  39
0.000000E+000
  10
-12.786579
  20
-13.774592
  30
0.000000E+000
  40
4.009543
  50
316.260025
  51
318.000320
   0
ARC
   8
INVOLUTE
   6
SOLID
  62
7
  39
0.000000E+000
  10
-12.362496
  20
-14.156434
  30
0.000000E+000
  40
3.438887
  50
318.000320
  51
319.739531
   0
ARC
   8
INVOLUTE
   6
SOLID
  62
7
  39
0.000000E+000
  10
-11.927231
  20
-14.525050
  30
0.000000E+000
  40
2.868506
  50
319.739531
  51
321.476937
   0
ARC
   8
INVOLUTE
   6
SOLID
  62
7
  39
0.000000E+000
  10
-11.482336
  20
-14.879228
  30
0.000000E+000
  40
2.299847
  50
321.476937
  51
323.210988
   0
ARC
   8
INVOLUTE
   6
SOLID
  62
7
  39
0.000000E+000
  10
-11.024389
  20
-15.221678
  30
0.000000E+000
  40
1.728018
  50
323.210988
  51
324.937660
   0
ARC
   8
INVOLUTE
   6
SOLID
  62
7
  39
0.000000E+000
  10
-10.578352
  20
-15.534721
  30
0.000000E+000
  40
1.183092
  50
324.937660
  51
326.642196
   0
ARC
   8
INVOLUTE
   6
SOLID
  62
7
  39
0.000000E+000
  10
-10.051700
  20
-15.881427
  30
0.000000E+000
  40
0.552563
  50
326.642196
  51
328.642773
   0
LINE
   8
INVOLUTE
   6
SOLID
  62
7
  39
0.000000E+000
  10
-9.579845
  20
-16.168966
  30
0.000000E+000
  11
-8.920326
  21
-15.055822
  31
0.000000E+000
   0
ARC
   8
INVOLUTE
   6
SOLID
  62
7
  39
0.000000E+000
  10
0.000000E+000
  20
0.000000E+000
  30
0.000000E+000
  40
17.500000
  50
239.353958
  51
243.000000
   0
ARC
   8
INVOLUTE
   6
SOLID
  62
7
  39
0.000000E+000
  10
0.000000E+000
  20
0.000000E+000
  30
0.000000E+000
  40
17.500000
  50
243.000000
  51
246.646042
   0
LINE
   8
INVOLUTE
   6
SOLID
  62
7
  39
0.000000E+000
  10
-6.937180
  20
-16.066286
  30
0.000000E+000
  11
-7.450076
  21
-17.254137
  31
0.000000E+000
   0
ARC
   8
INVOLUTE
   6
SOLID
  62
7
  39
0.000000E+000
  10
-6.940103
  20
-17.466865
  30
0.000000E+000
  40
0.552563
  50
157.357227
  51
159.357804
   0
ARC
   8
INVOLUTE
   6
SOLID
  62
7
  39
0.000000E+000
  10
-6.350054
  20
-17.689146
  30
0.000000E+000
  40
1.183092
  50
159.357804
  51
161.062340
   0
ARC
   8
INVOLUTE
   6
SOLID
  62
7
  39
0.000000E+000
  10
-5.834623
  20
-17.865996
  30
0.000000E+000
  40
1.728018
  50
161.062340
  51
162.789012
   0
ARC
   8
INVOLUTE
   6
SOLID
  62
7
  39
0.000000E+000
  10
-5.288400
  20
-18.035195
  30
0.000000E+000
  40
2.299847
  50
162.789012
  51
164.523063
   0
ARC
   8
INVOLUTE
   6
SOLID
  62
7
  39
0.000000E+000
  10
-4.740362
  20
-18.186942
  30
0.000000E+000
  40
2.868506
  50
164.523063
  51
166.260469
   0
ARC
   8
INVOLUTE
   6
SOLID
  62
7
  39
0.000000E+000
  10
-4.186302
  20
-18.322413
  30
0.000000E+000
  40
3.438887
  50
166.260469
  51
167.999680
   0
ARC
   8
INVOLUTE
   6
SOLID
  62
7
  39
0.000000E+000
  10
-3.628117
  20
-18.441062
  30
0.000000E+000
  40
4.009543
  50
167.999680
  51
169.739975
   0
ARC
   8
INVOLUTE
   6
SOLID
  62
7
  39
0.000000E+000
  10
-3.066273
  20
-18.542761
  30
0.000000E+000
  40
4.580517
  50
169.739975
  51
171.480972
   0
ARC
   8
INVOLUTE
   6
SOLID
  62
7
  39
0.000000E+000
  10
-2.501418
  20
-18.627371
  30
0.000000E+000
  40
5.151673
  50
171.480972
  51
173.222448
   0
ARC
   8
INVOLUTE
   6
SOLID
  62
7
  39
0.000000E+000
  10
-1.934121
  20
-18.694792
  30
0.000000E+000
  40
5.722963
  50
173.222448
  51
174.964267
   0
ARC
   8
INVOLUTE
   6
SOLID
  62
7
  39
0.000000E+000
  10
-1.364940
  20
-18.744946
  30
0.000000E+000
  40
6.294350
  50
174.964267
  51
176.706339
   0
ARC
   8
INVOLUTE
   6
SOLID
  62
7
  39
0.000000E+000
  10
-0.794425
  20
-18.777779
  30
0.000000E+000
  40
6.865808
  50
176.706339
  51
178.448603
   0
ARC
   8
INVOLUTE
   6
SOLID
  62
7
  39
0.000000E+000
  10
-0.223119
  20
-18.793252
  30
0.000000E+000
  40
7.437324
  50
178.448603
  51
180.191017
   0
ARC
   8
INVOLUTE
   6
SOLID
  62
7
  39
0.000000E+000
  10
0.348423
  20
-18.791346
  30
0.000000E+000
  40
8.008870
  50
180.191017
  51
181.933550
   0
ARC
   8
INVOLUTE
   6
SOLID
  62
7
  39
0.000000E+000
  10
0.919765
  20
-18.772058
  30
0.000000E+000
  40
8.580537
  50
181.933550
  51
183.676179
   0
ARC
   8
INVOLUTE
   6
SOLID
  62
7
  39
0.000000E+000
  10
1.489762
  20
-18.735436
  30
0.000000E+000
  40
9.151708
  50
183.676179
  51
185.418886
   0
ARC
   8
INVOLUTE
   6
SOLID
  62
7
  39
0.000000E+000
  10
2.061540
  20
-18.681197
  30
0.000000E+000
  40
9.726054
  50
185.418886
  51
187.161658
   0
ARC
   8
INVOLUTE
   6
SOLID
  62
7
  39
0.000000E+000
  10
2.612680
  20
-18.611946
  30
0.000000E+000
  40
10.281527
  50
187.161658
  51
188.904485
   0
ARC
   8
INVOLUTE
   6
SOLID
  62
7
  39
0.000000E+000
  10
3.273542
  20
-18.508405
  30
0.000000E+000
  40
10.950451
  50
188.904485
  51
191.534918
   0
ARC
   8
INVOLUTE
   6
SOLID
  62
7
  39
0.000000E+000
  10
0.000000E+000
  20
0.000000E+000
  30
0.000000E+000
  40
22.000000
  50
250.190287
  51
252.000000
   0
ARC
   8
INVOLUTE
   6
SOLID
  62
7
  39
0.000000E+000
  10
0.000000E+000
  20
0.000000E+000
  30
0.000000E+000
  40
22.000000
  50
252.000000
  51
253.809713
   0
ARC
   8
INVOLUTE
   6
SOLID
  62
7
  39
0.000000E+000
  10
-13.527319
  20
-13.049474
  30
0.000000E+000
  40
10.950451
  50
312.465082
  51
315.095515
   0
ARC
   8
INVOLUTE
   6
SOLID
  62
7
  39
0.000000E+000
  10
-13.053530
  20
-13.521686
  30
0.000000E+000
  40
10.281527
  50
315.095515
  51
316.838342
   0
ARC
   8
INVOLUTE
   6
SOLID
  62
7
  39
0.000000E+000
  10
-12.648353
  20
-13.901663
  30
0.000000E+000
  40
9.726054
  50
316.838342
  51
318.581114
   0
ARC
   8
INVOLUTE
   6
SOLID
  62
7
  39
0.000000E+000
  10
-12.217655
  20
-14.281626
  30
0.000000E+000
  40
9.151708
  50
318.581114
  51
320.323821
   0
ARC
   8
INVOLUTE
   6
SOLID
  62
7
  39
0.000000E+000
  10
-11.778045
  20
-14.646289
  30
0.000000E+000
  40
8.580537
  50
320.323821
  51
322.066450
   0
ARC
   8
INVOLUTE
   6
SOLID
  62
7
  39
0.000000E+000
  10
-11.327157
  20
-14.997720
  30
0.000000E+000
  40
8.008870
  50
322.066450
  51
323.808983
   0
ARC
   8
INVOLUTE
   6
SOLID
  62
7
  39
0.000000E+000
  10
-10.865889
  20
-15.335206
  30
0.000000E+000
  40
7.437324
  50
323.808983
  51
325.551397
   0
ARC
   8
INVOLUTE
   6
SOLID
  62
7
  39
0.000000E+000
  10
-10.394598
  20
-15.658494
  30
0.000000E+000
  40
6.865808
  50
325.551397
  51
327.293661
   0
ARC
   8
INVOLUTE
   6
SOLID
  62
7
  39
0.000000E+000
  10
-9.913744
  20
-15.967272
  30
0.000000E+000
  40
6.294350
  50
327.293661
  51
329.035733
   0
ARC
   8
INVOLUTE
   6
SOLID
  62
7
  39
0.000000E+000
  10
-9.423786
  20
-16.261252
  30
0.000000E+000
  40
5.722963
  50
329.035733
  51
330.777552
   0
ARC
   8
INVOLUTE
   6
SOLID
  62
7
  39
0.000000E+000
  10
-8.925204
  20
-16.540157
  30
0.000000E+000
  40
5.151673
  50
330.777552
  51
332.519028
   0
ARC
   8
INVOLUTE
   6
SOLID
  62
7
  39
0.000000E+000
  10
-8.418494
  20
-16.803719
  30
0.000000E+000
  40
4.580517
  50
332.519028
  51
334.260025
   0
ARC
   8
INVOLUTE
   6
SOLID
  62
7
  39
0.000000E+000
  10
-7.904176
  20
-17.051686
  30
0.000000E+000
  40
4.009543
  50
334.260025
  51
336.000320
   0
ARC
   8
INVOLUTE
   6
SOLID
  62
7
  39
0.000000E+000
  10
-7.382854
  20
-17.283790
  30
0.000000E+000
  40
3.438887
  50
336.000320
  51
337.739531
   0
ARC
   8
INVOLUTE
   6
SOLID
  62
7
  39
0.000000E+000
  10
-6.854983
  20
-17.499860
  30
0.000000E+000
  40
2.868506
  50
337.739531
  51
339.476937
   0
ARC
   8
INVOLUTE
   6
SOLID
  62
7
  39
0.000000E+000
  10
-6.322416
  20
-17.699223
  30
0.000000E+000
  40
2.299847
  50
339.476937
  51
341.210988
   0
ARC
   8
INVOLUTE
   6
SOLID
  62
7
  39
0.000000E+000
  10
-5.781060
  20
-17.883400
  30
0.000000E+000
  40
1.728018
  50
341.210988
  51
342.937660
   0
ARC
   8
INVOLUTE
   6
SOLID
  62
7
  39
0.000000E+000
  10
-5.260118
  20
-18.043288
  30
0.000000E+000
  40
1.183092
  50
342.937660
  51
344.642196
   0
ARC
   8
INVOLUTE
   6
SOLID
  62
7
  39
0.000000E+000
  10
-4.652104
  20
-18.210281
  30
0.000000E+000
  40
0.552563
  50
344.642196
  51
346.642773
   0
LINE
   8
INVOLUTE
   6
SOLID
  62
7
  39
0.000000E+000
  10
-4.114489
  20
-18.337935
  30
0.000000E+000
  11
-3.831229
  21
-17.075470
  31
0.000000E+000
   0
ARC
   8
INVOLUTE
   6
SOLID
  62
7
  39
0.000000E+000
  10
0.000000E+000
  20
0.000000E+000
  30
0.000000E+000
  40
17.500000
  50
257.353958
  51
261.000000
   0
ARC
   8
INVOLUTE
   6
SOLID
  62
7
  39
0.000000E+000
  10
0.000000E+000
  20
0.000000E+000
  30
0.000000E+000
  40
17.500000
  50
261.000000
  51
264.646042
   0
LINE
   8
INVOLUTE
   6
SOLID
  62
7
  39
0.000000E+000
  10
-1.632895
  20
-17.423652
  30
0.000000E+000
  11
-1.753622
  21
-18.711860
  31
0.000000E+000
   0
ARC
   8
INVOLUTE
   6
SOLID
  62
7
  39
0.000000E+000
  10
-1.202872
  20
-18.756586
  30
0.000000E+000
  40
0.552563
  50
175.357227
  51
177.357804
   0
ARC
   8
INVOLUTE
   6
SOLID
  62
7
  39
0.000000E+000
  10
-0.573014
  20
-18.785652
  30
0.000000E+000
  40
1.183092
  50
177.357804
  51
179.062340
   0
ARC
   8
INVOLUTE
   6
SOLID
  62
7
  39
0.000000E+000
  10
-0.028160
  20
-18.794570
  30
0.000000E+000
  40
1.728018
  50
179.062340
  51
180.789012
   0
ARC
   8
INVOLUTE
   6
SOLID
  62
7
  39
0.000000E+000
  10
0.543614
  20
-18.786696
  30
0.000000E+000
  40
2.299847
  50
180.789012
  51
182.523063
   0
ARC
   8
INVOLUTE
   6
SOLID
  62
7
  39
0.000000E+000
  10
1.111722
  20
-18.761662
  30
0.000000E+000
  40
2.868506
  50
182.523063
  51
184.260469
   0
ARC
   8
INVOLUTE
   6
SOLID
  62
7
  39
0.000000E+000
  10
1.680527
  20
-18.719288
  30
0.000000E+000
  40
3.438887
  50
184.260469
  51
185.999680
   0
ARC
   8
INVOLUTE
   6
SOLID
  62
7
  39
0.000000E+000
  10
2.248057
  20
-18.659642
  30
0.000000E+000
  40
4.009543
  50
185.999680
  51
187.739975
   0
ARC
   8
INVOLUTE
   6
SOLID
  62
7
  39
0.000000E+000
  10
2.813829
  20
-18.582744
  30
0.000000E+000
  40
4.580517
  50
187.739975
  51
189.480972
   0
ARC
   8
INVOLUTE
   6
SOLID
  62
7
  39
0.000000E+000
  10
3.377184
  20
-18.488663
  30
0.000000E+000
  40
5.151673
  50
189.480972
  51
191.222448
   0
ARC
   8
INVOLUTE
   6
SOLID
  62
7
  39
0.000000E+000
  10
3.937550
  20
-18.377480
  30
0.000000E+000
  40
5.722963
  50
191.222448
  51
192.964267
   0
ARC
   8
INVOLUTE
   6
SOLID
  62
7
  39
0.000000E+000
  10
4.494372
  20
-18.249293
  30
0.000000E+000
  40
6.294350
  50
192.964267
  51
194.706339
   0
ARC
   8
INVOLUTE
   6
SOLID
  62
7
  39
0.000000E+000
  10
5.047109
  20
-18.104220
  30
0.000000E+000
  40
6.865808
  50
194.706339
  51
196.448603
   0
ARC
   8
INVOLUTE
   6
SOLID
  62
7
  39
0.000000E+000
  10
5.595236
  20
-17.942392
  30
0.000000E+000
  40
7.437324
  50
196.448603
  51
198.191017
   0
ARC
   8
INVOLUTE
   6
SOLID
  62
7
  39
0.000000E+000
  10
6.138216
  20
-17.763964
  30
0.000000E+000
  40
8.008870
  50
198.191017
  51
199.933550
   0
ARC
   8
INVOLUTE
   6
SOLID
  62
7
  39
0.000000E+000
  10
6.675634
  20
-17.569065
  30
0.000000E+000
  40
8.580537
  50
199.933550
  51
201.676179
   0
ARC
   8
INVOLUTE
   6
SOLID
  62
7
  39
0.000000E+000
  10
7.206416
  20
-17.358097
  30
0.000000E+000
  40
9.151708
  50
201.676179
  51
203.418886
   0
ARC
   8
INVOLUTE
   6
SOLID
  62
7
  39
0.000000E+000
  10
7.733449
  20
-17.129823
  30
0.000000E+000
  40
9.726054
  50
203.418886
  51
205.161658
   0
ARC
   8
INVOLUTE
   6
SOLID
  62
7
  39
0.000000E+000
  10
8.236214
  20
-16.893650
  30
0.000000E+000
  40
10.281527
  50
205.161658
  51
206.904485
   0
ARC
   8
INVOLUTE
   6
SOLID
  62
7
  39
0.000000E+000
  10
8.832735
  20
-16.590959
  30
0.000000E+000
  40
10.950451
  50
206.904485
  51
209.534918
   0
ARC
   8
INVOLUTE
   6
SOLID
  62
7
  39
0.000000E+000
  10
0.000000E+000
  20
0.000000E+000
  30
0.000000E+000
  40
22.000000
  50
268.190287
  51
270.000000
   0
ARC
   8
INVOLUTE
   6
SOLID
  62
7
  39
0.000000E+000
  10
0.000000E+000
  20
0.000000E+000
  30
0.000000E+000
  40
22.000000
  50
270.000000
  51
271.809713
   0
ARC
   8
INVOLUTE
   6
SOLID
  62
7
  39
0.000000E+000
  10
-8.832735
  20
-16.590959
  30
0.000000E+000
  40
10.950451
  50
330.465082
  51
333.095515
   0
ARC
   8
INVOLUTE
   6
SOLID
  62
7
  39
0.000000E+000
  10
-8.236214
  20
-16.893650
  30
0.000000E+000
  40
10.281527
  50
333.095515
  51
334.838342
   0
ARC
   8
INVOLUTE
   6
SOLID
  62
7
  39
0.000000E+000
  10
-7.733449
  20
-17.129823
  30
0.000000E+000
  40
9.726054
  50
334.838342
  51
336.581114
   0
ARC
   8
INVOLUTE
   6
SOLID
  62
7
  39
0.000000E+000
  10
-7.206416
  20
-17.358097
  30
0.000000E+000
  40
9.151708
  50
336.581114
  51
338.323821
   0
ARC
   8
INVOLUTE
   6
SOLID
  62
7
  39
0.000000E+000
  10
-6.675634
  20
-17.569065
  30
0.000000E+000
  40
8.580537
  50
338.323821
  51
340.066450
   0
ARC
   8
INVOLUTE
   6
SOLID
  62
7
  39
0.000000E+000
  10
-6.138216
  20
-17.763964
  30
0.000000E+000
  40
8.008870
  50
340.066450
  51
341.808983
   0
ARC
   8
INVOLUTE
   6
SOLID
  62
7
  39
0.000000E+000
  10
-5.595236
  20
-17.942392
  30
0.000000E+000
  40
7.437324
  50
341.808983
  51
343.551397
   0
ARC
   8
INVOLUTE
   6
SOLID
  62
7
  39
0.000000E+000
  10
-5.047109
  20
-18.104220
  30
0.000000E+000
  40
6.865808
  50
343.551397
  51
345.293661
   0
ARC
   8
INVOLUTE
   6
SOLID
  62
7
  39
0.000000E+000
  10
-4.494372
  20
-18.249293
  30
0.000000E+000
  40
6.294350
  50
345.293661
  51
347.035733
   0
ARC
   8
INVOLUTE
   6
SOLID
  62
7
  39
0.000000E+000
  10
-3.937550
  20
-18.377480
  30
0.000000E+000
  40
5.722963
  50
347.035733
  51
348.777552
   0
ARC
   8
INVOLUTE
   6
SOLID
  62
7
  39
0.000000E+000
  10
-3.377184
  20
-18.488663
  30
0.000000E+000
  40
5.151673
  50
348.777552
  51
350.519028
   0
ARC
   8
INVOLUTE
   6
SOLID
  62
7
  39
0.000000E+000
  10
-2.813829
  20
-18.582744
  30
0.000000E+000
  40
4.580517
  50
350.519028
  51
352.260025
   0
ARC
   8
INVOLUTE
   6
SOLID
  62
7
  39
0.000000E+000
  10
-2.248057
  20
-18.659642
  30
0.000000E+000
  40
4.009543
  50
352.260025
  51
354.000320
   0
ARC
   8
INVOLUTE
   6
SOLID
  62
7
  39
0.000000E+000
  10
-1.680527
  20
-18.719288
  30
0.000000E+000
  40
3.438887
  50
354.000320
  51
355.739531
   0
ARC
   8
INVOLUTE
   6
SOLID
  62
7
  39
0.000000E+000
  10
-1.111722
  20
-18.761662
  30
0.000000E+000
  40
2.868506
  50
355.739531
  51
357.476937
   0
ARC
   8
INVOLUTE
   6
SOLID
  62
7
  39
0.000000E+000
  10
-0.543614
  20
-18.786696
  30
0.000000E+000
  40
2.299847
  50
357.476937
  51
359.210988
   0
ARC
   8
INVOLUTE
   6
SOLID
  62
7
  39
0.000000E+000
  10
0.028160
  20
-18.794570
  30
0.000000E+000
  40
1.728018
  50
359.210988
  51
0.937660
   0
ARC
   8
INVOLUTE
   6
SOLID
  62
7
  39
0.000000E+000
  10
0.573014
  20
-18.785652
  30
0.000000E+000
  40
1.183092
  50
0.937660
  51
2.642196
   0
ARC
   8
INVOLUTE
   6
SOLID
  62
7
  39
0.000000E+000
  10
1.202872
  20
-18.756586
  30
0.000000E+000
  40
0.552563
  50
2.642196
  51
4.642773
   0
LINE
   8
INVOLUTE
   6
SOLID
  62
7
  39
0.000000E+000
  10
1.753622
  20
-18.711860
  30
0.000000E+000
  11
1.632895
  21
-17.423652
  31
0.000000E+000
   0
ARC
   8
INVOLUTE
   6
SOLID
  62
7
  39
0.000000E+000
  10
0.000000E+000
  20
0.000000E+000
  30
0.000000E+000
  40
17.500000
  50
275.353958
  51
279.000000
   0
ARC
   8
INVOLUTE
   6
SOLID
  62
7
  39
0.000000E+000
  10
0.000000E+000
  20
0.000000E+000
  30
0.000000E+000
  40
17.500000
  50
279.000000
  51
282.646042
   0
LINE
   8
INVOLUTE
   6
SOLID
  62
7
  39
0.000000E+000
  10
3.831229
  20
-17.075470
  30
0.000000E+000
  11
4.114489
  21
-18.337935
  31
0.000000E+000
   0
ARC
   8
INVOLUTE
   6
SOLID
  62
7
  39
0.000000E+000
  10
4.652104
  20
-18.210281
  30
0.000000E+000
  40
0.552563
  50
193.357227
  51
195.357804
   0
ARC
   8
INVOLUTE
   6
SOLID
  62
7
  39
0.000000E+000
  10
5.260118
  20
-18.043288
  30
0.000000E+000
  40
1.183092
  50
195.357804
  51
197.062340
   0
ARC
   8
INVOLUTE
   6
SOLID
  62
7
  39
0.000000E+000
  10
5.781060
  20
-17.883400
  30
0.000000E+000
  40
1.728018
  50
197.062340
  51
198.789012
   0
ARC
   8
INVOLUTE
   6
SOLID
  62
7
  39
0.000000E+000
  10
6.322416
  20
-17.699223
  30
0.000000E+000
  40
2.299847
  50
198.789012
  51
200.523063
   0
ARC
   8
INVOLUTE
   6
SOLID
  62
7
  39
0.000000E+000
  10
6.854983
  20
-17.499860
  30
0.000000E+000
  40
2.868506
  50
200.523063
  51
202.260469
   0
ARC
   8
INVOLUTE
   6
SOLID
  62
7
  39
0.000000E+000
  10
7.382854
  20
-17.283790
  30
0.000000E+000
  40
3.438887
  50
202.260469
  51
203.999680
   0
ARC
   8
INVOLUTE
   6
SOLID
  62
7
  39
0.000000E+000
  10
7.904176
  20
-17.051686
  30
0.000000E+000
  40
4.009543
  50
203.999680
  51
205.739975
   0
ARC
   8
INVOLUTE
   6
SOLID
  62
7
  39
0.000000E+000
  10
8.418494
  20
-16.803719
  30
0.000000E+000
  40
4.580517
  50
205.739975
  51
207.480972
   0
ARC
   8
INVOLUTE
   6
SOLID
  62
7
  39
0.000000E+000
  10
8.925204
  20
-16.540157
  30
0.000000E+000
  40
5.151673
  50
207.480972
  51
209.222448
   0
ARC
   8
INVOLUTE
   6
SOLID
  62
7
  39
0.000000E+000
  10
9.423786
  20
-16.261252
  30
0.000000E+000
  40
5.722963
  50
209.222448
  51
210.964267
   0
ARC
   8
INVOLUTE
   6
SOLID
  62
7
  39
0.000000E+000
  10
9.913744
  20
-15.967272
  30
0.000000E+000
  40
6.294350
  50
210.964267
  51
212.706339
   0
ARC
   8
INVOLUTE
   6
SOLID
  62
7
  39
0.000000E+000
  10
10.394598
  20
-15.658494
  30
0.000000E+000
  40
6.865808
  50
212.706339
  51
214.448603
   0
ARC
   8
INVOLUTE
   6
SOLID
  62
7
  39
0.000000E+000
  10
10.865889
  20
-15.335206
  30
0.000000E+000
  40
7.437324
  50
214.448603
  51
216.191017
   0
ARC
   8
INVOLUTE
   6
SOLID
  62
7
  39
0.000000E+000
  10
11.327157
  20
-14.997720
  30
0.000000E+000
  40
8.008870
  50
216.191017
  51
217.933550
   0
ARC
   8
INVOLUTE
   6
SOLID
  62
7
  39
0.000000E+000
  10
11.778045
  20
-14.646289
  30
0.000000E+000
  40
8.580537
  50
217.933550
  51
219.676179
   0
ARC
   8
INVOLUTE
   6
SOLID
  62
7
  39
0.000000E+000
  10
12.217655
  20
-14.281626
  30
0.000000E+000
  40
9.151708
  50
219.676179
  51
221.418886
   0
ARC
   8
INVOLUTE
   6
SOLID
  62
7
  39
0.000000E+000
  10
12.648353
  20
-13.901663
  30
0.000000E+000
  40
9.726054
  50
221.418886
  51
223.161658
   0
ARC
   8
INVOLUTE
   6
SOLID
  62
7
  39
0.000000E+000
  10
13.053530
  20
-13.521686
  30
0.000000E+000
  40
10.281527
  50
223.161658
  51
224.904485
   0
ARC
   8
INVOLUTE
   6
SOLID
  62
7
  39
0.000000E+000
  10
13.527319
  20
-13.049474
  30
0.000000E+000
  40
10.950451
  50
224.904485
  51
227.534918
   0
ARC
   8
INVOLUTE
   6
SOLID
  62
7
  39
0.000000E+000
  10
0.000000E+000
  20
0.000000E+000
  30
0.000000E+000
  40
22.000000
  50
286.190287
  51
288.000000
   0
ARC
   8
INVOLUTE
   6
SOLID
  62
7
  39
0.000000E+000
  10
0.000000E+000
  20
0.000000E+000
  30
0.000000E+000
  40
22.000000
  50
288.000000
  51
289.809713
   0
ARC
   8
INVOLUTE
   6
SOLID
  62
7
  39
0.000000E+000
  10
-3.273542
  20
-18.508405
  30
0.000000E+000
  40
10.950451
  50
348.465082
  51
351.095515
   0
ARC
   8
INVOLUTE
   6
SOLID
  62
7
  39
0.000000E+000
  10
-2.612680
  20
-18.611946
  30
0.000000E+000
  40
10.281527
  50
351.095515
  51
352.838342
   0
ARC
   8
INVOLUTE
   6
SOLID
  62
7
  39
0.000000E+000
  10
-2.061540
  20
-18.681197
  30
0.000000E+000
  40
9.726054
  50
352.838342
  51
354.581114
   0
ARC
   8
INVOLUTE
   6
SOLID
  62
7
  39
0.000000E+000
  10
-1.489762
  20
-18.735436
  30
0.000000E+000
  40
9.151708
  50
354.581114
  51
356.323821
   0
ARC
   8
INVOLUTE
   6
SOLID
  62
7
  39
0.000000E+000
  10
-0.919765
  20
-18.772058
  30
0.000000E+000
  40
8.580537
  50
356.323821
  51
358.066450
   0
ARC
   8
INVOLUTE
   6
SOLID
  62
7
  39
0.000000E+000
  10
-0.348423
  20
-18.791346
  30
0.000000E+000
  40
8.008870
  50
358.066450
  51
359.808983
   0
ARC
   8
INVOLUTE
   6
SOLID
  62
7
  39
0.000000E+000
  10
0.223119
  20
-18.793252
  30
0.000000E+000
  40
7.437324
  50
359.808983
  51
1.551397
   0
ARC
   8
INVOLUTE
   6
SOLID
  62
7
  39
0.000000E+000
  10
0.794425
  20
-18.777779
  30
0.000000E+000
  40
6.865808
  50
1.551397
  51
3.293661
   0
ARC
   8
INVOLUTE
   6
SOLID
  62
7
  39
0.000000E+000
  10
1.364940
  20
-18.744946
  30
0.000000E+000
  40
6.294350
  50
3.293661
  51
5.035733
   0
ARC
   8
INVOLUTE
   6
SOLID
  62
7
  39
0.000000E+000
  10
1.934121
  20
-18.694792
  30
0.000000E+000
  40
5.722963
  50
5.035733
  51
6.777552
   0
ARC
   8
INVOLUTE
   6
SOLID
  62
7
  39
0.000000E+000
  10
2.501418
  20
-18.627371
  30
0.000000E+000
  40
5.151673
  50
6.777552
  51
8.519028
   0
ARC
   8
INVOLUTE
   6
SOLID
  62
7
  39
0.000000E+000
  10
3.066273
  20
-18.542761
  30
0.000000E+000
  40
4.580517
  50
8.519028
  51
10.260025
   0
ARC
   8
INVOLUTE
   6
SOLID
  62
7
  39
0.000000E+000
  10
3.628117
  20
-18.441062
  30
0.000000E+000
  40
4.009543
  50
10.260025
  51
12.000320
   0
ARC
   8
INVOLUTE
   6
SOLID
  62
7
  39
0.000000E+000
  10
4.186302
  20
-18.322413
  30
0.000000E+000
  40
3.438887
  50
12.000320
  51
13.739531
   0
ARC
   8
INVOLUTE
   6
SOLID
  62
7
  39
0.000000E+000
  10
4.740362
  20
-18.186942
  30
0.000000E+000
  40
2.868506
  50
13.739531
  51
15.476937
   0
ARC
   8
INVOLUTE
   6
SOLID
  62
7
  39
0.000000E+000
  10
5.288400
  20
-18.035195
  30
0.000000E+000
  40
2.299847
  50
15.476937
  51
17.210988
   0
ARC
   8
INVOLUTE
   6
SOLID
  62
7
  39
0.000000E+000
  10
5.834623
  20
-17.865996
  30
0.000000E+000
  40
1.728018
  50
17.210988
  51
18.937660
   0
ARC
   8
INVOLUTE
   6
SOLID
  62
7
  39
0.000000E+000
  10
6.350054
  20
-17.689146
  30
0.000000E+000
  40
1.183092
  50
18.937660
  51
20.642196
   0
ARC
   8
INVOLUTE
   6
SOLID
  62
7
  39
0.000000E+000
  10
6.940103
  20
-17.466865
  30
0.000000E+000
  40
0.552563
  50
20.642196
  51
22.642773
   0
LINE
   8
INVOLUTE
   6
SOLID
  62
7
  39
0.000000E+000
  10
7.450076
  20
-17.254137
  30
0.000000E+000
  11
6.937180
  21
-16.066286
  31
0.000000E+000
   0
ARC
   8
INVOLUTE
   6
SOLID
  62
7
  39
0.000000E+000
  10
0.000000E+000
  20
0.000000E+000
  30
0.000000E+000
  40
17.500000
  50
293.353958
  51
297.000000
   0
ARC
   8
INVOLUTE
   6
SOLID
  62
7
  39
0.000000E+000
  10
0.000000E+000
  20
0.000000E+000
  30
0.000000E+000
  40
17.500000
  50
297.000000
  51
300.646042
   0
LINE
   8
INVOLUTE
   6
SOLID
  62
7
  39
0.000000E+000
  10
8.920326
  20
-15.055822
  30
0.000000E+000
  11
9.579845
  21
-16.168966
  31
0.000000E+000
   0
ARC
   8
INVOLUTE
   6
SOLID
  62
7
  39
0.000000E+000
  10
10.051700
  20
-15.881427
  30
0.000000E+000
  40
0.552563
  50
211.357227
  51
213.357804
   0
ARC
   8
INVOLUTE
   6
SOLID
  62
7
  39
0.000000E+000
  10
10.578352
  20
-15.534721
  30
0.000000E+000
  40
1.183092
  50
213.357804
  51
215.062340
   0
ARC
   8
INVOLUTE
   6
SOLID
  62
7
  39
0.000000E+000
  10
11.024389
  20
-15.221678
  30
0.000000E+000
  40
1.728018
  50
215.062340
  51
216.789012
   0
ARC
   8
INVOLUTE
   6
SOLID
  62
7
  39
0.000000E+000
  10
11.482336
  20
-14.879228
  30
0.000000E+000
  40
2.299847
  50
216.789012
  51
218.523063
   0
ARC
   8
INVOLUTE
   6
SOLID
  62
7
  39
0.000000E+000
  10
11.927231
  20
-14.525050
  30
0.000000E+000
  40
2.868506
  50
218.523063
  51
220.260469
   0
ARC
   8
INVOLUTE
   6
SOLID
  62
7
  39
0.000000E+000
  10
12.362496
  20
-14.156434
  30
0.000000E+000
  40
3.438887
  50
220.260469
  51
221.999680
   0
ARC
   8
INVOLUTE
   6
SOLID
  62
7
  39
0.000000E+000
  10
12.786579
  20
-13.774592
  30
0.000000E+000
  40
4.009543
  50
221.999680
  51
223.739975
   0
ARC
   8
INVOLUTE
   6
SOLID
  62
7
  39
0.000000E+000
  10
13.199099
  20
-13.379829
  30
0.000000E+000
  40
4.580517
  50
223.739975
  51
225.480972
   0
ARC
   8
INVOLUTE
   6
SOLID
  62
7
  39
0.000000E+000
  10
13.599563
  20
-12.972584
  30
0.000000E+000
  40
5.151673
  50
225.480972
  51
227.222448
   0
ARC
   8
INVOLUTE
   6
SOLID
  62
7
  39
0.000000E+000
  10
13.987557
  20
-12.553259
  30
0.000000E+000
  40
5.722963
  50
227.222448
  51
228.964267
   0
ARC
   8
INVOLUTE
   6
SOLID
  62
7
  39
0.000000E+000
  10
14.362689
  20
-12.122263
  30
0.000000E+000
  40
6.294350
  50
228.964267
  51
230.706339
   0
ARC
   8
INVOLUTE
   6
SOLID
  62
7
  39
0.000000E+000
  10
14.724591
  20
-11.680005
  30
0.000000E+000
  40
6.865808
  50
230.706339
  51
232.448603
   0
ARC
   8
INVOLUTE
   6
SOLID
  62
7
  39
0.000000E+000
  10
15.072914
  20
-11.226903
  30
0.000000E+000
  40
7.437324
  50
232.448603
  51
234.191017
   0
ARC
   8
INVOLUTE
   6
SOLID
  62
7
  39
0.000000E+000
  10
15.407317
  20
-10.763396
  30
0.000000E+000
  40
8.008870
  50
234.191017
  51
235.933550
   0
ARC
   8
INVOLUTE
   6
SOLID
  62
7
  39
0.000000E+000
  10
15.727538
  20
-10.289833
  30
0.000000E+000
  40
8.580537
  50
235.933550
  51
237.676179
   0
ARC
   8
INVOLUTE
   6
SOLID
  62
7
  39
0.000000E+000
  10
16.032946
  20
-9.807170
  30
0.000000E+000
  40
9.151708
  50
237.676179
  51
239.418886
   0
ARC
   8
INVOLUTE
   6
SOLID
  62
7
  39
0.000000E+000
  10
16.325149
  20
-9.312711
  30
0.000000E+000
  40
9.726054
  50
239.418886
  51
241.161658
   0
ARC
   8
INVOLUTE
   6
SOLID
  62
7
  39
0.000000E+000
  10
16.593076
  20
-8.826125
  30
0.000000E+000
  40
10.281527
  50
241.161658
  51
242.904485
   0
ARC
   8
INVOLUTE
   6
SOLID
  62
7
  39
0.000000E+000
  10
16.897754
  20
-8.230616
  30
0.000000E+000
  40
10.950451
  50
242.904485
  51
245.534918
   0
ARC
   8
INVOLUTE
   6
SOLID
  62
7
  39
0.000000E+000
  10
0.000000E+000
  20
0.000000E+000
  30
0.000000E+000
  40
22.000000
  50
304.190287
  51
306.000000
   0
ARC
   8
INVOLUTE
   6
SOLID
  62
7
  39
0.000000E+000
  10
0.000000E+000
  20
0.000000E+000
  30
0.000000E+000
  40
22.000000
  50
306.000000
  51
307.809713
   0
ARC
   8
INVOLUTE
   6
SOLID
  62
7
  39
0.000000E+000
  10
2.606088
  20
-18.614119
  30
0.000000E+000
  40
10.950451
  50
6.465082
  51
9.095515
   0
ARC
   8
INVOLUTE
   6
SOLID
  62
7
  39
0.000000E+000
  10
3.266602
  20
-18.508375
  30
0.000000E+000
  40
10.281527
  50
9.095515
  51
10.838342
   0
ARC
   8
INVOLUTE
   6
SOLID
  62
7
  39
0.000000E+000
  10
3.812166
  20
-18.403925
  30
0.000000E+000
  40
9.726054
  50
10.838342
  51
12.581114
   0
ARC
   8
INVOLUTE
   6
SOLID
  62
7
  39
0.000000E+000
  10
4.372721
  20
-18.278820
  30
0.000000E+000
  40
9.151708
  50
12.581114
  51
14.323821
   0
ARC
   8
INVOLUTE
   6
SOLID
  62
7
  39
0.000000E+000
  10
4.926136
  20
-18.137511
  30
0.000000E+000
  40
8.580537
  50
14.323821
  51
16.066450
   0
ARC
   8
INVOLUTE
   6
SOLID
  62
7
  39
0.000000E+000
  10
5.475475
  20
-17.979301
  30
0.000000E+000
  40
8.008870
  50
16.066450
  51
17.808983
   0
ARC
   8
INVOLUTE
   6
SOLID
  62
7
  39
0.000000E+000
  10
6.019633
  20
-17.804497
  30
0.000000E+000
  40
7.437324
  50
17.808983
  51
19.551397
   0
ARC
   8
INVOLUTE
   6
SOLID
  62
7
  39
0.000000E+000
  10
6.558196
  20
-17.613238
  30
0.000000E+000
  40
6.865808
  50
19.551397
  51
21.293661
   0
ARC
   8
INVOLUTE
   6
SOLID
  62
7
  39
0.000000E+000
  10
7.090642
  20
-17.405714
  30
0.000000E+000
  40
6.294350
  50
21.293661
  51
23.035733
   0
ARC
   8
INVOLUTE
   6
SOLID
  62
7
  39
0.000000E+000
  10
7.616466
  20
-17.182127
  30
0.000000E+000
  40
5.722963
  50
23.035733
  51
24.777552
   0
ARC
   8
INVOLUTE
   6
SOLID
  62
7
  39
0.000000E+000
  10
8.135165
  20
-16.942702
  30
0.000000E+000
  40
5.151673
  50
24.777552
  51
26.519028
   0
ARC
   8
INVOLUTE
   6
SOLID
  62
7
  39
0.000000E+000
  10
8.646228
  20
-16.687683
  30
0.000000E+000
  40
4.580517
  50
26.519028
  51
28.260025
   0
ARC
   8
INVOLUTE
   6
SOLID
  62
7
  39
0.000000E+000
  10
9.149146
  20
-16.417342
  30
0.000000E+000
  40
4.009543
  50
28.260025
  51
30.000320
   0
ARC
   8
INVOLUTE
   6
SOLID
  62
7
  39
0.000000E+000
  10
9.643347
  20
-16.132011
  30
0.000000E+000
  40
3.438887
  50
30.000320
  51
31.739531
   0
ARC
   8
INVOLUTE
   6
SOLID
  62
7
  39
0.000000E+000
  10
10.128426
  20
-15.831958
  30
0.000000E+000
  40
2.868506
  50
31.739531
  51
33.476937
   0
ARC
   8
INVOLUTE
   6
SOLID
  62
7
  39
0.000000E+000
  10
10.602750
  20
-15.518284
  30
0.000000E+000
  40
2.299847
  50
33.476937
  51
35.210988
   0
ARC
   8
INVOLUTE
   6
SOLID
  62
7
  39
0.000000E+000
  10
11.069953
  20
-15.188575
  30
0.000000E+000
  40
1.728018
  50
35.210988
  51
36.937660
   0
ARC
   8
INVOLUTE
   6
SOLID
  62
7
  39
0.000000E+000
  10
11.505507
  20
-14.861103
  30
0.000000E+000
  40
1.183092
  50
36.937660
  51
38.642196
   0
ARC
   8
INVOLUTE
   6
SOLID
  62
7
  39
0.000000E+000
  10
11.997989
  20
-14.467366
  30
0.000000E+000
  40
0.552563
  50
38.642196
  51
40.642773
   0
LINE
   8
INVOLUTE
   6
SOLID
  62
7
  39
0.000000E+000
  10
12.417265
  20
-14.107460
  30
0.000000E+000
  11
11.562405
  21
-13.136239
  31
0.000000E+000
   0
ARC
   8
INVOLUTE
   6
SOLID
  62
7
  39
0.000000E+000
  10
0.000000E+000
  20
0.000000E+000
  30
0.000000E+000
  40
17.500000
  50
311.353958
  51
315.000000
   0
ARC
   8
INVOLUTE
   6
SOLID
  62
7
  39
0.000000E+000
  10
0.000000E+000
  20
0.000000E+000
  30
0.000000E+000
  40
17.500000
  50
315.000000
  51
318.646042
   0
LINE
   8
INVOLUTE
   6
SOLID
  62
7
  39
0.000000E+000
  10
13.136239
  20
-11.562405
  30
0.000000E+000
  11
14.107460
  21
-12.417265
  31
0.000000E+000
   0
ARC
   8
INVOLUTE
   6
SOLID
  62
7
  39
0.000000E+000
  10
14.467366
  20
-11.997989
  30
0.000000E+000
  40
0.552563
  50
229.357227
  51
231.357804
   0
ARC
   8
INVOLUTE
   6
SOLID
  62
7
  39
0.000000E+000
  10
14.861103
  20
-11.505507
  30
0.000000E+000
  40
1.183092
  50
231.357804
  51
233.062340
   0
ARC
   8
INVOLUTE
   6
SOLID
  62
7
  39
0.000000E+000
  10
15.188575
  20
-11.069953
  30
0.000000E+000
  40
1.728018
  50
233.062340
  51
234.789012
   0
ARC
   8
INVOLUTE
   6
SOLID
  62
7
  39
0.000000E+000
  10
15.518284
  20
-10.602750
  30
0.000000E+000
  40
2.299847
  50
234.789012
  51
236.523063
   0
ARC
   8
INVOLUTE
   6
SOLID
  62
7
  39
0.000000E+000
  10
15.831958
  20
-10.128426
  30
0.000000E+000
  40
2.868506
  50
236.523063
  51
238.260469
   0
ARC
   8
INVOLUTE
   6
SOLID
  62
7
  39
0.000000E+000
  10
16.132011
  20
-9.643347
  30
0.000000E+000
  40
3.438887
  50
238.260469
  51
239.999680
   0
ARC
   8
INVOLUTE
   6
SOLID
  62
7
  39
0.000000E+000
  10
16.417342
  20
-9.149146
  30
0.000000E+000
  40
4.009543
  50
239.999680
  51
241.739975
   0
ARC
   8
INVOLUTE
   6
SOLID
  62
7
  39
0.000000E+000
  10
16.687683
  20
-8.646228
  30
0.000000E+000
  40
4.580517
  50
241.739975
  51
243.480972
   0
ARC
   8
INVOLUTE
   6
SOLID
  62
7
  39
0.000000E+000
  10
16.942702
  20
-8.135165
  30
0.000000E+000
  40
5.151673
  50
243.480972
  51
245.222448
   0
ARC
   8
INVOLUTE
   6
SOLID
  62
7
  39
0.000000E+000
  10
17.182127
  20
-7.616466
  30
0.000000E+000
  40
5.722963
  50
245.222448
  51
246.964267
   0
ARC
   8
INVOLUTE
   6
SOLID
  62
7
  39
0.000000E+000
  10
17.405714
  20
-7.090642
  30
0.000000E+000
  40
6.294350
  50
246.964267
  51
248.706339
   0
ARC
   8
INVOLUTE
   6
SOLID
  62
7
  39
0.000000E+000
  10
17.613238
  20
-6.558196
  30
0.000000E+000
  40
6.865808
  50
248.706339
  51
250.448603
   0
ARC
   8
INVOLUTE
   6
SOLID
  62
7
  39
0.000000E+000
  10
17.804497
  20
-6.019633
  30
0.000000E+000
  40
7.437324
  50
250.448603
  51
252.191017
   0
ARC
   8
INVOLUTE
   6
SOLID
  62
7
  39
0.000000E+000
  10
17.979301
  20
-5.475475
  30
0.000000E+000
  40
8.008870
  50
252.191017
  51
253.933550
   0
ARC
   8
INVOLUTE
   6
SOLID
  62
7
  39
0.000000E+000
  10
18.137511
  20
-4.926136
  30
0.000000E+000
  40
8.580537
  50
253.933550
  51
255.676179
   0
ARC
   8
INVOLUTE
   6
SOLID
  62
7
  39
0.000000E+000
  10
18.278820
  20
-4.372721
  30
0.000000E+000
  40
9.151708
  50
255.676179
  51
257.418886
   0
ARC
   8
INVOLUTE
   6
SOLID
  62
7
  39
0.000000E+000
  10
18.403925
  20
-3.812166
  30
0.000000E+000
  40
9.726054
  50
257.418886
  51
259.161658
   0
ARC
   8
INVOLUTE
   6
SOLID
  62
7
  39
0.000000E+000
  10
18.508375
  20
-3.266602
  30
0.000000E+000
  40
10.281527
  50
259.161658
  51
260.904485
   0
ARC
   8
INVOLUTE
   6
SOLID
  62
7
  39
0.000000E+000
  10
18.614119
  20
-2.606088
  30
0.000000E+000
  40
10.950451
  50
260.904485
  51
263.534918
   0
ARC
   8
INVOLUTE
   6
SOLID
  62
7
  39
0.000000E+000
  10
0.000000E+000
  20
0.000000E+000
  30
0.000000E+000
  40
22.000000
  50
322.190287
  51
324.000000
   0
ARC
   8
INVOLUTE
   6
SOLID
  62
7
  39
0.000000E+000
  10
0.000000E+000
  20
0.000000E+000
  30
0.000000E+000
  40
22.000000
  50
324.000000
  51
325.809713
   0
ARC
   8
INVOLUTE
   6
SOLID
  62
7
  39
0.000000E+000
  10
8.230616
  20
-16.897754
  30
0.000000E+000
  40
10.950451
  50
24.465082
  51
27.095515
   0
ARC
   8
INVOLUTE
   6
SOLID
  62
7
  39
0.000000E+000
  10
8.826125
  20
-16.593076
  30
0.000000E+000
  40
10.281527
  50
27.095515
  51
28.838342
   0
ARC
   8
INVOLUTE
   6
SOLID
  62
7
  39
0.000000E+000
  10
9.312711
  20
-16.325149
  30
0.000000E+000
  40
9.726054
  50
28.838342
  51
30.581114
   0
ARC
   8
INVOLUTE
   6
SOLID
  62
7
  39
0.000000E+000
  10
9.807170
  20
-16.032946
  30
0.000000E+000
  40
9.151708
  50
30.581114
  51
32.323821
   0
ARC
   8
INVOLUTE
   6
SOLID
  62
7
  39
0.000000E+000
  10
10.289833
  20
-15.727538
  30
0.000000E+000
  40
8.580537
  50
32.323821
  51
34.066450
   0
ARC
   8
INVOLUTE
   6
SOLID
  62
7
  39
0.000000E+000
  10
10.763396
  20
-15.407317
  30
0.000000E+000
  40
8.008870
  50
34.066450
  51
35.808983
   0
ARC
   8
INVOLUTE
   6
SOLID
  62
7
  39
0.000000E+000
  10
11.226903
  20
-15.072914
  30
0.000000E+000
  40
7.437324
  50
35.808983
  51
37.551397
   0
ARC
   8
INVOLUTE
   6
SOLID
  62
7
  39
0.000000E+000
  10
11.680005
  20
-14.724591
  30
0.000000E+000
  40
6.865808
  50
37.551397
  51
39.293661
   0
ARC
   8
INVOLUTE
   6
SOLID
  62
7
  39
0.000000E+000
  10
12.122263
  20
-14.362689
  30
0.000000E+000
  40
6.294350
  50
39.293661
  51
41.035733
   0
ARC
   8
INVOLUTE
   6
SOLID
  62
7
  39
0.000000E+000
  10
12.553259
  20
-13.987557
  30
0.000000E+000
  40
5.722963
  50
41.035733
  51
42.777552
   0
ARC
   8
INVOLUTE
   6
SOLID
  62
7
  39
0.000000E+000
  10
12.972584
  20
-13.599563
  30
0.000000E+000
  40
5.151673
  50
42.777552
  51
44.519028
   0
ARC
   8
INVOLUTE
   6
SOLID
  62
7
  39
0.000000E+000
  10
13.379829
  20
-13.199099
  30
0.000000E+000
  40
4.580517
  50
44.519028
  51
46.260025
   0
ARC
   8
INVOLUTE
   6
SOLID
  62
7
  39
0.000000E+000
  10
13.774592
  20
-12.786579
  30
0.000000E+000
  40
4.009543
  50
46.260025
  51
48.000320
   0
ARC
   8
INVOLUTE
   6
SOLID
  62
7
  39
0.000000E+000
  10
14.156434
  20
-12.362496
  30
0.000000E+000
  40
3.438887
  50
48.000320
  51
49.739531
   0
ARC
   8
INVOLUTE
   6
SOLID
  62
7
  39
0.000000E+000
  10
14.525050
  20
-11.927231
  30
0.000000E+000
  40
2.868506
  50
49.739531
  51
51.476937
   0
ARC
   8
INVOLUTE
   6
SOLID
  62
7
  39
0.000000E+000
  10
14.879228
  20
-11.482336
  30
0.000000E+000
  40
2.299847
  50
51.476937
  51
53.210988
   0
ARC
   8
INVOLUTE
   6
SOLID
  62
7
  39
0.000000E+000
  10
15.221678
  20
-11.024389
  30
0.000000E+000
  40
1.728018
  50
53.210988
  51
54.937660
   0
ARC
   8
INVOLUTE
   6
SOLID
  62
7
  39
0.000000E+000
  10
15.534721
  20
-10.578352
  30
0.000000E+000
  40
1.183092
  50
54.937660
  51
56.642196
   0
ARC
   8
INVOLUTE
   6
SOLID
  62
7
  39
0.000000E+000
  10
15.881427
  20
-10.051700
  30
0.000000E+000
  40
0.552563
  50
56.642196
  51
58.642773
   0
LINE
   8
INVOLUTE
   6
SOLID
  62
7
  39
0.000000E+000
  10
16.168966
  20
-9.579845
  30
0.000000E+000
  11
15.055822
  21
-8.920326
  31
0.000000E+000
   0
ARC
   8
INVOLUTE
   6
SOLID
  62
7
  39
0.000000E+000
  10
0.000000E+000
  20
0.000000E+000
  30
0.000000E+000
  40
17.500000
  50
329.353958
  51
333.000000
   0
ARC
   8
INVOLUTE
   6
SOLID
  62
7
  39
0.000000E+000
  10
0.000000E+000
  20
0.000000E+000
  30
0.000000E+000
  40
17.500000
  50
333.000000
  51
336.646042
   0
LINE
   8
INVOLUTE
   6
SOLID
  62
7
  39
0.000000E+000
  10
16.066286
  20
-6.937180
  30
0.000000E+000
  11
17.254137
  21
-7.450076
  31
0.000000E+000
   0
ARC
   8
INVOLUTE
   6
SOLID
  62
7
  39
0.000000E+000
  10
17.466865
  20
-6.940103
  30
0.000000E+000
  40
0.552563
  50
247.357227
  51
249.357804
   0
ARC
   8
INVOLUTE
   6
SOLID
  62
7
  39
0.000000E+000
  10
17.689146
  20
-6.350054
  30
0.000000E+000
  40
1.183092
  50
249.357804
  51
251.062340
   0
ARC
   8
INVOLUTE
   6
SOLID
  62
7
  39
0.000000E+000
  10
17.865996
  20
-5.834623
  30
0.000000E+000
  40
1.728018
  50
251.062340
  51
252.789012
   0
ARC
   8
INVOLUTE
   6
SOLID
  62
7
  39
0.000000E+000
  10
18.035195
  20
-5.288400
  30
0.000000E+000
  40
2.299847
  50
252.789012
  51
254.523063
   0
ARC
   8
INVOLUTE
   6
SOLID
  62
7
  39
0.000000E+000
  10
18.186942
  20
-4.740362
  30
0.000000E+000
  40
2.868506
  50
254.523063
  51
256.260469
   0
ARC
   8
INVOLUTE
   6
SOLID
  62
7
  39
0.000000E+000
  10
18.322413
  20
-4.186302
  30
0.000000E+000
  40
3.438887
  50
256.260469
  51
257.999680
   0
ARC
   8
INVOLUTE
   6
SOLID
  62
7
  39
0.000000E+000
  10
18.441062
  20
-3.628117
  30
0.000000E+000
  40
4.009543
  50
257.999680
  51
259.739975
   0
ARC
   8
INVOLUTE
   6
SOLID
  62
7
  39
0.000000E+000
  10
18.542761
  20
-3.066273
  30
0.000000E+000
  40
4.580517
  50
259.739975
  51
261.480972
   0
ARC
   8
INVOLUTE
   6
SOLID
  62
7
  39
0.000000E+000
  10
18.627371
  20
-2.501418
  30
0.000000E+000
  40
5.151673
  50
261.480972
  51
263.222448
   0
ARC
   8
INVOLUTE
   6
SOLID
  62
7
  39
0.000000E+000
  10
18.694792
  20
-1.934121
  30
0.000000E+000
  40
5.722963
  50
263.222448
  51
264.964267
   0
ARC
   8
INVOLUTE
   6
SOLID
  62
7
  39
0.000000E+000
  10
18.744946
  20
-1.364940
  30
0.000000E+000
  40
6.294350
  50
264.964267
  51
266.706339
   0
ARC
   8
INVOLUTE
   6
SOLID
  62
7
  39
0.000000E+000
  10
18.777779
  20
-0.794425
  30
0.000000E+000
  40
6.865808
  50
266.706339
  51
268.448603
   0
ARC
   8
INVOLUTE
   6
SOLID
  62
7
  39
0.000000E+000
  10
18.793252
  20
-0.223119
  30
0.000000E+000
  40
7.437324
  50
268.448603
  51
270.191017
   0
ARC
   8
INVOLUTE
   6
SOLID
  62
7
  39
0.000000E+000
  10
18.791346
  20
0.348423
  30
0.000000E+000
  40
8.008870
  50
270.191017
  51
271.933550
   0
ARC
   8
INVOLUTE
   6
SOLID
  62
7
  39
0.000000E+000
  10
18.772058
  20
0.919765
  30
0.000000E+000
  40
8.580537
  50
271.933550
  51
273.676179
   0
ARC
   8
INVOLUTE
   6
SOLID
  62
7
  39
0.000000E+000
  10
18.735436
  20
1.489762
  30
0.000000E+000
  40
9.151708
  50
273.676179
  51
275.418886
   0
ARC
   8
INVOLUTE
   6
SOLID
  62
7
  39
0.000000E+000
  10
18.681197
  20
2.061540
  30
0.000000E+000
  40
9.726054
  50
275.418886
  51
277.161658
   0
ARC
   8
INVOLUTE
   6
SOLID
  62
7
  39
0.000000E+000
  10
18.611946
  20
2.612680
  30
0.000000E+000
  40
10.281527
  50
277.161658
  51
278.904485
   0
ARC
   8
INVOLUTE
   6
SOLID
  62
7
  39
0.000000E+000
  10
18.508405
  20
3.273542
  30
0.000000E+000
  40
10.950451
  50
278.904485
  51
281.534918
   0
ARC
   8
INVOLUTE
   6
SOLID
  62
7
  39
0.000000E+000
  10
0.000000E+000
  20
0.000000E+000
  30
0.000000E+000
  40
22.000000
  50
340.190287
  51
342.000000
   0
ARC
   8
INVOLUTE
   6
SOLID
  62
7
  39
0.000000E+000
  10
0.000000E+000
  20
0.000000E+000
  30
0.000000E+000
  40
22.000000
  50
342.000000
  51
343.809713
   0
ARC
   8
INVOLUTE
   6
SOLID
  62
7
  39
0.000000E+000
  10
13.049474
  20
-13.527319
  30
0.000000E+000
  40
10.950451
  50
42.465082
  51
45.095515
   0
ARC
   8
INVOLUTE
   6
SOLID
  62
7
  39
0.000000E+000
  10
13.521686
  20
-13.053530
  30
0.000000E+000
  40
10.281527
  50
45.095515
  51
46.838342
   0
ARC
   8
INVOLUTE
   6
SOLID
  62
7
  39
0.000000E+000
  10
13.901663
  20
-12.648353
  30
0.000000E+000
  40
9.726054
  50
46.838342
  51
48.581114
   0
ARC
   8
INVOLUTE
   6
SOLID
  62
7
  39
0.000000E+000
  10
14.281626
  20
-12.217655
  30
0.000000E+000
  40
9.151708
  50
48.581114
  51
50.323821
   0
ARC
   8
INVOLUTE
   6
SOLID
  62
7
  39
0.000000E+000
  10
14.646289
  20
-11.778045
  30
0.000000E+000
  40
8.580537
  50
50.323821
  51
52.066450
   0
ARC
   8
INVOLUTE
   6
SOLID
  62
7
  39
0.000000E+000
  10
14.997720
  20
-11.327157
  30
0.000000E+000
  40
8.008870
  50
52.066450
  51
53.808983
   0
ARC
   8
INVOLUTE
   6
SOLID
  62
7
  39
0.000000E+000
  10
15.335206
  20
-10.865889
  30
0.000000E+000
  40
7.437324
  50
53.808983
  51
55.551397
   0
ARC
   8
INVOLUTE
   6
SOLID
  62
7
  39
0.000000E+000
  10
15.658494
  20
-10.394598
  30
0.000000E+000
  40
6.865808
  50
55.551397
  51
57.293661
   0
ARC
   8
INVOLUTE
   6
SOLID
  62
7
  39
0.000000E+000
  10
15.967272
  20
-9.913744
  30
0.000000E+000
  40
6.294350
  50
57.293661
  51
59.035733
   0
ARC
   8
INVOLUTE
   6
SOLID
  62
7
  39
0.000000E+000
  10
16.261252
  20
-9.423786
  30
0.000000E+000
  40
5.722963
  50
59.035733
  51
60.777552
   0
ARC
   8
INVOLUTE
   6
SOLID
  62
7
  39
0.000000E+000
  10
16.540157
  20
-8.925204
  30
0.000000E+000
  40
5.151673
  50
60.777552
  51
62.519028
   0
ARC
   8
INVOLUTE
   6
SOLID
  62
7
  39
0.000000E+000
  10
16.803719
  20
-8.418494
  30
0.000000E+000
  40
4.580517
  50
62.519028
  51
64.260025
   0
ARC
   8
INVOLUTE
   6
SOLID
  62
7
  39
0.000000E+000
  10
17.051686
  20
-7.904176
  30
0.000000E+000
  40
4.009543
  50
64.260025
  51
66.000320
   0
ARC
   8
INVOLUTE
   6
SOLID
  62
7
  39
0.000000E+000
  10
17.283790
  20
-7.382854
  30
0.000000E+000
  40
3.438887
  50
66.000320
  51
67.739531
   0
ARC
   8
INVOLUTE
   6
SOLID
  62
7
  39
0.000000E+000
  10
17.499860
  20
-6.854983
  30
0.000000E+000
  40
2.868506
  50
67.739531
  51
69.476937
   0
ARC
   8
INVOLUTE
   6
SOLID
  62
7
  39
0.000000E+000
  10
17.699223
  20
-6.322416
  30
0.000000E+000
  40
2.299847
  50
69.476937
  51
71.210988
   0
ARC
   8
INVOLUTE
   6
SOLID
  62
7
  39
0.000000E+000
  10
17.883400
  20
-5.781060
  30
0.000000E+000
  40
1.728018
  50
71.210988
  51
72.937660
   0
ARC
   8
INVOLUTE
   6
SOLID
  62
7
  39
0.000000E+000
  10
18.043288
  20
-5.260118
  30
0.000000E+000
  40
1.183092
  50
72.937660
  51
74.642196
   0
ARC
   8
INVOLUTE
   6
SOLID
  62
7
  39
0.000000E+000
  10
18.210281
  20
-4.652104
  30
0.000000E+000
  40
0.552563
  50
74.642196
  51
76.642773
   0
LINE
   8
INVOLUTE
   6
SOLID
  62
7
  39
0.000000E+000
  10
18.337935
  20
-4.114489
  30
0.000000E+000
  11
17.075470
  21
-3.831229
  31
0.000000E+000
   0
ARC
   8
INVOLUTE
   6
SOLID
  62
7
  39
0.000000E+000
  10
0.000000E+000
  20
0.000000E+000
  30
0.000000E+000
  40
17.500000
  50
347.353958
  51
351.000000
   0
ARC
   8
INVOLUTE
   6
SOLID
  62
7
  39
0.000000E+000
  10
0.000000E+000
  20
0.000000E+000
  30
0.000000E+000
  40
17.500000
  50
351.000000
  51
354.646042
   0
LINE
   8
INVOLUTE
   6
SOLID
  62
7
  39
0.000000E+000
  10
17.423652
  20
-1.632895
  30
0.000000E+000
  11
18.711860
  21
-1.753622
  31
0.000000E+000
   0
ARC
   8
INVOLUTE
   6
SOLID
  62
7
  39
0.000000E+000
  10
18.756586
  20
-1.202872
  30
0.000000E+000
  40
0.552563
  50
265.357227
  51
267.357804
   0
ARC
   8
INVOLUTE
   6
SOLID
  62
7
  39
0.000000E+000
  10
18.785652
  20
-0.573014
  30
0.000000E+000
  40
1.183092
  50
267.357804
  51
269.062340
   0
ARC
   8
INVOLUTE
   6
SOLID
  62
7
  39
0.000000E+000
  10
18.794570
  20
-0.028160
  30
0.000000E+000
  40
1.728018
  50
269.062340
  51
270.789012
   0
ARC
   8
INVOLUTE
   6
SOLID
  62
7
  39
0.000000E+000
  10
18.786696
  20
0.543614
  30
0.000000E+000
  40
2.299847
  50
270.789012
  51
272.523063
   0
ARC
   8
INVOLUTE
   6
SOLID
  62
7
  39
0.000000E+000
  10
18.761662
  20
1.111722
  30
0.000000E+000
  40
2.868506
  50
272.523063
  51
274.260469
   0
ARC
   8
INVOLUTE
   6
SOLID
  62
7
  39
0.000000E+000
  10
18.719288
  20
1.680527
  30
0.000000E+000
  40
3.438887
  50
274.260469
  51
275.999680
   0
ARC
   8
INVOLUTE
   6
SOLID
  62
7
  39
0.000000E+000
  10
18.659642
  20
2.248057
  30
0.000000E+000
  40
4.009543
  50
275.999680
  51
277.739975
   0
ARC
   8
INVOLUTE
   6
SOLID
  62
7
  39
0.000000E+000
  10
18.582744
  20
2.813829
  30
0.000000E+000
  40
4.580517
  50
277.739975
  51
279.480972
   0
ARC
   8
INVOLUTE
   6
SOLID
  62
7
  39
0.000000E+000
  10
18.488663
  20
3.377184
  30
0.000000E+000
  40
5.151673
  50
279.480972
  51
281.222448
   0
ARC
   8
INVOLUTE
   6
SOLID
  62
7
  39
0.000000E+000
  10
18.377480
  20
3.937550
  30
0.000000E+000
  40
5.722963
  50
281.222448
  51
282.964267
   0
ARC
   8
INVOLUTE
   6
SOLID
  62
7
  39
0.000000E+000
  10
18.249293
  20
4.494372
  30
0.000000E+000
  40
6.294350
  50
282.964267
  51
284.706339
   0
ARC
   8
INVOLUTE
   6
SOLID
  62
7
  39
0.000000E+000
  10
18.104220
  20
5.047109
  30
0.000000E+000
  40
6.865808
  50
284.706339
  51
286.448603
   0
ARC
   8
INVOLUTE
   6
SOLID
  62
7
  39
0.000000E+000
  10
17.942392
  20
5.595236
  30
0.000000E+000
  40
7.437324
  50
286.448603
  51
288.191017
   0
ARC
   8
INVOLUTE
   6
SOLID
  62
7
  39
0.000000E+000
  10
17.763964
  20
6.138216
  30
0.000000E+000
  40
8.008870
  50
288.191017
  51
289.933550
   0
ARC
   8
INVOLUTE
   6
SOLID
  62
7
  39
0.000000E+000
  10
17.569065
  20
6.675634
  30
0.000000E+000
  40
8.580537
  50
289.933550
  51
291.676179
   0
ARC
   8
INVOLUTE
   6
SOLID
  62
7
  39
0.000000E+000
  10
17.358097
  20
7.206416
  30
0.000000E+000
  40
9.151708
  50
291.676179
  51
293.418886
   0
ARC
   8
INVOLUTE
   6
SOLID
  62
7
  39
0.000000E+000
  10
17.129823
  20
7.733449
  30
0.000000E+000
  40
9.726054
  50
293.418886
  51
295.161658
   0
ARC
   8
INVOLUTE
   6
SOLID
  62
7
  39
0.000000E+000
  10
16.893650
  20
8.236214
  30
0.000000E+000
  40
10.281527
  50
295.161658
  51
296.904485
   0
ARC
   8
INVOLUTE
   6
SOLID
  62
7
  39
0.000000E+000
  10
16.590959
  20
8.832735
  30
0.000000E+000
  40
10.950451
  50
296.904485
  51
299.534918
   0
ARC
   8
INVOLUTE
   6
SOLID
  62
7
  39
0.000000E+000
  10
0.000000E+000
  20
0.000000E+000
  30
0.000000E+000
  40
22.000000
  50
358.190287
  51
0.000000E+000
   0
ARC
   8
INVOLUTE
   6
SOLID
  62
7
  39
0.000000E+000
  10
0.000000E+000
  20
0.000000E+000
  30
0.000000E+000
  40
22.000000
  50
0.000000E+000
  51
1.809713
   0
ARC
   8
INVOLUTE
   6
SOLID
  62
7
  39
0.000000E+000
  10
16.590959
  20
-8.832735
  30
0.000000E+000
  40
10.950451
  50
60.465082
  51
63.095515
   0
ARC
   8
INVOLUTE
   6
SOLID
  62
7
  39
0.000000E+000
  10
16.893650
  20
-8.236214
  30
0.000000E+000
  40
10.281527
  50
63.095515
  51
64.838342
   0
ARC
   8
INVOLUTE
   6
SOLID
  62
7
  39
0.000000E+000
  10
17.129823
  20
-7.733449
  30
0.000000E+000
  40
9.726054
  50
64.838342
  51
66.581114
   0
ARC
   8
INVOLUTE
   6
SOLID
  62
7
  39
0.000000E+000
  10
17.358097
  20
-7.206416
  30
0.000000E+000
  40
9.151708
  50
66.581114
  51
68.323821
   0
ARC
   8
INVOLUTE
   6
SOLID
  62
7
  39
0.000000E+000
  10
17.569065
  20
-6.675634
  30
0.000000E+000
  40
8.580537
  50
68.323821
  51
70.066450
   0
ARC
   8
INVOLUTE
   6
SOLID
  62
7
  39
0.000000E+000
  10
17.763964
  20
-6.138216
  30
0.000000E+000
  40
8.008870
  50
70.066450
  51
71.808983
   0
ARC
   8
INVOLUTE
   6
SOLID
  62
7
  39
0.000000E+000
  10
17.942392
  20
-5.595236
  30
0.000000E+000
  40
7.437324
  50
71.808983
  51
73.551397
   0
ARC
   8
INVOLUTE
   6
SOLID
  62
7
  39
0.000000E+000
  10
18.104220
  20
-5.047109
  30
0.000000E+000
  40
6.865808
  50
73.551397
  51
75.293661
   0
ARC
   8
INVOLUTE
   6
SOLID
  62
7
  39
0.000000E+000
  10
18.249293
  20
-4.494372
  30
0.000000E+000
  40
6.294350
  50
75.293661
  51
77.035733
   0
ARC
   8
INVOLUTE
   6
SOLID
  62
7
  39
0.000000E+000
  10
18.377480
  20
-3.937550
  30
0.000000E+000
  40
5.722963
  50
77.035733
  51
78.777552
   0
ARC
   8
INVOLUTE
   6
SOLID
  62
7
  39
0.000000E+000
  10
18.488663
  20
-3.377184
  30
0.000000E+000
  40
5.151673
  50
78.777552
  51
80.519028
   0
ARC
   8
INVOLUTE
   6
SOLID
  62
7
  39
0.000000E+000
  10
18.582744
  20
-2.813829
  30
0.000000E+000
  40
4.580517
  50
80.519028
  51
82.260025
   0
ARC
   8
INVOLUTE
   6
SOLID
  62
7
  39
0.000000E+000
  10
18.659642
  20
-2.248057
  30
0.000000E+000
  40
4.009543
  50
82.260025
  51
84.000320
   0
ARC
   8
INVOLUTE
   6
SOLID
  62
7
  39
0.000000E+000
  10
18.719288
  20
-1.680527
  30
0.000000E+000
  40
3.438887
  50
84.000320
  51
85.739531
   0
ARC
   8
INVOLUTE
   6
SOLID
  62
7
  39
0.000000E+000
  10
18.761662
  20
-1.111722
  30
0.000000E+000
  40
2.868506
  50
85.739531
  51
87.476937
   0
ARC
   8
INVOLUTE
   6
SOLID
  62
7
  39
0.000000E+000
  10
18.786696
  20
-0.543614
  30
0.000000E+000
  40
2.299847
  50
87.476937
  51
89.210988
   0
ARC
   8
INVOLUTE
   6
SOLID
  62
7
  39
0.000000E+000
  10
18.794570
  20
0.028160
  30
0.000000E+000
  40
1.728018
  50
89.210988
  51
90.937660
   0
ARC
   8
INVOLUTE
   6
SOLID
  62
7
  39
0.000000E+000
  10
18.785652
  20
0.573014
  30
0.000000E+000
  40
1.183092
  50
90.937660
  51
92.642196
   0
ARC
   8
INVOLUTE
   6
SOLID
  62
7
  39
0.000000E+000
  10
18.756586
  20
1.202872
  30
0.000000E+000
  40
0.552563
  50
92.642196
  51
94.642773
   0
LINE
   8
INVOLUTE
   6
SOLID
  62
7
  39
0.000000E+000
  10
18.711860
  20
1.753622
  30
0.000000E+000
  11
17.423652
  21
1.632895
  31
0.000000E+000
   0
ARC
   8
INVOLUTE
   6
SOLID
  62
7
  39
0.000000E+000
  10
0.000000E+000
  20
0.000000E+000
  30
0.000000E+000
  40
17.500000
  50
5.353958
  51
9.000000
   0
ARC
   8
INVOLUTE
   6
SOLID
  62
7
  39
0.000000E+000
  10
0.000000E+000
  20
0.000000E+000
  30
0.000000E+000
  40
17.500000
  50
9.000000
  51
12.646042
   0
LINE
   8
INVOLUTE
   6
SOLID
  62
7
  39
0.000000E+000
  10
17.075470
  20
3.831229
  30
0.000000E+000
  11
18.337935
  21
4.114489
  31
0.000000E+000
   0
ARC
   8
INVOLUTE
   6
SOLID
  62
7
  39
0.000000E+000
  10
18.210281
  20
4.652104
  30
0.000000E+000
  40
0.552563
  50
283.357227
  51
285.357804
   0
ARC
   8
INVOLUTE
   6
SOLID
  62
7
  39
0.000000E+000
  10
18.043288
  20
5.260118
  30
0.000000E+000
  40
1.183092
  50
285.357804
  51
287.062340
   0
ARC
   8
INVOLUTE
   6
SOLID
  62
7
  39
0.000000E+000
  10
17.883400
  20
5.781060
  30
0.000000E+000
  40
1.728018
  50
287.062340
  51
288.789012
   0
ARC
   8
INVOLUTE
   6
SOLID
  62
7
  39
0.000000E+000
  10
17.699223
  20
6.322416
  30
0.000000E+000
  40
2.299847
  50
288.789012
  51
290.523063
   0
ARC
   8
INVOLUTE
   6
SOLID
  62
7
  39
0.000000E+000
  10
17.499860
  20
6.854983
  30
0.000000E+000
  40
2.868506
  50
290.523063
  51
292.260469
   0
ARC
   8
INVOLUTE
   6
SOLID
  62
7
  39
0.000000E+000
  10
17.283790
  20
7.382854
  30
0.000000E+000
  40
3.438887
  50
292.260469
  51
293.999680
   0
ARC
   8
INVOLUTE
   6
SOLID
  62
7
  39
0.000000E+000
  10
17.051686
  20
7.904176
  30
0.000000E+000
  40
4.009543
  50
293.999680
  51
295.739975
   0
ARC
   8
INVOLUTE
   6
SOLID
  62
7
  39
0.000000E+000
  10
16.803719
  20
8.418494
  30
0.000000E+000
  40
4.580517
  50
295.739975
  51
297.480972
   0
ARC
   8
INVOLUTE
   6
SOLID
  62
7
  39
0.000000E+000
  10
16.540157
  20
8.925204
  30
0.000000E+000
  40
5.151673
  50
297.480972
  51
299.222448
   0
ARC
   8
INVOLUTE
   6
SOLID
  62
7
  39
0.000000E+000
  10
16.261252
  20
9.423786
  30
0.000000E+000
  40
5.722963
  50
299.222448
  51
300.964267
   0
ARC
   8
INVOLUTE
   6
SOLID
  62
7
  39
0.000000E+000
  10
15.967272
  20
9.913744
  30
0.000000E+000
  40
6.294350
  50
300.964267
  51
302.706339
   0
ARC
   8
INVOLUTE
   6
SOLID
  62
7
  39
0.000000E+000
  10
15.658494
  20
10.394598
  30
0.000000E+000
  40
6.865808
  50
302.706339
  51
304.448603
   0
ARC
   8
INVOLUTE
   6
SOLID
  62
7
  39
0.000000E+000
  10
15.335206
  20
10.865889
  30
0.000000E+000
  40
7.437324
  50
304.448603
  51
306.191017
   0
ARC
   8
INVOLUTE
   6
SOLID
  62
7
  39
0.000000E+000
  10
14.997720
  20
11.327157
  30
0.000000E+000
  40
8.008870
  50
306.191017
  51
307.933550
   0
ARC
   8
INVOLUTE
   6
SOLID
  62
7
  39
0.000000E+000
  10
14.646289
  20
11.778045
  30
0.000000E+000
  40
8.580537
  50
307.933550
  51
309.676179
   0
ARC
   8
INVOLUTE
   6
SOLID
  62
7
  39
0.000000E+000
  10
14.281626
  20
12.217655
  30
0.000000E+000
  40
9.151708
  50
309.676179
  51
311.418886
   0
ARC
   8
INVOLUTE
   6
SOLID
  62
7
  39
0.000000E+000
  10
13.901663
  20
12.648353
  30
0.000000E+000
  40
9.726054
  50
311.418886
  51
313.161658
   0
ARC
   8
INVOLUTE
   6
SOLID
  62
7
  39
0.000000E+000
  10
13.521686
  20
13.053530
  30
0.000000E+000
  40
10.281527
  50
313.161658
  51
314.904485
   0
ARC
   8
INVOLUTE
   6
SOLID
  62
7
  39
0.000000E+000
  10
13.049474
  20
13.527319
  30
0.000000E+000
  40
10.950451
  50
314.904485
  51
317.534918
   0
ARC
   8
INVOLUTE
   6
SOLID
  62
7
  39
0.000000E+000
  10
0.000000E+000
  20
0.000000E+000
  30
0.000000E+000
  40
22.000000
  50
16.190287
  51
18.000000
   0
ARC
   8
INVOLUTE
   6
SOLID
  62
7
  39
0.000000E+000
  10
0.000000E+000
  20
0.000000E+000
  30
0.000000E+000
  40
22.000000
  50
18.000000
  51
19.809713
   0
ARC
   8
INVOLUTE
   6
SOLID
  62
7
  39
0.000000E+000
  10
18.508405
  20
-3.273542
  30
0.000000E+000
  40
10.950451
  50
78.465082
  51
81.095515
   0
ARC
   8
INVOLUTE
   6
SOLID
  62
7
  39
0.000000E+000
  10
18.611946
  20
-2.612680
  30
0.000000E+000
  40
10.281527
  50
81.095515
  51
82.838342
   0
ARC
   8
INVOLUTE
   6
SOLID
  62
7
  39
0.000000E+000
  10
18.681197
  20
-2.061540
  30
0.000000E+000
  40
9.726054
  50
82.838342
  51
84.581114
   0
ARC
   8
INVOLUTE
   6
SOLID
  62
7
  39
0.000000E+000
  10
18.735436
  20
-1.489762
  30
0.000000E+000
  40
9.151708
  50
84.581114
  51
86.323821
   0
ARC
   8
INVOLUTE
   6
SOLID
  62
7
  39
0.000000E+000
  10
18.772058
  20
-0.919765
  30
0.000000E+000
  40
8.580537
  50
86.323821
  51
88.066450
   0
ARC
   8
INVOLUTE
   6
SOLID
  62
7
  39
0.000000E+000
  10
18.791346
  20
-0.348423
  30
0.000000E+000
  40
8.008870
  50
88.066450
  51
89.808983
   0
ARC
   8
INVOLUTE
   6
SOLID
  62
7
  39
0.000000E+000
  10
18.793252
  20
0.223119
  30
0.000000E+000
  40
7.437324
  50
89.808983
  51
91.551397
   0
ARC
   8
INVOLUTE
   6
SOLID
  62
7
  39
0.000000E+000
  10
18.777779
  20
0.794425
  30
0.000000E+000
  40
6.865808
  50
91.551397
  51
93.293661
   0
ARC
   8
INVOLUTE
   6
SOLID
  62
7
  39
0.000000E+000
  10
18.744946
  20
1.364940
  30
0.000000E+000
  40
6.294350
  50
93.293661
  51
95.035733
   0
ARC
   8
INVOLUTE
   6
SOLID
  62
7
  39
0.000000E+000
  10
18.694792
  20
1.934121
  30
0.000000E+000
  40
5.722963
  50
95.035733
  51
96.777552
   0
ARC
   8
INVOLUTE
   6
SOLID
  62
7
  39
0.000000E+000
  10
18.627371
  20
2.501418
  30
0.000000E+000
  40
5.151673
  50
96.777552
  51
98.519028
   0
ARC
   8
INVOLUTE
   6
SOLID
  62
7
  39
0.000000E+000
  10
18.542761
  20
3.066273
  30
0.000000E+000
  40
4.580517
  50
98.519028
  51
100.260025
   0
ARC
   8
INVOLUTE
   6
SOLID
  62
7
  39
0.000000E+000
  10
18.441062
  20
3.628117
  30
0.000000E+000
  40
4.009543
  50
100.260025
  51
102.000320
   0
ARC
   8
INVOLUTE
   6
SOLID
  62
7
  39
0.000000E+000
  10
18.322413
  20
4.186302
  30
0.000000E+000
  40
3.438887
  50
102.000320
  51
103.739531
   0
ARC
   8
INVOLUTE
   6
SOLID
  62
7
  39
0.000000E+000
  10
18.186942
  20
4.740362
  30
0.000000E+000
  40
2.868506
  50
103.739531
  51
105.476937
   0
ARC
   8
INVOLUTE
   6
SOLID
  62
7
  39
0.000000E+000
  10
18.035195
  20
5.288400
  30
0.000000E+000
  40
2.299847
  50
105.476937
  51
107.210988
   0
ARC
   8
INVOLUTE
   6
SOLID
  62
7
  39
0.000000E+000
  10
17.865996
  20
5.834623
  30
0.000000E+000
  40
1.728018
  50
107.210988
  51
108.937660
   0
ARC
   8
INVOLUTE
   6
SOLID
  62
7
  39
0.000000E+000
  10
17.689146
  20
6.350054
  30
0.000000E+000
  40
1.183092
  50
108.937660
  51
110.642196
   0
ARC
   8
INVOLUTE
   6
SOLID
  62
7
  39
0.000000E+000
  10
17.466865
  20
6.940103
  30
0.000000E+000
  40
0.552563
  50
110.642196
  51
112.642773
   0
LINE
   8
INVOLUTE
   6
SOLID
  62
7
  39
0.000000E+000
  10
17.254137
  20
7.450076
  30
0.000000E+000
  11
16.066286
  21
6.937180
  31
0.000000E+000
   0
ARC
   8
INVOLUTE
   6
SOLID
  62
7
  39
0.000000E+000
  10
0.000000E+000
  20
0.000000E+000
  30
0.000000E+000
  40
17.500000
  50
23.353958
  51
27.000000
   0
ARC
   8
INVOLUTE
   6
SOLID
  62
7
  39
0.000000E+000
  10
0.000000E+000
  20
0.000000E+000
  30
0.000000E+000
  40
17.500000
  50
27.000000
  51
30.646042
   0
LINE
   8
INVOLUTE
   6
SOLID
  62
7
  39
0.000000E+000
  10
15.055822
  20
8.920326
  30
0.000000E+000
  11
16.168966
  21
9.579845
  31
0.000000E+000
   0
ARC
   8
INVOLUTE
   6
SOLID
  62
7
  39
0.000000E+000
  10
15.881427
  20
10.051700
  30
0.000000E+000
  40
0.552563
  50
301.357227
  51
303.357804
   0
ARC
   8
INVOLUTE
   6
SOLID
  62
7
  39
0.000000E+000
  10
15.534721
  20
10.578352
  30
0.000000E+000
  40
1.183092
  50
303.357804
  51
305.062340
   0
ARC
   8
INVOLUTE
   6
SOLID
  62
7
  39
0.000000E+000
  10
15.221678
  20
11.024389
  30
0.000000E+000
  40
1.728018
  50
305.062340
  51
306.789012
   0
ARC
   8
INVOLUTE
   6
SOLID
  62
7
  39
0.000000E+000
  10
14.879228
  20
11.482336
  30
0.000000E+000
  40
2.299847
  50
306.789012
  51
308.523063
   0
ARC
   8
INVOLUTE
   6
SOLID
  62
7
  39
0.000000E+000
  10
14.525050
  20
11.927231
  30
0.000000E+000
  40
2.868506
  50
308.523063
  51
310.260469
   0
ARC
   8
INVOLUTE
   6
SOLID
  62
7
  39
0.000000E+000
  10
14.156434
  20
12.362496
  30
0.000000E+000
  40
3.438887
  50
310.260469
  51
311.999680
   0
ARC
   8
INVOLUTE
   6
SOLID
  62
7
  39
0.000000E+000
  10
13.774592
  20
12.786579
  30
0.000000E+000
  40
4.009543
  50
311.999680
  51
313.739975
   0
ARC
   8
INVOLUTE
   6
SOLID
  62
7
  39
0.000000E+000
  10
13.379829
  20
13.199099
  30
0.000000E+000
  40
4.580517
  50
313.739975
  51
315.480972
   0
ARC
   8
INVOLUTE
   6
SOLID
  62
7
  39
0.000000E+000
  10
12.972584
  20
13.599563
  30
0.000000E+000
  40
5.151673
  50
315.480972
  51
317.222448
   0
ARC
   8
INVOLUTE
   6
SOLID
  62
7
  39
0.000000E+000
  10
12.553259
  20
13.987557
  30
0.000000E+000
  40
5.722963
  50
317.222448
  51
318.964267
   0
ARC
   8
INVOLUTE
   6
SOLID
  62
7
  39
0.000000E+000
  10
12.122263
  20
14.362689
  30
0.000000E+000
  40
6.294350
  50
318.964267
  51
320.706339
   0
ARC
   8
INVOLUTE
   6
SOLID
  62
7
  39
0.000000E+000
  10
11.680005
  20
14.724591
  30
0.000000E+000
  40
6.865808
  50
320.706339
  51
322.448603
   0
ARC
   8
INVOLUTE
   6
SOLID
  62
7
  39
0.000000E+000
  10
11.226903
  20
15.072914
  30
0.000000E+000
  40
7.437324
  50
322.448603
  51
324.191017
   0
ARC
   8
INVOLUTE
   6
SOLID
  62
7
  39
0.000000E+000
  10
10.763396
  20
15.407317
  30
0.000000E+000
  40
8.008870
  50
324.191017
  51
325.933550
   0
ARC
   8
INVOLUTE
   6
SOLID
  62
7
  39
0.000000E+000
  10
10.289833
  20
15.727538
  30
0.000000E+000
  40
8.580537
  50
325.933550
  51
327.676179
   0
ARC
   8
INVOLUTE
   6
SOLID
  62
7
  39
0.000000E+000
  10
9.807170
  20
16.032946
  30
0.000000E+000
  40
9.151708
  50
327.676179
  51
329.418886
   0
ARC
   8
INVOLUTE
   6
SOLID
  62
7
  39
0.000000E+000
  10
9.312711
  20
16.325149
  30
0.000000E+000
  40
9.726054
  50
329.418886
  51
331.161658
   0
ARC
   8
INVOLUTE
   6
SOLID
  62
7
  39
0.000000E+000
  10
8.826125
  20
16.593076
  30
0.000000E+000
  40
10.281527
  50
331.161658
  51
332.904485
   0
ARC
   8
INVOLUTE
   6
SOLID
  62
7
  39
0.000000E+000
  10
8.230616
  20
16.897754
  30
0.000000E+000
  40
10.950451
  50
332.904485
  51
335.534918
   0
ARC
   8
INVOLUTE
   6
SOLID
  62
7
  39
0.000000E+000
  10
0.000000E+000
  20
0.000000E+000
  30
0.000000E+000
  40
22.000000
  50
34.190287
  51
36.000000
   0
ARC
   8
INVOLUTE
   6
SOLID
  62
7
  39
0.000000E+000
  10
0.000000E+000
  20
0.000000E+000
  30
0.000000E+000
  40
22.000000
  50
36.000000
  51
37.809713
   0
ARC
   8
INVOLUTE
   6
SOLID
  62
7
  39
0.000000E+000
  10
18.614119
  20
2.606088
  30
0.000000E+000
  40
10.950451
  50
96.465082
  51
99.095515
   0
ARC
   8
INVOLUTE
   6
SOLID
  62
7
  39
0.000000E+000
  10
18.508375
  20
3.266602
  30
0.000000E+000
  40
10.281527
  50
99.095515
  51
100.838342
   0
ARC
   8
INVOLUTE
   6
SOLID
  62
7
  39
0.000000E+000
  10
18.403925
  20
3.812166
  30
0.000000E+000
  40
9.726054
  50
100.838342
  51
102.581114
   0
ARC
   8
INVOLUTE
   6
SOLID
  62
7
  39
0.000000E+000
  10
18.278820
  20
4.372721
  30
0.000000E+000
  40
9.151708
  50
102.581114
  51
104.323821
   0
ARC
   8
INVOLUTE
   6
SOLID
  62
7
  39
0.000000E+000
  10
18.137511
  20
4.926136
  30
0.000000E+000
  40
8.580537
  50
104.323821
  51
106.066450
   0
ARC
   8
INVOLUTE
   6
SOLID
  62
7
  39
0.000000E+000
  10
17.979301
  20
5.475475
  30
0.000000E+000
  40
8.008870
  50
106.066450
  51
107.808983
   0
ARC
   8
INVOLUTE
   6
SOLID
  62
7
  39
0.000000E+000
  10
17.804497
  20
6.019633
  30
0.000000E+000
  40
7.437324
  50
107.808983
  51
109.551397
   0
ARC
   8
INVOLUTE
   6
SOLID
  62
7
  39
0.000000E+000
  10
17.613238
  20
6.558196
  30
0.000000E+000
  40
6.865808
  50
109.551397
  51
111.293661
   0
ARC
   8
INVOLUTE
   6
SOLID
  62
7
  39
0.000000E+000
  10
17.405714
  20
7.090642
  30
0.000000E+000
  40
6.294350
  50
111.293661
  51
113.035733
   0
ARC
   8
INVOLUTE
   6
SOLID
  62
7
  39
0.000000E+000
  10
17.182127
  20
7.616466
  30
0.000000E+000
  40
5.722963
  50
113.035733
  51
114.777552
   0
ARC
   8
INVOLUTE
   6
SOLID
  62
7
  39
0.000000E+000
  10
16.942702
  20
8.135165
  30
0.000000E+000
  40
5.151673
  50
114.777552
  51
116.519028
   0
ARC
   8
INVOLUTE
   6
SOLID
  62
7
  39
0.000000E+000
  10
16.687683
  20
8.646228
  30
0.000000E+000
  40
4.580517
  50
116.519028
  51
118.260025
   0
ARC
   8
INVOLUTE
   6
SOLID
  62
7
  39
0.000000E+000
  10
16.417342
  20
9.149146
  30
0.000000E+000
  40
4.009543
  50
118.260025
  51
120.000320
   0
ARC
   8
INVOLUTE
   6
SOLID
  62
7
  39
0.000000E+000
  10
16.132011
  20
9.643347
  30
0.000000E+000
  40
3.438887
  50
120.000320
  51
121.739531
   0
ARC
   8
INVOLUTE
   6
SOLID
  62
7
  39
0.000000E+000
  10
15.831958
  20
10.128426
  30
0.000000E+000
  40
2.868506
  50
121.739531
  51
123.476937
   0
ARC
   8
INVOLUTE
   6
SOLID
  62
7
  39
0.000000E+000
  10
15.518284
  20
10.602750
  30
0.000000E+000
  40
2.299847
  50
123.476937
  51
125.210988
   0
ARC
   8
INVOLUTE
   6
SOLID
  62
7
  39
0.000000E+000
  10
15.188575
  20
11.069953
  30
0.000000E+000
  40
1.728018
  50
125.210988
  51
126.937660
   0
ARC
   8
INVOLUTE
   6
SOLID
  62
7
  39
0.000000E+000
  10
14.861103
  20
11.505507
  30
0.000000E+000
  40
1.183092
  50
126.937660
  51
128.642196
   0
ARC
   8
INVOLUTE
   6
SOLID
  62
7
  39
0.000000E+000
  10
14.467366
  20
11.997989
  30
0.000000E+000
  40
0.552563
  50
128.642196
  51
130.642773
   0
LINE
   8
INVOLUTE
   6
SOLID
  62
7
  39
0.000000E+000
  10
14.107460
  20
12.417265
  30
0.000000E+000
  11
13.136239
  21
11.562405
  31
0.000000E+000
   0
ARC
   8
INVOLUTE
   6
SOLID
  62
7
  39
0.000000E+000
  10
0.000000E+000
  20
0.000000E+000
  30
0.000000E+000
  40
17.500000
  50
41.353958
  51
45.000000
   0
ARC
   8
INVOLUTE
   6
SOLID
  62
7
  39
0.000000E+000
  10
0.000000E+000
  20
0.000000E+000
  30
0.000000E+000
  40
17.500000
  50
45.000000
  51
48.646042
   0
LINE
   8
INVOLUTE
   6
SOLID
  62
7
  39
0.000000E+000
  10
11.562405
  20
13.136239
  30
0.000000E+000
  11
12.417265
  21
14.107460
  31
0.000000E+000
   0
ARC
   8
INVOLUTE
   6
SOLID
  62
7
  39
0.000000E+000
  10
11.997989
  20
14.467366
  30
0.000000E+000
  40
0.552563
  50
319.357227
  51
321.357804
   0
ARC
   8
INVOLUTE
   6
SOLID
  62
7
  39
0.000000E+000
  10
11.505507
  20
14.861103
  30
0.000000E+000
  40
1.183092
  50
321.357804
  51
323.062340
   0
ARC
   8
INVOLUTE
   6
SOLID
  62
7
  39
0.000000E+000
  10
11.069953
  20
15.188575
  30
0.000000E+000
  40
1.728018
  50
323.062340
  51
324.789012
   0
ARC
   8
INVOLUTE
   6
SOLID
  62
7
  39
0.000000E+000
  10
10.602750
  20
15.518284
  30
0.000000E+000
  40
2.299847
  50
324.789012
  51
326.523063
   0
ARC
   8
INVOLUTE
   6
SOLID
  62
7
  39
0.000000E+000
  10
10.128426
  20
15.831958
  30
0.000000E+000
  40
2.868506
  50
326.523063
  51
328.260469
   0
ARC
   8
INVOLUTE
   6
SOLID
  62
7
  39
0.000000E+000
  10
9.643347
  20
16.132011
  30
0.000000E+000
  40
3.438887
  50
328.260469
  51
329.999680
   0
ARC
   8
INVOLUTE
   6
SOLID
  62
7
  39
0.000000E+000
  10
9.149146
  20
16.417342
  30
0.000000E+000
  40
4.009543
  50
329.999680
  51
331.739975
   0
ARC
   8
INVOLUTE
   6
SOLID
  62
7
  39
0.000000E+000
  10
8.646228
  20
16.687683
  30
0.000000E+000
  40
4.580517
  50
331.739975
  51
333.480972
   0
ARC
   8
INVOLUTE
   6
SOLID
  62
7
  39
0.000000E+000
  10
8.135165
  20
16.942702
  30
0.000000E+000
  40
5.151673
  50
333.480972
  51
335.222448
   0
ARC
   8
INVOLUTE
   6
SOLID
  62
7
  39
0.000000E+000
  10
7.616466
  20
17.182127
  30
0.000000E+000
  40
5.722963
  50
335.222448
  51
336.964267
   0
ARC
   8
INVOLUTE
   6
SOLID
  62
7
  39
0.000000E+000
  10
7.090642
  20
17.405714
  30
0.000000E+000
  40
6.294350
  50
336.964267
  51
338.706339
   0
ARC
   8
INVOLUTE
   6
SOLID
  62
7
  39
0.000000E+000
  10
6.558196
  20
17.613238
  30
0.000000E+000
  40
6.865808
  50
338.706339
  51
340.448603
   0
ARC
   8
INVOLUTE
   6
SOLID
  62
7
  39
0.000000E+000
  10
6.019633
  20
17.804497
  30
0.000000E+000
  40
7.437324
  50
340.448603
  51
342.191017
   0
ARC
   8
INVOLUTE
   6
SOLID
  62
7
  39
0.000000E+000
  10
5.475475
  20
17.979301
  30
0.000000E+000
  40
8.008870
  50
342.191017
  51
343.933550
   0
ARC
   8
INVOLUTE
   6
SOLID
  62
7
  39
0.000000E+000
  10
4.926136
  20
18.137511
  30
0.000000E+000
  40
8.580537
  50
343.933550
  51
345.676179
   0
ARC
   8
INVOLUTE
   6
SOLID
  62
7
  39
0.000000E+000
  10
4.372721
  20
18.278820
  30
0.000000E+000
  40
9.151708
  50
345.676179
  51
347.418886
   0
ARC
   8
INVOLUTE
   6
SOLID
  62
7
  39
0.000000E+000
  10
3.812166
  20
18.403925
  30
0.000000E+000
  40
9.726054
  50
347.418886
  51
349.161658
   0
ARC
   8
INVOLUTE
   6
SOLID
  62
7
  39
0.000000E+000
  10
3.266602
  20
18.508375
  30
0.000000E+000
  40
10.281527
  50
349.161658
  51
350.904485
   0
ARC
   8
INVOLUTE
   6
SOLID
  62
7
  39
0.000000E+000
  10
2.606088
  20
18.614119
  30
0.000000E+000
  40
10.950451
  50
350.904485
  51
353.534918
   0
ARC
   8
INVOLUTE
   6
SOLID
  62
7
  39
0.000000E+000
  10
0.000000E+000
  20
0.000000E+000
  30
0.000000E+000
  40
22.000000
  50
52.190287
  51
54.000000
   0
ARC
   8
INVOLUTE
   6
SOLID
  62
7
  39
0.000000E+000
  10
0.000000E+000
  20
0.000000E+000
  30
0.000000E+000
  40
22.000000
  50
54.000000
  51
55.809713
   0
ARC
   8
INVOLUTE
   6
SOLID
  62
7
  39
0.000000E+000
  10
16.897754
  20
8.230616
  30
0.000000E+000
  40
10.950451
  50
114.465082
  51
117.095515
   0
ARC
   8
INVOLUTE
   6
SOLID
  62
7
  39
0.000000E+000
  10
16.593076
  20
8.826125
  30
0.000000E+000
  40
10.281527
  50
117.095515
  51
118.838342
   0
ARC
   8
INVOLUTE
   6
SOLID
  62
7
  39
0.000000E+000
  10
16.325149
  20
9.312711
  30
0.000000E+000
  40
9.726054
  50
118.838342
  51
120.581114
   0
ARC
   8
INVOLUTE
   6
SOLID
  62
7
  39
0.000000E+000
  10
16.032946
  20
9.807170
  30
0.000000E+000
  40
9.151708
  50
120.581114
  51
122.323821
   0
ARC
   8
INVOLUTE
   6
SOLID
  62
7
  39
0.000000E+000
  10
15.727538
  20
10.289833
  30
0.000000E+000
  40
8.580537
  50
122.323821
  51
124.066450
   0
ARC
   8
INVOLUTE
   6
SOLID
  62
7
  39
0.000000E+000
  10
15.407317
  20
10.763396
  30
0.000000E+000
  40
8.008870
  50
124.066450
  51
125.808983
   0
ARC
   8
INVOLUTE
   6
SOLID
  62
7
  39
0.000000E+000
  10
15.072914
  20
11.226903
  30
0.000000E+000
  40
7.437324
  50
125.808983
  51
127.551397
   0
ARC
   8
INVOLUTE
   6
SOLID
  62
7
  39
0.000000E+000
  10
14.724591
  20
11.680005
  30
0.000000E+000
  40
6.865808
  50
127.551397
  51
129.293661
   0
ARC
   8
INVOLUTE
   6
SOLID
  62
7
  39
0.000000E+000
  10
14.362689
  20
12.122263
  30
0.000000E+000
  40
6.294350
  50
129.293661
  51
131.035733
   0
ARC
   8
INVOLUTE
   6
SOLID
  62
7
  39
0.000000E+000
  10
13.987557
  20
12.553259
  30
0.000000E+000
  40
5.722963
  50
131.035733
  51
132.777552
   0
ARC
   8
INVOLUTE
   6
SOLID
  62
7
  39
0.000000E+000
  10
13.599563
  20
12.972584
  30
0.000000E+000
  40
5.151673
  50
132.777552
  51
134.519028
   0
ARC
   8
INVOLUTE
   6
SOLID
  62
7
  39
0.000000E+000
  10
13.199099
  20
13.379829
  30
0.000000E+000
  40
4.580517
  50
134.519028
  51
136.260025
   0
ARC
   8
INVOLUTE
   6
SOLID
  62
7
  39
0.000000E+000
  10
12.786579
  20
13.774592
  30
0.000000E+000
  40
4.009543
  50
136.260025
  51
138.000320
   0
ARC
   8
INVOLUTE
   6
SOLID
  62
7
  39
0.000000E+000
  10
12.362496
  20
14.156434
  30
0.000000E+000
  40
3.438887
  50
138.000320
  51
139.739531
   0
ARC
   8
INVOLUTE
   6
SOLID
  62
7
  39
0.000000E+000
  10
11.927231
  20
14.525050
  30
0.000000E+000
  40
2.868506
  50
139.739531
  51
141.476937
   0
ARC
   8
INVOLUTE
   6
SOLID
  62
7
  39
0.000000E+000
  10
11.482336
  20
14.879228
  30
0.000000E+000
  40
2.299847
  50
141.476937
  51
143.210988
   0
ARC
   8
INVOLUTE
   6
SOLID
  62
7
  39
0.000000E+000
  10
11.024389
  20
15.221678
  30
0.000000E+000
  40
1.728018
  50
143.210988
  51
144.937660
   0
ARC
   8
INVOLUTE
   6
SOLID
  62
7
  39
0.000000E+000
  10
10.578352
  20
15.534721
  30
0.000000E+000
  40
1.183092
  50
144.937660
  51
146.642196
   0
ARC
   8
INVOLUTE
   6
SOLID
  62
7
  39
0.000000E+000
  10
10.051700
  20
15.881427
  30
0.000000E+000
  40
0.552563
  50
146.642196
  51
148.642773
   0
LINE
   8
INVOLUTE
   6
SOLID
  62
7
  39
0.000000E+000
  10
9.579845
  20
16.168966
  30
0.000000E+000
  11
8.920326
  21
15.055822
  31
0.000000E+000
   0
ARC
   8
INVOLUTE
   6
SOLID
  62
7
  39
0.000000E+000
  10
0.000000E+000
  20
0.000000E+000
  30
0.000000E+000
  40
17.500000
  50
59.353958
  51
63.000000
   0
ARC
   8
INVOLUTE
   6
SOLID
  62
7
  39
0.000000E+000
  10
0.000000E+000
  20
0.000000E+000
  30
0.000000E+000
  40
17.500000
  50
63.000000
  51
66.646042
   0
LINE
   8
INVOLUTE
   6
SOLID
  62
7
  39
0.000000E+000
  10
6.937180
  20
16.066286
  30
0.000000E+000
  11
7.450076
  21
17.254137
  31
0.000000E+000
   0
ARC
   8
INVOLUTE
   6
SOLID
  62
7
  39
0.000000E+000
  10
6.940103
  20
17.466865
  30
0.000000E+000
  40
0.552563
  50
337.357227
  51
339.357804
   0
ARC
   8
INVOLUTE
   6
SOLID
  62
7
  39
0.000000E+000
  10
6.350054
  20
17.689146
  30
0.000000E+000
  40
1.183092
  50
339.357804
  51
341.062340
   0
ARC
   8
INVOLUTE
   6
SOLID
  62
7
  39
0.000000E+000
  10
5.834623
  20
17.865996
  30
0.000000E+000
  40
1.728018
  50
341.062340
  51
342.789012
   0
ARC
   8
INVOLUTE
   6
SOLID
  62
7
  39
0.000000E+000
  10
5.288400
  20
18.035195
  30
0.000000E+000
  40
2.299847
  50
342.789012
  51
344.523063
   0
ARC
   8
INVOLUTE
   6
SOLID
  62
7
  39
0.000000E+000
  10
4.740362
  20
18.186942
  30
0.000000E+000
  40
2.868506
  50
344.523063
  51
346.260469
   0
ARC
   8
INVOLUTE
   6
SOLID
  62
7
  39
0.000000E+000
  10
4.186302
  20
18.322413
  30
0.000000E+000
  40
3.438887
  50
346.260469
  51
347.999680
   0
ARC
   8
INVOLUTE
   6
SOLID
  62
7
  39
0.000000E+000
  10
3.628117
  20
18.441062
  30
0.000000E+000
  40
4.009543
  50
347.999680
  51
349.739975
   0
ARC
   8
INVOLUTE
   6
SOLID
  62
7
  39
0.000000E+000
  10
3.066273
  20
18.542761
  30
0.000000E+000
  40
4.580517
  50
349.739975
  51
351.480972
   0
ARC
   8
INVOLUTE
   6
SOLID
  62
7
  39
0.000000E+000
  10
2.501418
  20
18.627371
  30
0.000000E+000
  40
5.151673
  50
351.480972
  51
353.222448
   0
ARC
   8
INVOLUTE
   6
SOLID
  62
7
  39
0.000000E+000
  10
1.934121
  20
18.694792
  30
0.000000E+000
  40
5.722963
  50
353.222448
  51
354.964267
   0
ARC
   8
INVOLUTE
   6
SOLID
  62
7
  39
0.000000E+000
  10
1.364940
  20
18.744946
  30
0.000000E+000
  40
6.294350
  50
354.964267
  51
356.706339
   0
ARC
   8
INVOLUTE
   6
SOLID
  62
7
  39
0.000000E+000
  10
0.794425
  20
18.777779
  30
0.000000E+000
  40
6.865808
  50
356.706339
  51
358.448603
   0
ARC
   8
INVOLUTE
   6
SOLID
  62
7
  39
0.000000E+000
  10
0.223119
  20
18.793252
  30
0.000000E+000
  40
7.437324
  50
358.448603
  51
0.191017
   0
ARC
   8
INVOLUTE
   6
SOLID
  62
7
  39
0.000000E+000
  10
-0.348423
  20
18.791346
  30
0.000000E+000
  40
8.008870
  50
0.191017
  51
1.933550
   0
ARC
   8
INVOLUTE
   6
SOLID
  62
7
  39
0.000000E+000
  10
-0.919765
  20
18.772058
  30
0.000000E+000
  40
8.580537
  50
1.933550
  51
3.676179
   0
ARC
   8
INVOLUTE
   6
SOLID
  62
7
  39
0.000000E+000
  10
-1.489762
  20
18.735436
  30
0.000000E+000
  40
9.151708
  50
3.676179
  51
5.418886
   0
ARC
   8
INVOLUTE
   6
SOLID
  62
7
  39
0.000000E+000
  10
-2.061540
  20
18.681197
  30
0.000000E+000
  40
9.726054
  50
5.418886
  51
7.161658
   0
ARC
   8
INVOLUTE
   6
SOLID
  62
7
  39
0.000000E+000
  10
-2.612680
  20
18.611946
  30
0.000000E+000
  40
10.281527
  50
7.161658
  51
8.904485
   0
ARC
   8
INVOLUTE
   6
SOLID
  62
7
  39
0.000000E+000
  10
-3.273542
  20
18.508405
  30
0.000000E+000
  40
10.950451
  50
8.904485
  51
11.534918
   0
ARC
   8
INVOLUTE
   6
SOLID
  62
7
  39
0.000000E+000
  10
0.000000E+000
  20
0.000000E+000
  30
0.000000E+000
  40
22.000000
  50
70.190287
  51
72.000000
   0
ARC
   8
INVOLUTE
   6
SOLID
  62
7
  39
0.000000E+000
  10
0.000000E+000
  20
0.000000E+000
  30
0.000000E+000
  40
22.000000
  50
72.000000
  51
73.809713
   0
ARC
   8
INVOLUTE
   6
SOLID
  62
7
  39
0.000000E+000
  10
13.527319
  20
13.049474
  30
0.000000E+000
  40
10.950451
  50
132.465082
  51
135.095515
   0
ARC
   8
INVOLUTE
   6
SOLID
  62
7
  39
0.000000E+000
  10
13.053530
  20
13.521686
  30
0.000000E+000
  40
10.281527
  50
135.095515
  51
136.838342
   0
ARC
   8
INVOLUTE
   6
SOLID
  62
7
  39
0.000000E+000
  10
12.648353
  20
13.901663
  30
0.000000E+000
  40
9.726054
  50
136.838342
  51
138.581114
   0
ARC
   8
INVOLUTE
   6
SOLID
  62
7
  39
0.000000E+000
  10
12.217655
  20
14.281626
  30
0.000000E+000
  40
9.151708
  50
138.581114
  51
140.323821
   0
ARC
   8
INVOLUTE
   6
SOLID
  62
7
  39
0.000000E+000
  10
11.778045
  20
14.646289
  30
0.000000E+000
  40
8.580537
  50
140.323821
  51
142.066450
   0
ARC
   8
INVOLUTE
   6
SOLID
  62
7
  39
0.000000E+000
  10
11.327157
  20
14.997720
  30
0.000000E+000
  40
8.008870
  50
142.066450
  51
143.808983
   0
ARC
   8
INVOLUTE
   6
SOLID
  62
7
  39
0.000000E+000
  10
10.865889
  20
15.335206
  30
0.000000E+000
  40
7.437324
  50
143.808983
  51
145.551397
   0
ARC
   8
INVOLUTE
   6
SOLID
  62
7
  39
0.000000E+000
  10
10.394598
  20
15.658494
  30
0.000000E+000
  40
6.865808
  50
145.551397
  51
147.293661
   0
ARC
   8
INVOLUTE
   6
SOLID
  62
7
  39
0.000000E+000
  10
9.913744
  20
15.967272
  30
0.000000E+000
  40
6.294350
  50
147.293661
  51
149.035733
   0
ARC
   8
INVOLUTE
   6
SOLID
  62
7
  39
0.000000E+000
  10
9.423786
  20
16.261252
  30
0.000000E+000
  40
5.722963
  50
149.035733
  51
150.777552
   0
ARC
   8
INVOLUTE
   6
SOLID
  62
7
  39
0.000000E+000
  10
8.925204
  20
16.540157
  30
0.000000E+000
  40
5.151673
  50
150.777552
  51
152.519028
   0
ARC
   8
INVOLUTE
   6
SOLID
  62
7
  39
0.000000E+000
  10
8.418494
  20
16.803719
  30
0.000000E+000
  40
4.580517
  50
152.519028
  51
154.260025
   0
ARC
   8
INVOLUTE
   6
SOLID
  62
7
  39
0.000000E+000
  10
7.904176
  20
17.051686
  30
0.000000E+000
  40
4.009543
  50
154.260025
  51
156.000320
   0
ARC
   8
INVOLUTE
   6
SOLID
  62
7
  39
0.000000E+000
  10
7.382854
  20
17.283790
  30
0.000000E+000
  40
3.438887
  50
156.000320
  51
157.739531
   0
ARC
   8
INVOLUTE
   6
SOLID
  62
7
  39
0.000000E+000
  10
6.854983
  20
17.499860
  30
0.000000E+000
  40
2.868506
  50
157.739531
  51
159.476937
   0
ARC
   8
INVOLUTE
   6
SOLID
  62
7
  39
0.000000E+000
  10
6.322416
  20
17.699223
  30
0.000000E+000
  40
2.299847
  50
159.476937
  51
161.210988
   0
ARC
   8
INVOLUTE
   6
SOLID
  62
7
  39
0.000000E+000
  10
5.781060
  20
17.883400
  30
0.000000E+000
  40
1.728018
  50
161.210988
  51
162.937660
   0
ARC
   8
INVOLUTE
   6
SOLID
  62
7
  39
0.000000E+000
  10
5.260118
  20
18.043288
  30
0.000000E+000
  40
1.183092
  50
162.937660
  51
164.642196
   0
ARC
   8
INVOLUTE
   6
SOLID
  62
7
  39
0.000000E+000
  10
4.652104
  20
18.210281
  30
0.000000E+000
  40
0.552563
  50
164.642196
  51
166.642773
   0
LINE
   8
INVOLUTE
   6
SOLID
  62
7
  39
0.000000E+000
  10
4.114489
  20
18.337935
  30
0.000000E+000
  11
3.831229
  21
17.075470
  31
0.000000E+000
   0
ARC
   8
INVOLUTE
   6
SOLID
  62
7
  39
0.000000E+000
  10
0.000000E+000
  20
0.000000E+000
  30
0.000000E+000
  40
17.500000
  50
77.353958
  51
81.000000
   0
ENDSEC
   0
EOF
