  0
SECTION
  2
HEADER
  9
$ACADVER
  1
AC1006
  0
ENDSEC
  0
SECTION
  2
TABLES
  0
TABLE
  2
LTYPE
 70
    25
  0
LTYPE
  2
CONTINUOUS
 70
    64
  3
Solid line
 72
    64
 73
     0
 40
0.000000
  0
LTYPE
  2
DASHDOT
 70
    64
  3
__ . __ . __ . __ . __ . __ . __ . __ . __ . __
 72
    65
 73
     4
 40
1.000000
 49
0.500000
 49
-0.250000
 49
0.000000
 49
-0.250000
  0
LTYPE
  2
DASHED
 70
    64
  3
__ __ __ __ __ __ __ __ __ __ __ __ __ __ __ __
 72
    65
 73
     2
 40
0.750000
 49
0.500000
 49
-0.250000
  0
LTYPE
  2
DIVIDE
 70
    64
  3
____ . . ____ . . ____ . . ____ . . ____ . . __
 72
    65
 73
     6
 40
1.250000
 49
0.500000
 49
-0.250000
 49
0.000000
 49
-0.250000
 49
0.000000
 49
-0.250000
  0
LTYPE
  2
DOT
 70
    64
  3
. . . . . . . . . . . . . . . . . . . . . . . . 
 72
    65
 73
     2
 40
0.250000
 49
0.000000
 49
-0.250000
  0
ENDTAB
  0
ENDSEC
  0
SECTION
  2
BLOCKS
  0
BLOCK
  8
0
  2
Object_0
 70
    64
 10
0.000000
 20
0.000000
 30
0.000000
  0
ENDBLK
  0
ENDSEC
  0
SECTION
  2
ENTITIES
  0
ARC
  8
0
 62
     7
  6
CONTINUOUS
 10
5.112073
 20
7.328956
 30
-0.000000
 40
1.007707
 50
0.124034
 51
28.795954
  0
LINE
  8
0
 62
     7
  6
CONTINUOUS
 10
6.024381
 20
7.866032
 30
-0.000000
 11
5.995167
 21
7.814360
 31
-0.000000
  0
LINE
  8
0
 62
     7
  6
CONTINUOUS
 10
6.024381
 20
7.866032
 30
-0.000000
 11
6.024381
 21
8.343888
 31
-0.000000
  0
LINE
  8
0
 62
     7
  6
CONTINUOUS
 10
5.912450
 20
8.343888
 30
-0.000000
 11
6.024381
 21
8.343888
 31
-0.000000
  0
ARC
  8
0
 62
     7
  6
CONTINUOUS
 10
5.195756
 20
8.311675
 30
-0.000000
 40
0.717418
 50
2.573464
 51
37.288536
  0
ARC
  8
0
 62
     7
  6
CONTINUOUS
 10
5.402882
 20
8.469398
 30
0.000000
 40
0.457076
 50
37.288536
 51
119.429981
  0
ARC
  8
0
 62
     7
  6
CONTINUOUS
 10
6.240291
 20
6.985054
 30
-0.000000
 40
2.161344
 50
119.429981
 51
132.624761
  0
ARC
  8
0
 62
     7
  6
CONTINUOUS
 10
4.805124
 20
6.728909
 30
-0.000000
 40
1.846691
 50
90.883737
 51
101.635972
  0
ARC
  8
0
 62
     7
  6
CONTINUOUS
 10
5.693073
 20
10.216691
 30
-0.000000
 40
2.099481
 50
215.052954
 51
233.105397
  0
LINE
  8
0
 62
     7
  6
CONTINUOUS
 10
3.864067
 20
8.900031
 30
-0.000000
 11
3.974392
 21
9.010889
 31
-0.000000
  0
ARC
  8
0
 62
     7
  6
CONTINUOUS
 10
3.690741
 20
8.318800
 30
0.000000
 40
0.606524
 50
73.395211
 51
118.725445
  0
ARC
  8
0
 62
     7
  6
CONTINUOUS
 10
4.166863
 20
8.189934
 30
0.000000
 40
1.012835
 50
139.279206
 51
160.223662
  0
LINE
  8
0
 62
     7
  6
CONTINUOUS
 10
3.149960
 20
8.561915
 30
0.000000
 11
3.213765
 21
8.532626
 31
0.000000
  0
ARC
  8
0
 62
     7
  6
CONTINUOUS
 10
4.329504
 20
8.013896
 30
-0.000000
 40
1.300634
 50
155.080314
 51
172.414551
  0
LINE
  8
0
 62
     7
  6
CONTINUOUS
 10
2.870435
 20
8.226785
 30
-0.000000
 11
3.040252
 21
8.185586
 31
-0.000000
  0
ARC
  8
0
 62
     7
  6
CONTINUOUS
 10
3.807517
 20
8.160851
 30
0.000000
 40
0.939398
 50
175.975256
 51
207.946185
  0
ARC
  8
0
 62
     7
  6
CONTINUOUS
 10
3.805579
 20
6.966074
 30
0.000000
 40
1.120164
 50
137.654928
 51
173.977998
  0
LINE
  8
0
 62
     7
  6
CONTINUOUS
 10
2.791097
 20
7.073094
 30
0.000000
 11
2.691596
 21
7.083590
 31
0.000000
  0
ARC
  8
0
 62
     7
  6
CONTINUOUS
 10
3.718726
 20
7.005702
 30
0.000000
 40
0.930074
 50
131.041607
 51
175.844798
  0
ARC
  8
0
 62
     7
  6
CONTINUOUS
 10
3.601823
 20
8.095783
 30
0.000000
 40
0.628355
 50
179.722082
 51
218.200993
  0
LINE
  8
0
 62
     7
  6
CONTINUOUS
 10
3.137177
 20
8.059115
 30
0.000000
 11
2.973476
 21
8.098830
 31
0.000000
  0
ARC
  8
0
 62
     7
  6
CONTINUOUS
 10
3.968219
 20
8.099362
 30
0.000000
 40
0.832016
 50
156.937408
 51
182.772673
  0
LINE
  8
0
 62
     7
  6
CONTINUOUS
 10
3.278531
 20
8.388639
 30
0.000000
 11
3.202700
 21
8.425293
 31
0.000000
  0
ARC
  8
0
 62
     7
  6
CONTINUOUS
 10
4.093605
 20
8.230950
 30
0.000000
 40
0.830188
 50
139.164227
 51
169.050464
  0
ARC
  8
0
 62
     7
  6
CONTINUOUS
 10
3.672550
 20
8.466051
 30
0.000000
 40
0.370922
 50
56.067704
 51
123.932296
  0
LINE
  8
0
 62
     7
  6
CONTINUOUS
 10
3.968722
 20
8.863353
 30
0.000000
 11
3.879603
 21
8.773804
 31
0.000000
  0
ARC
  8
0
 62
     7
  6
CONTINUOUS
 10
6.575390
 20
11.052685
 30
0.000000
 40
3.404099
 50
220.026787
 51
230.437036
  0
ARC
  8
0
 62
     7
  6
CONTINUOUS
 10
4.777320
 20
6.992596
 30
-0.000000
 40
1.482713
 50
88.673245
 51
104.453990
  0
ARC
  8
0
 62
     7
  6
CONTINUOUS
 10
7.860115
 20
4.757076
 30
0.000000
 40
4.807852
 50
123.157632
 51
129.350262
  0
ARC
  8
0
 62
     7
  6
CONTINUOUS
 10
5.410489
 20
8.506545
 30
-0.000000
 40
0.329103
 50
33.694025
 51
123.157632
  0
ARC
  8
0
 62
     7
  6
CONTINUOUS
 10
5.050098
 20
8.266248
 30
-0.000000
 40
0.762259
 50
358.315004
 51
393.694025
  0
LINE
  8
0
 62
     7
  6
CONTINUOUS
 10
5.812028
 20
8.243834
 30
0.000000
 11
5.924328
 21
8.243834
 31
0.000000
  0
LINE
  8
0
 62
     7
  6
CONTINUOUS
 10
5.924328
 20
8.243834
 30
0.000000
 11
5.924328
 21
7.892896
 31
0.000000
  0
LINE
  8
0
 62
     7
  6
CONTINUOUS
 10
5.878865
 20
7.814339
 30
0.000000
 11
5.924328
 21
7.892896
 31
0.000000
  0
ARC
  8
0
 62
     7
  6
CONTINUOUS
 10
5.131840
 20
7.334201
 30
0.000000
 40
0.888020
 50
357.298385
 51
392.730220
  0
ARC
  8
0
 62
     7
  6
CONTINUOUS
 10
5.282168
 20
6.588455
 30
0.000000
 40
1.018918
 50
33.815917
 51
43.695122
  0
LINE
  8
0
 62
     7
  6
CONTINUOUS
 10
6.128716
 20
7.155509
 30
0.000000
 11
6.212635
 21
7.194401
 31
0.000000
  0
ARC
  8
0
 62
     7
  6
CONTINUOUS
 10
4.100003
 20
5.851416
 30
-0.000000
 40
2.503362
 50
32.443836
 51
36.213130
  0
LINE
  8
0
 62
     7
  6
CONTINUOUS
 10
2.746182
 20
6.416152
 30
0.000000
 11
2.819860
 21
6.481169
 31
0.000000
  0
ARC
  8
0
 62
     7
  6
CONTINUOUS
 10
3.396976
 20
6.317676
 30
0.000000
 40
0.599827
 50
164.182942
 51
220.758816
  0
LINE
  8
0
 62
     7
  6
CONTINUOUS
 10
2.942628
 20
5.926063
 30
0.000000
 11
3.020919
 21
6.042578
 31
0.000000
  0
ARC
  8
0
 62
     7
  6
CONTINUOUS
 10
1.907613
 20
6.261876
 30
-0.000000
 40
1.134700
 50
326.746406
 51
348.856566
  0
ARC
  8
0
 62
     7
  6
CONTINUOUS
 10
3.074089
 20
5.941826
 30
0.000000
 40
0.372345
 50
234.242607
 51
305.757393
  0
LINE
  8
0
 62
     7
  6
CONTINUOUS
 10
3.291671
 20
5.639669
 30
0.000000
 11
3.238153
 21
5.364066
 31
0.000000
  0
LINE
  8
0
 62
     7
  6
CONTINUOUS
 10
3.238153
 20
5.364066
 30
0.000000
 11
3.382416
 21
5.384439
 31
0.000000
  0
LINE
  8
0
 62
     7
  6
CONTINUOUS
 10
3.382416
 20
5.384439
 30
0.000000
 11
3.397795
 21
5.388036
 31
0.000000
  0
ARC
  8
0
 62
     7
  6
CONTINUOUS
 10
3.450551
 20
5.272566
 30
0.000000
 40
0.126951
 50
114.554854
 51
193.513853
  0
ARC
  8
0
 62
     7
  6
CONTINUOUS
 10
3.748241
 20
5.739956
 30
0.000000
 40
0.651469
 50
229.727393
 51
310.272607
  0
ARC
  8
0
 62
     7
  6
CONTINUOUS
 10
4.721671
 20
5.956560
 30
0.000000
 40
0.902414
 50
232.263549
 51
285.893412
  0
ARC
  8
0
 62
     7
  6
CONTINUOUS
 10
4.588215
 20
6.425265
 30
0.000000
 40
1.389748
 50
285.893412
 51
303.615273
  0
LINE
  8
0
 62
     7
  6
CONTINUOUS
 10
5.357599
 20
5.267919
 30
0.000000
 11
5.357599
 21
5.162637
 31
0.000000
  0
LINE
  8
0
 62
     7
  6
CONTINUOUS
 10
5.357599
 20
5.162637
 30
0.000000
 11
5.531561
 21
5.254067
 31
0.000000
  0
LINE
  8
0
 62
     7
  6
CONTINUOUS
 10
5.531561
 20
5.254067
 30
0.000000
 11
5.531561
 21
5.162637
 31
0.000000
  0
ARC
  8
0
 62
     7
  6
CONTINUOUS
 10
5.400456
 20
5.528708
 30
0.000000
 40
0.388839
 50
289.704582
 51
338.763677
  0
LINE
  8
0
 62
     7
  6
CONTINUOUS
 10
5.762891
 20
5.387864
 30
0.000000
 11
5.803403
 21
5.253462
 31
0.000000
  0
ARC
  8
0
 62
     7
  6
CONTINUOUS
 10
4.968308
 20
5.988565
 30
0.000000
 40
1.112547
 50
318.643748
 51
363.519117
  0
LINE
  8
0
 62
     7
  6
CONTINUOUS
 10
6.078757
 20
6.056855
 30
0.000000
 11
6.294547
 21
6.084716
 31
0.000000
  0
ARC
  8
0
 62
     7
  6
CONTINUOUS
 10
4.992613
 20
5.487765
 30
0.000000
 40
1.432266
 50
24.631990
 51
40.688693
  0
LINE
  8
0
 62
     7
  6
CONTINUOUS
 10
6.078647
 20
6.421529
 30
-0.000000
 11
6.263939
 21
6.487019
 31
0.000000
  0
ARC
  8
0
 62
     7
  6
CONTINUOUS
 10
6.071037
 20
6.382629
 30
-0.000000
 40
0.219336
 50
28.420169
 51
69.639555
  0
ARC
  8
0
 62
     7
  6
CONTINUOUS
 10
5.642924
 20
6.712111
 30
-0.000000
 40
0.519407
 50
346.205346
 51
395.551676
  0
LINE
  8
0
 62
     7
  6
CONTINUOUS
 10
6.065509
 20
7.014113
 30
-0.000000
 11
6.128716
 21
7.050312
 31
0.000000
  0
ARC
  8
0
 62
     7
  6
CONTINUOUS
 10
5.307414
 20
6.615370
 30
-0.000000
 40
0.929361
 50
0.735927
 51
27.904593
  0
ARC
  8
0
 62
     7
  6
CONTINUOUS
 10
6.013891
 20
6.312359
 30
0.000000
 40
0.385791
 50
20.243400
 51
54.722852
  0
ARC
  8
0
 62
     7
  6
CONTINUOUS
 10
6.129637
 20
6.852609
 30
-0.000000
 40
0.475477
 50
279.274871
 51
301.186741
  0
ARC
  8
0
 62
     7
  6
CONTINUOUS
 10
5.601668
 20
5.808269
 30
-0.000000
 40
0.834422
 50
14.886130
 51
43.566457
  0
LINE
  8
0
 62
     7
  6
CONTINUOUS
 10
6.156821
 20
5.990189
 30
0.000000
 11
6.408085
 21
6.022631
 31
0.000000
  0
ARC
  8
0
 62
     7
  6
CONTINUOUS
 10
4.864491
 20
6.016007
 30
0.000000
 40
1.292588
 50
314.570733
 51
358.855495
  0
LINE
  8
0
 62
     7
  6
CONTINUOUS
 10
5.771615
 20
5.095187
 30
0.000000
 11
5.736301
 21
5.207524
 31
0.000000
  0
ARC
  8
0
 62
     7
  6
CONTINUOUS
 10
5.272278
 20
5.707073
 30
0.000000
 40
0.681811
 50
285.584071
 51
312.888473
  0
LINE
  8
0
 62
     7
  6
CONTINUOUS
 10
5.455448
 20
5.050327
 30
0.000000
 11
5.455448
 21
5.128079
 31
0.000000
  0
LINE
  8
0
 62
     7
  6
CONTINUOUS
 10
5.281486
 20
5.036650
 30
0.000000
 11
5.455448
 21
5.128079
 31
0.000000
  0
LINE
  8
0
 62
     7
  6
CONTINUOUS
 10
5.281486
 20
5.036650
 30
0.000000
 11
5.281486
 21
5.133824
 31
0.000000
  0
ARC
  8
0
 62
     7
  6
CONTINUOUS
 10
4.733481
 20
6.065330
 30
0.000000
 40
1.080746
 50
283.658834
 51
300.468278
  0
ARC
  8
0
 62
     7
  6
CONTINUOUS
 10
4.737380
 20
6.049288
 30
-0.000000
 40
1.064238
 50
237.816429
 51
283.658834
  0
ARC
  8
0
 62
     7
  6
CONTINUOUS
 10
3.746721
 20
5.742389
 30
0.000000
 40
0.729541
 50
228.794147
 51
305.515757
  0
ARC
  8
0
 62
     7
  6
CONTINUOUS
 10
3.334240
 20
5.271312
 30
-0.000000
 40
0.103398
 50
168.411941
 51
228.794147
  0
LINE
  8
0
 62
     7
  6
CONTINUOUS
 10
3.232949
 20
5.292082
 30
0.000000
 11
3.142895
 21
5.272797
 31
0.000000
  0
LINE
  8
0
 62
     7
  6
CONTINUOUS
 10
3.142895
 20
5.272797
 30
0.000000
 11
3.189265
 21
5.508931
 31
0.000000
  0
ARC
  8
0
 62
     7
  6
CONTINUOUS
 10
3.080277
 20
6.008797
 30
0.000000
 40
0.511610
 50
230.055787
 51
282.299921
  0
ARC
  8
0
 62
     7
  6
CONTINUOUS
 10
2.027561
 20
6.223051
 30
0.000000
 40
0.944645
 50
320.056740
 51
337.301079
  0
ARC
  8
0
 62
     7
  6
CONTINUOUS
 10
3.428683
 20
6.327907
 30
0.000000
 40
0.707704
 50
182.758757
 51
221.548213
  0
LINE
  8
0
 62
     7
  6
CONTINUOUS
 10
2.721800
 20
6.293845
 30
0.000000
 11
2.689841
 21
6.264923
 31
0.000000
  0
ARC
  8
0
 62
     7
  6
CONTINUOUS
 10
3.698451
 20
6.553404
 30
0.000000
 40
1.049054
 50
156.411640
 51
195.961506
  0
LINE
  8
0
 62
     7
  6
CONTINUOUS
 10
2.820104
 20
6.973196
 30
0.000000
 11
2.737052
 21
6.973196
 31
0.000000
  0
ARC
  8
0
 62
     7
  6
CONTINUOUS
 10
3.650110
 20
6.579624
 30
0.000000
 40
0.918590
 50
154.630624
 51
190.250938
  0
ARC
  8
0
 62
     7
  6
CONTINUOUS
 10
6.606871
 20
7.753683
 30
0.000000
 40
1.098729
 50
200.016333
 51
222.486655
  0
ARC
  8
0
 62
     7
  6
CONTINUOUS
 10
5.595584
 20
6.775620
 30
0.000000
 40
0.309995
 50
7.089366
 51
49.567987
  0
ARC
  8
0
 62
     7
  6
CONTINUOUS
 10
4.785557
 20
6.064756
 30
0.000000
 40
0.458194
 50
132.941170
 51
173.263562
  0
ARC
  8
0
 62
     7
  6
CONTINUOUS
 10
4.569900
 20
5.906895
 30
-0.000000
 40
0.502631
 50
101.067298
 51
162.353338
  0
ARC
  8
0
 62
     7
  6
CONTINUOUS
 10
4.511989
 20
6.066262
 30
0.000000
 40
0.421126
 50
107.212114
 51
180.951909
  0
ARC
  8
0
 62
     7
  6
CONTINUOUS
 10
4.250165
 20
6.069639
 30
0.000000
 40
0.421828
 50
71.018050
 51
118.091206
  0
ARC
  8
0
 62
     7
  6
CONTINUOUS
 10
4.258261
 20
6.331050
 30
0.000000
 40
0.234510
 50
92.639549
 51
151.825703
  0
ARC
  8
0
 62
     7
  6
CONTINUOUS
 10
4.293453
 20
5.567678
 30
0.000000
 40
0.998692
 50
59.565830
 51
92.639549
  0
ARC
  8
0
 62
     7
  6
CONTINUOUS
 10
5.018585
 20
6.801948
 30
0.000000
 40
0.432824
 50
239.565830
 51
275.456337
  0
ARC
  8
0
 62
     7
  6
CONTINUOUS
 10
5.090521
 20
6.368724
 30
0.000000
 40
0.030871
 50
106.334204
 51
175.611860
  0
ARC
  8
0
 62
     7
  6
CONTINUOUS
 10
5.074639
 20
6.422914
 30
-0.000000
 40
0.025599
 50
286.334204
 51
433.665796
  0
ARC
  8
0
 62
     7
  6
CONTINUOUS
 10
4.833973
 20
5.601719
 30
0.000000
 40
0.881333
 50
73.665796
 51
84.633549
  0
ARC
  8
0
 62
     7
  6
CONTINUOUS
 10
4.994288
 20
7.308342
 30
0.000000
 40
0.832803
 50
210.490123
 51
264.633549
  0
ARC
  8
0
 62
     7
  6
CONTINUOUS
 10
4.165162
 20
6.718644
 30
-0.000000
 40
0.200912
 50
56.296062
 51
86.674635
  0
ARC
  8
0
 62
     7
  6
CONTINUOUS
 10
4.370473
 20
6.725761
 30
-0.000000
 40
0.273732
 50
89.789923
 51
135.029653
  0
ARC
  8
0
 62
     7
  6
CONTINUOUS
 10
4.973948
 20
7.924252
 30
0.000000
 40
1.103700
 50
236.916251
 51
255.211936
  0
ARC
  8
0
 62
     7
  6
CONTINUOUS
 10
4.969475
 20
7.316281
 30
-0.000000
 40
0.536377
 50
238.876979
 51
301.123021
  0
ARC
  8
0
 62
     7
  6
CONTINUOUS
 10
5.295848
 20
6.810318
 30
0.000000
 40
0.067848
 50
43.602819
 51
136.397181
  0
ARC
  8
0
 62
     7
  6
CONTINUOUS
 10
5.395282
 20
6.862726
 30
0.000000
 40
0.050616
 50
186.370612
 51
285.771144
  0
ARC
  8
0
 62
     7
  6
CONTINUOUS
 10
5.431002
 20
6.736252
 30
0.000000
 40
0.080806
 50
34.899452
 51
105.771144
  0
ARC
  8
0
 62
     7
  6
CONTINUOUS
 10
5.001374
 20
7.122760
 30
-0.000000
 40
0.601420
 50
318.353463
 51
325.542995
  0
ARC
  8
0
 62
     7
  6
CONTINUOUS
 10
5.190794
 20
6.486322
 30
0.000000
 40
0.351654
 50
339.801119
 51
402.323708
  0
ARC
  8
0
 62
     7
  6
CONTINUOUS
 10
5.317116
 20
6.526684
 30
-0.000000
 40
0.260133
 50
244.827555
 51
321.543588
  0
ARC
  8
0
 62
     7
  6
CONTINUOUS
 10
5.025946
 20
6.434204
 30
0.000000
 40
0.230267
 50
255.075962
 51
321.625836
  0
ARC
  8
0
 62
     7
  6
CONTINUOUS
 10
5.226075
 20
6.200018
 30
0.000000
 40
0.259694
 50
177.420820
 51
215.270109
  0
ARC
  8
0
 62
     7
  6
CONTINUOUS
 10
5.185371
 20
6.427047
 30
0.000000
 40
0.414087
 50
201.771493
 51
245.560591
  0
ARC
  8
0
 62
     7
  6
CONTINUOUS
 10
4.633766
 20
6.078233
 30
0.000000
 40
0.256945
 50
49.446559
 51
101.279270
  0
ARC
  8
0
 62
     7
  6
CONTINUOUS
 10
4.650806
 20
5.992795
 30
0.000000
 40
0.344066
 50
101.279270
 51
158.570150
  0
ARC
  8
0
 62
     7
  6
CONTINUOUS
 10
5.990809
 20
7.182570
 30
0.000000
 40
0.378955
 50
232.038664
 51
256.634577
  0
ARC
  8
0
 62
     7
  6
CONTINUOUS
 10
5.293863
 20
6.655932
 30
-0.000000
 40
0.516786
 50
1.857501
 51
26.162498
  0
ARC
  8
0
 62
     7
  6
CONTINUOUS
 10
5.504380
 20
6.456338
 30
-0.000000
 40
0.374753
 50
35.260919
 51
66.724303
  0
ARC
  8
0
 62
     7
  6
CONTINUOUS
 10
2.806689
 20
5.422370
 30
0.000000
 40
3.161952
 50
18.204483
 51
25.841093
  0
ARC
  8
0
 62
     7
  6
CONTINUOUS
 10
4.536364
 20
5.531181
 30
0.000000
 40
0.375942
 50
358.824257
 51
390.237510
  0
ARC
  8
0
 62
     7
  6
CONTINUOUS
 10
4.659551
 20
5.712974
 30
0.000000
 40
0.315844
 50
323.130102
 51
396.869898
  0
ARC
  8
0
 62
     7
  6
CONTINUOUS
 10
4.462849
 20
5.327729
 30
0.000000
 40
0.729575
 50
9.685292
 51
51.979386
  0
ARC
  8
0
 62
     7
  6
CONTINUOUS
 10
4.171323
 20
5.569789
 30
-0.000000
 40
1.017720
 50
353.267079
 51
366.732921
  0
ARC
  8
0
 62
     7
  6
CONTINUOUS
 10
4.891555
 20
5.450445
 30
-0.000000
 40
0.375942
 50
7.994735
 51
39.407988
  0
ARC
  8
0
 62
     7
  6
CONTINUOUS
 10
4.684796
 20
5.685220
 30
0.000000
 40
0.607123
 50
342.507675
 51
377.492325
  0
ARC
  8
0
 62
     7
  6
CONTINUOUS
 10
4.888238
 20
5.539875
 30
0.000000
 40
0.498551
 50
2.475254
 51
41.114826
  0
ARC
  8
0
 62
     7
  6
CONTINUOUS
 10
5.051679
 20
5.781183
 30
0.000000
 40
0.400362
 50
326.705339
 51
402.403917
  0
ARC
  8
0
 62
     7
  6
CONTINUOUS
 10
5.134383
 20
5.662183
 30
-0.000000
 40
0.443449
 50
359.389660
 51
421.304213
  0
ARC
  8
0
 62
     7
  6
CONTINUOUS
 10
5.182008
 20
5.840680
 30
0.000000
 40
0.436150
 50
335.159989
 51
393.949266
  0
ARC
  8
0
 62
     7
  6
CONTINUOUS
 10
5.352261
 20
5.765194
 30
-0.000000
 40
0.372141
 50
3.978143
 51
59.021283
  0
ARC
  8
0
 62
     7
  6
CONTINUOUS
 10
5.205822
 20
5.904903
 30
0.000000
 40
0.530063
 50
347.592406
 51
393.578659
  0
ARC
  8
0
 62
     7
  6
CONTINUOUS
 10
5.348163
 20
5.773568
 30
0.000000
 40
0.519388
 50
16.967414
 51
54.816703
  0
ARC
  8
0
 62
     7
  6
CONTINUOUS
 10
4.910406
 20
5.959590
 30
0.000000
 40
0.935172
 50
357.888858
 51
399.200077
  0
ARC
  8
0
 62
     7
  6
CONTINUOUS
 10
4.109077
 20
6.321618
 30
0.000000
 40
1.096681
 50
124.405315
 51
165.624701
  0
ARC
  8
0
 62
     7
  6
CONTINUOUS
 10
3.623645
 20
6.319815
 30
-0.000000
 40
0.638707
 50
109.348907
 51
154.588637
  0
ARC
  8
0
 62
     7
  6
CONTINUOUS
 10
3.929770
 20
6.452592
 30
0.000000
 40
0.699156
 50
137.775975
 51
189.562013
  0
ARC
  8
0
 62
     7
  6
CONTINUOUS
 10
4.037155
 20
6.031170
 30
-0.000000
 40
0.853306
 50
101.511529
 51
159.037107
  0
ARC
  8
0
 62
     7
  6
CONTINUOUS
 10
4.259908
 20
6.183118
 30
0.000000
 40
0.789052
 50
119.875703
 51
170.990636
  0
ARC
  8
0
 62
     7
  6
CONTINUOUS
 10
3.766824
 20
6.436527
 30
-0.000000
 40
0.314309
 50
155.599063
 51
204.400937
  0
ARC
  8
0
 62
     7
  6
CONTINUOUS
 10
4.544071
 20
5.806179
 30
0.000000
 40
1.307244
 50
144.442138
 51
178.150014
  0
ARC
  8
0
 62
     7
  6
CONTINUOUS
 10
3.022833
 20
6.240965
 30
0.000000
 40
0.447446
 50
298.670942
 51
348.786173
  0
ARC
  8
0
 62
     7
  6
CONTINUOUS
 10
5.579118
 20
7.740456
 30
0.000000
 40
0.717230
 50
106.890635
 51
146.353863
  0
ARC
  8
0
 62
     7
  6
CONTINUOUS
 10
4.443300
 20
6.940360
 30
0.000000
 40
1.313093
 50
36.677256
 51
65.777276
  0
ARC
  8
0
 62
     7
  6
CONTINUOUS
 10
10.108288
 20
9.833295
 30
-0.000000
 40
5.071055
 50
204.570579
 51
210.600322
  0
ARC
  8
0
 62
     7
  6
CONTINUOUS
 10
2.134786
 20
5.843383
 30
-0.000000
 40
1.362810
 50
353.002930
 51
373.172735
  0
ARC
  8
0
 62
     7
  6
CONTINUOUS
 10
3.092105
 20
6.130591
 30
0.000000
 40
0.601420
 50
311.097692
 51
354.234884
  0
ARC
  8
0
 62
     7
  6
CONTINUOUS
 10
-0.111143
 20
5.941334
 30
-0.000000
 40
3.803809
 50
352.309103
 51
361.941121
  0
ARC
  8
0
 62
     7
  6
CONTINUOUS
 10
3.526160
 20
5.754007
 30
-0.000000
 40
0.347867
 50
292.351332
 51
358.368778
  0
ARC
  8
0
 62
     7
  6
CONTINUOUS
 10
3.061189
 20
5.634668
 30
0.000000
 40
0.820033
 50
336.386773
 51
367.669176
  0
ARC
  8
0
 62
     7
  6
CONTINUOUS
 10
3.549644
 20
5.766858
 30
0.000000
 40
0.530410
 50
299.714958
 51
375.665454
  0
ARC
  8
0
 62
     7
  6
CONTINUOUS
 10
5.011188
 20
6.176729
 30
-0.000000
 40
0.987518
 50
195.665454
 51
236.428081
  0
ARC
  8
0
 62
     7
  6
CONTINUOUS
 10
5.159643
 20
5.761381
 30
-0.000000
 40
0.805227
 50
176.441967
 51
210.397742
  0
ARC
  8
0
 62
     7
  6
CONTINUOUS
 10
5.256257
 20
6.148764
 30
-0.000000
 40
0.961440
 50
200.545011
 51
231.886604
  0
ARC
  8
0
 62
     7
  6
CONTINUOUS
 10
5.666673
 20
5.399399
 30
-0.000000
 40
1.003861
 50
158.641582
 51
180.404496
  0
ARC
  8
0
 62
     7
  6
CONTINUOUS
 10
5.040522
 20
5.733755
 30
0.000000
 40
0.310343
 50
174.220585
 51
218.042668
  0
ARC
  8
0
 62
     7
  6
CONTINUOUS
 10
3.449777
 20
7.870950
 30
0.000000
 40
0.736268
 50
30.291329
 51
65.813965
  0
ARC
  8
0
 62
     7
  6
CONTINUOUS
 10
3.691767
 20
8.409754
 30
0.000000
 40
0.145617
 50
65.813965
 51
114.186035
  0
ARC
  8
0
 62
     7
  6
CONTINUOUS
 10
4.330962
 20
8.070138
 30
0.000000
 40
0.843567
 50
145.939906
 51
182.301014
  0
ARC
  8
0
 62
     7
  6
CONTINUOUS
 10
3.680105
 20
8.250595
 30
0.000000
 40
0.287769
 50
228.140479
 51
253.501246
  0
ARC
  8
0
 62
     7
  6
CONTINUOUS
 10
3.836723
 20
8.044862
 30
0.000000
 40
0.248463
 50
163.591286
 51
196.408714
  0
ARC
  8
0
 62
     7
  6
CONTINUOUS
 10
4.268684
 20
8.515548
 30
0.000000
 40
0.780837
 50
210.857737
 51
232.619065
  0
ARC
  8
0
 62
     7
  6
CONTINUOUS
 10
3.701727
 20
8.412520
 30
0.000000
 40
0.525712
 50
237.919722
 51
280.178586
  0
ARC
  8
0
 62
     7
  6
CONTINUOUS
 10
3.643813
 20
8.037418
 30
0.000000
 40
0.232204
 50
197.632316
 51
267.734589
  0
ARC
  8
0
 62
     7
  6
CONTINUOUS
 10
3.480221
 20
8.215993
 30
0.000000
 40
0.438673
 50
249.390307
 51
290.609693
  0
ARC
  8
0
 62
     7
  6
CONTINUOUS
 10
3.453310
 20
7.804159
 30
0.000000
 40
0.127508
 50
179.444465
 51
246.241442
  0
ARC
  8
0
 62
     7
  6
CONTINUOUS
 10
3.559862
 20
7.257339
 30
0.000000
 40
0.458194
 50
69.838804
 51
110.161196
  0
ARC
  8
0
 62
     7
  6
CONTINUOUS
 10
3.805738
 20
6.814179
 30
0.000000
 40
0.877696
 50
95.751316
 51
141.889799
  0
ARC
  8
0
 62
     7
  6
CONTINUOUS
 10
3.473652
 20
6.837639
 30
-0.000000
 40
0.630153
 50
90.340470
 51
124.674956
  0
ARC
  8
0
 62
     7
  6
CONTINUOUS
 10
4.016928
 20
6.654137
 30
0.000000
 40
0.980433
 50
123.913325
 51
157.621201
  0
ARC
  8
0
 62
     7
  6
CONTINUOUS
 10
4.475732
 20
9.041153
 30
0.000000
 40
1.140549
 50
309.092475
 51
321.811796
  0
ARC
  8
0
 62
     7
  6
CONTINUOUS
 10
4.833293
 20
8.385947
 30
0.000000
 40
0.541200
 50
323.869602
 51
354.705980
  0
ARC
  8
0
 62
     7
  6
CONTINUOUS
 10
5.169197
 20
8.359849
 30
0.000000
 40
0.309995
 50
289.056094
 51
331.534716
  0
ARC
  8
0
 62
     7
  6
CONTINUOUS
 10
5.092867
 20
8.127931
 30
0.000000
 40
0.358859
 50
329.934282
 51
373.564529
  0
ARC
  8
0
 62
     7
  6
CONTINUOUS
 10
6.692026
 20
8.685752
 30
0.000000
 40
1.484761
 50
209.787535
 51
229.109214
  0
ARC
  8
0
 62
     7
  6
CONTINUOUS
 10
5.319300
 20
7.551537
 30
-0.000000
 40
0.400947
 50
1.686107
 51
44.823298
  0
ARC
  8
0
 62
     7
  6
CONTINUOUS
 10
5.541542
 20
7.987276
 30
0.000000
 40
0.165233
 50
292.091877
 51
350.575373
  0
ARC
  8
0
 62
     7
  6
CONTINUOUS
 10
5.616811
 20
8.272949
 30
0.000000
 40
0.324804
 50
254.328888
 51
285.671112
  0
ARC
  8
0
 62
     7
  6
CONTINUOUS
 10
5.570535
 20
7.972924
 30
0.000000
 40
0.043362
 50
109.817316
 51
197.038017
  0
ARC
  8
0
 62
     7
  6
CONTINUOUS
 10
4.856451
 20
8.141161
 30
0.000000
 40
0.710900
 50
349.672817
 51
392.525309
  0
ARC
  8
0
 62
     7
  6
CONTINUOUS
 10
5.382152
 20
8.424943
 30
-0.000000
 40
0.122977
 50
53.182009
 51
126.817991
  0
ARC
  8
0
 62
     7
  6
CONTINUOUS
 10
5.281730
 20
7.003373
 30
-0.000000
 40
0.085270
 50
259.877851
 51
348.676577
  0
ARC
  8
0
 62
     7
  6
CONTINUOUS
 10
5.306401
 20
6.916976
 30
0.000000
 40
0.091244
 50
4.523528
 51
49.763258
  0
ARC
  8
0
 62
     7
  6
CONTINUOUS
 10
5.418068
 20
7.107451
 30
-0.000000
 40
0.184444
 50
263.553716
 51
357.895889
  0
ARC
  8
0
 62
     7
  6
CONTINUOUS
 10
5.001374
 20
7.122760
 30
-0.000000
 40
0.601420
 50
357.895889
 51
361.490655
  0
ARC
  8
0
 62
     7
  6
CONTINUOUS
 10
5.307005
 20
7.130714
 30
0.000000
 40
0.295685
 50
1.490655
 51
84.800580
  0
ARC
  8
0
 62
     7
  6
CONTINUOUS
 10
5.335717
 20
7.446239
 30
-0.000000
 40
0.021143
 50
95.199420
 51
264.800580
  0
ARC
  8
0
 62
     7
  6
CONTINUOUS
 10
5.305365
 20
7.779787
 30
0.000000
 40
0.313783
 50
275.199420
 51
289.332850
  0
ARC
  8
0
 62
     7
  6
CONTINUOUS
 10
5.405480
 20
7.494429
 30
0.000000
 40
0.011373
 50
289.332850
 51
365.548705
  0
ARC
  8
0
 62
     7
  6
CONTINUOUS
 10
5.370848
 20
7.491065
 30
-0.000000
 40
0.046167
 50
5.548705
 51
91.883130
  0
ARC
  8
0
 62
     7
  6
CONTINUOUS
 10
4.969053
 20
7.385268
 30
0.000000
 40
0.428144
 50
20.785962
 51
41.563678
  0
ARC
  8
0
 62
     7
  6
CONTINUOUS
 10
5.247413
 20
7.587441
 30
0.000000
 40
0.092018
 50
62.852468
 51
149.557444
  0
ARC
  8
0
 62
     7
  6
CONTINUOUS
 10
5.108264
 20
7.669218
 30
0.000000
 40
0.069382
 50
268.787790
 51
329.557444
  0
ARC
  8
0
 62
     7
  6
CONTINUOUS
 10
4.832196
 20
7.823967
 30
-0.000000
 40
0.354447
 50
320.780436
 51
343.622809
  0
ARC
  8
0
 62
     7
  6
CONTINUOUS
 10
5.157370
 20
7.728403
 30
0.000000
 40
0.015521
 50
343.622809
 51
473.108091
  0
ARC
  8
0
 62
     7
  6
CONTINUOUS
 10
5.145015
 20
7.661767
 30
0.000000
 40
0.081154
 50
85.573593
 51
153.984509
  0
ARC
  8
0
 62
     7
  6
CONTINUOUS
 10
5.194912
 20
7.739475
 30
0.000000
 40
0.129847
 50
161.075356
 51
198.924644
  0
ARC
  8
0
 62
     7
  6
CONTINUOUS
 10
4.244248
 20
8.394082
 30
0.000000
 40
1.029787
 50
323.503204
 51
330.145649
  0
ARC
  8
0
 62
     7
  6
CONTINUOUS
 10
5.116438
 20
7.893475
 30
-0.000000
 40
0.024142
 50
330.145649
 51
438.928474
  0
ARC
  8
0
 62
     7
  6
CONTINUOUS
 10
5.257771
 20
7.646126
 30
0.000000
 40
0.303561
 50
116.763616
 51
151.748265
  0
ARC
  8
0
 62
     7
  6
CONTINUOUS
 10
5.005449
 20
7.832829
 30
-0.000000
 40
0.045580
 50
162.955268
 51
250.682896
  0
ARC
  8
0
 62
     7
  6
CONTINUOUS
 10
4.954852
 20
7.833029
 30
0.000000
 40
0.014915
 50
61.927513
 51
118.072487
  0
ARC
  8
0
 62
     7
  6
CONTINUOUS
 10
5.642691
 20
7.705814
 30
0.000000
 40
0.708895
 50
168.578814
 51
191.421186
  0
ARC
  8
0
 62
     7
  6
CONTINUOUS
 10
5.630750
 20
8.334543
 30
0.000000
 40
1.028541
 50
228.396889
 51
251.623797
  0
ARC
  8
0
 62
     7
  6
CONTINUOUS
 10
5.321531
 20
6.949817
 30
-0.000000
 40
0.408909
 50
92.106909
 51
122.965741
  0
ARC
  8
0
 62
     7
  6
CONTINUOUS
 10
5.263959
 20
7.160585
 30
-0.000000
 40
0.211440
 50
141.263873
 51
200.989542
  0
ARC
  8
0
 62
     7
  6
CONTINUOUS
 10
5.313166
 20
7.179464
 30
0.000000
 40
0.264145
 50
200.989542
 51
259.877851
  0
ARC
  8
0
 62
     7
  6
CONTINUOUS
 10
4.545160
 20
7.712579
 30
-0.000000
 40
0.306337
 50
237.046042
 51
263.536445
  0
ARC
  8
0
 62
     7
  6
CONTINUOUS
 10
4.281343
 20
7.305621
 30
0.000000
 40
0.178652
 50
57.046042
 51
91.319780
  0
ARC
  8
0
 62
     7
  6
CONTINUOUS
 10
4.277228
 20
7.501772
 30
0.000000
 40
0.017547
 50
90.000000
 51
270.000000
  0
ARC
  8
0
 62
     7
  6
CONTINUOUS
 10
4.136319
 20
7.939747
 30
0.000000
 40
0.443412
 50
288.528908
 51
313.206404
  0
ARC
  8
0
 62
     7
  6
CONTINUOUS
 10
4.628247
 20
7.416014
 30
-0.000000
 40
0.275120
 50
103.645410
 51
133.206404
  0
ARC
  8
0
 62
     7
  6
CONTINUOUS
 10
4.559935
 20
7.697406
 30
0.000000
 40
0.014445
 50
283.645410
 51
436.354590
  0
ARC
  8
0
 62
     7
  6
CONTINUOUS
 10
4.425952
 20
7.550725
 30
0.000000
 40
0.211440
 50
49.474341
 51
109.200010
  0
ARC
  8
0
 62
     7
  6
CONTINUOUS
 10
4.347843
 20
7.462225
 30
0.000000
 40
0.288306
 50
88.296052
 51
146.569675
  0
ARC
  8
0
 62
     7
  6
CONTINUOUS
 10
4.012482
 20
7.823726
 30
0.000000
 40
0.223723
 50
244.942385
 51
295.057615
  0
ARC
  8
0
 62
     7
  6
CONTINUOUS
 10
3.974040
 20
7.637154
 30
0.000000
 40
0.058566
 50
122.322804
 51
195.950424
  0
ARC
  8
0
 62
     7
  6
CONTINUOUS
 10
3.938127
 20
8.012692
 30
0.000000
 40
0.326079
 50
270.807986
 51
319.088235
  0
ARC
  8
0
 62
     7
  6
CONTINUOUS
 10
4.422424
 20
7.430565
 30
-0.000000
 40
0.438673
 50
81.617934
 51
122.837320
  0
ARC
  8
0
 62
     7
  6
CONTINUOUS
 10
4.152486
 20
7.480548
 30
-0.000000
 40
0.508860
 50
48.993599
 51
68.048165
  0
ARC
  8
0
 62
     7
  6
CONTINUOUS
 10
4.422209
 20
7.668881
 30
0.000000
 40
0.294564
 50
34.223973
 51
105.657172
  0
ARC
  8
0
 62
     7
  6
CONTINUOUS
 10
4.492319
 20
7.847531
 30
0.000000
 40
0.173934
 50
355.720617
 51
421.738062
  0
ARC
  8
0
 62
     7
  6
CONTINUOUS
 10
4.606781
 20
8.004566
 30
-0.000000
 40
0.032332
 50
80.643760
 51
186.813700
  0
ARC
  8
0
 62
     7
  6
CONTINUOUS
 10
4.325349
 20
7.592365
 30
0.000000
 40
0.528600
 50
357.430302
 51
417.155971
  0
ARC
  8
0
 62
     7
  6
CONTINUOUS
 10
4.800338
 20
7.571048
 30
0.000000
 40
0.053133
 50
222.190837
 51
357.430302
  0
ARC
  8
0
 62
     7
  6
CONTINUOUS
 10
4.539383
 20
7.661583
 30
0.000000
 40
0.255015
 50
263.536445
 51
330.333422
  0
ARC
  8
0
 62
     7
  6
CONTINUOUS
 10
2.655940
 20
12.066761
 30
0.000000
 40
4.426206
 50
300.363835
 51
306.817991
  0
ARC
  8
0
 62
     7
  6
CONTINUOUS
 10
4.383189
 20
10.874508
 30
-0.000000
 40
2.675903
 50
269.247814
 51
280.990508
  0
ARC
  8
0
 62
     7
  6
CONTINUOUS
 10
4.745841
 20
8.929603
 30
0.000000
 40
0.832016
 50
215.603821
 51
241.439086
  0
CIRCLE
  8
0
 62
     7
  6
CONTINUOUS
 10
4.406152
 20
9.641948
 30
0.000000
 40
0.187500
  0
CIRCLE
  8
0
 62
     7
  6
CONTINUOUS
 10
11.406152
 20
9.641948
 30
0.000000
 40
0.187500
  0
LINE
  8
0
 62
     7
  6
CONTINUOUS
 10
7.234832
 20
8.528407
 30
-0.000000
 11
6.784382
 21
8.528407
 31
-0.000000
  0
LINE
  8
0
 62
     7
  6
CONTINUOUS
 10
7.234832
 20
8.528407
 30
-0.000000
 11
7.234832
 21
6.050932
 31
-0.000000
  0
LINE
  8
0
 62
     7
  6
CONTINUOUS
 10
7.234832
 20
6.050932
 30
-0.000000
 11
7.431182
 21
6.050932
 31
-0.000000
  0
LINE
  8
0
 62
     7
  6
CONTINUOUS
 10
7.431182
 20
6.050932
 30
-0.000000
 11
7.431182
 21
8.528407
 31
-0.000000
  0
LINE
  8
0
 62
     7
  6
CONTINUOUS
 10
7.431182
 20
8.528407
 30
-0.000000
 11
7.864307
 21
8.528407
 31
-0.000000
  0
LINE
  8
0
 62
     7
  6
CONTINUOUS
 10
7.864307
 20
8.528407
 30
-0.000000
 11
7.864307
 21
5.825707
 31
-0.000000
  0
ARC
  8
0
 62
     7
  6
CONTINUOUS
 10
7.324344
 20
6.451081
 30
-0.000000
 40
0.826227
 50
229.191897
 51
310.808103
  0
LINE
  8
0
 62
     7
  6
CONTINUOUS
 10
6.784382
 20
8.528407
 30
-0.000000
 11
6.784382
 21
5.825707
 31
-0.000000
  0
ARC
  8
0
 62
     7
  6
CONTINUOUS
 10
8.711950
 20
7.734813
 30
-0.000000
 40
0.818011
 50
54.030440
 51
127.324947
  0
LINE
  8
0
 62
     7
  6
CONTINUOUS
 10
9.192413
 20
7.530603
 30
-0.000000
 11
9.192413
 21
8.396853
 31
-0.000000
  0
LINE
  8
0
 62
     7
  6
CONTINUOUS
 10
9.192413
 20
7.530603
 30
-0.000000
 11
8.793938
 21
7.530603
 31
-0.000000
  0
LINE
  8
0
 62
     7
  6
CONTINUOUS
 10
8.793938
 20
7.530603
 30
-0.000000
 11
8.793938
 21
8.188953
 31
-0.000000
  0
LINE
  8
0
 62
     7
  6
CONTINUOUS
 10
8.793938
 20
8.188953
 30
-0.000000
 11
8.638013
 21
8.188953
 31
-0.000000
  0
LINE
  8
0
 62
     7
  6
CONTINUOUS
 10
8.638013
 20
8.188953
 30
-0.000000
 11
8.638013
 21
5.977128
 31
-0.000000
  0
LINE
  8
0
 62
     7
  6
CONTINUOUS
 10
8.638013
 20
5.977128
 30
-0.000000
 11
8.793938
 21
5.977128
 31
-0.000000
  0
LINE
  8
0
 62
     7
  6
CONTINUOUS
 10
8.793938
 20
5.977128
 30
-0.000000
 11
8.793938
 21
6.664353
 31
-0.000000
  0
LINE
  8
0
 62
     7
  6
CONTINUOUS
 10
8.793938
 20
6.664353
 30
-0.000000
 11
9.180863
 21
6.664353
 31
-0.000000
  0
LINE
  8
0
 62
     7
  6
CONTINUOUS
 10
9.180863
 20
6.664353
 30
-0.000000
 11
9.180863
 21
5.792328
 31
-0.000000
  0
ARC
  8
0
 62
     7
  6
CONTINUOUS
 10
8.698412
 20
6.403497
 30
-0.000000
 40
0.778644
 50
231.712778
 51
308.287222
  0
LINE
  8
0
 62
     7
  6
CONTINUOUS
 10
8.215961
 20
5.792328
 30
-0.000000
 11
8.215961
 21
8.385303
 31
-0.000000
  0
LINE
  8
0
 62
     7
  6
CONTINUOUS
 10
9.448666
 20
6.972608
 30
-0.000000
 11
9.851825
 21
6.972608
 31
-0.000000
  0
LINE
  8
0
 62
     7
  6
CONTINUOUS
 10
9.851825
 20
6.972608
 30
-0.000000
 11
9.851825
 21
7.781108
 31
-0.000000
  0
LINE
  8
0
 62
     7
  6
CONTINUOUS
 10
9.851825
 20
7.781108
 30
-0.000000
 11
10.025075
 21
7.781108
 31
-0.000000
  0
LINE
  8
0
 62
     7
  6
CONTINUOUS
 10
10.025075
 20
7.781108
 30
-0.000000
 11
10.025075
 21
6.972608
 31
-0.000000
  0
LINE
  8
0
 62
     7
  6
CONTINUOUS
 10
10.025075
 20
6.972608
 30
-0.000000
 11
10.429322
 21
6.972608
 31
-0.000000
  0
LINE
  8
0
 62
     7
  6
CONTINUOUS
 10
10.429322
 20
7.949999
 30
-0.000000
 11
10.429322
 21
6.972608
 31
-0.000000
  0
ARC
  8
0
 62
     7
  6
CONTINUOUS
 10
9.938994
 20
7.257009
 30
-0.000000
 40
0.848915
 50
54.718523
 51
125.281477
  0
LINE
  8
0
 62
     7
  6
CONTINUOUS
 10
9.448666
 20
7.949999
 30
-0.000000
 11
9.448666
 21
6.972608
 31
-0.000000
  0
ARC
  8
0
 62
     7
  6
CONTINUOUS
 10
9.938994
 20
6.485318
 30
-0.000000
 40
0.848915
 50
234.718523
 51
305.281477
  0
LINE
  8
0
 62
     7
  6
CONTINUOUS
 10
10.429322
 20
6.741608
 30
-0.000000
 11
10.429322
 21
5.792328
 31
-0.000000
  0
LINE
  8
0
 62
     7
  6
CONTINUOUS
 10
10.025075
 20
6.741608
 30
-0.000000
 11
10.429322
 21
6.741608
 31
-0.000000
  0
LINE
  8
0
 62
     7
  6
CONTINUOUS
 10
10.025075
 20
6.741608
 30
-0.000000
 11
10.025075
 21
5.933108
 31
-0.000000
  0
LINE
  8
0
 62
     7
  6
CONTINUOUS
 10
10.025075
 20
5.933108
 30
-0.000000
 11
9.851825
 21
5.933108
 31
-0.000000
  0
LINE
  8
0
 62
     7
  6
CONTINUOUS
 10
9.851825
 20
5.933108
 30
-0.000000
 11
9.851825
 21
6.741608
 31
-0.000000
  0
LINE
  8
0
 62
     7
  6
CONTINUOUS
 10
9.448666
 20
6.741608
 30
-0.000000
 11
9.851825
 21
6.741608
 31
-0.000000
  0
LINE
  8
0
 62
     7
  6
CONTINUOUS
 10
9.448666
 20
6.741608
 30
-0.000000
 11
9.448666
 21
5.792328
 31
-0.000000
  0
LINE
  8
0
 62
     7
  6
CONTINUOUS
 10
10.723224
 20
5.665718
 30
-0.000000
 11
11.081274
 21
5.665718
 31
-0.000000
  0
LINE
  8
0
 62
     7
  6
CONTINUOUS
 10
11.081274
 20
5.665718
 30
-0.000000
 11
11.081274
 21
6.878468
 31
-0.000000
  0
LINE
  8
0
 62
     7
  6
CONTINUOUS
 10
11.081274
 20
6.878468
 30
-0.000000
 11
11.390744
 21
5.665718
 31
-0.000000
  0
LINE
  8
0
 62
     7
  6
CONTINUOUS
 10
11.390744
 20
5.665718
 30
-0.000000
 11
11.783444
 21
5.665718
 31
-0.000000
  0
LINE
  8
0
 62
     7
  6
CONTINUOUS
 10
11.783444
 20
5.665718
 30
-0.000000
 11
11.783444
 21
8.045018
 31
-0.000000
  0
LINE
  8
0
 62
     7
  6
CONTINUOUS
 10
11.783444
 20
8.045018
 30
-0.000000
 11
11.390744
 21
8.045018
 31
-0.000000
  0
LINE
  8
0
 62
     7
  6
CONTINUOUS
 10
11.390744
 20
8.045018
 30
-0.000000
 11
11.390744
 21
6.878468
 31
-0.000000
  0
LINE
  8
0
 62
     7
  6
CONTINUOUS
 10
11.390744
 20
6.878468
 30
-0.000000
 11
11.104424
 21
8.045018
 31
-0.000000
  0
LINE
  8
0
 62
     7
  6
CONTINUOUS
 10
11.104424
 20
8.045018
 30
-0.000000
 11
10.723224
 21
8.045018
 31
-0.000000
  0
LINE
  8
0
 62
     7
  6
CONTINUOUS
 10
10.723224
 20
8.045018
 30
-0.000000
 11
10.723224
 21
5.665718
 31
-0.000000
  0
LINE
  8
0
 62
     7
  6
CONTINUOUS
 10
12.092861
 20
5.665718
 30
-0.000000
 11
12.450911
 21
5.665718
 31
-0.000000
  0
LINE
  8
0
 62
     7
  6
CONTINUOUS
 10
12.450911
 20
5.665718
 30
-0.000000
 11
12.450911
 21
6.878468
 31
-0.000000
  0
LINE
  8
0
 62
     7
  6
CONTINUOUS
 10
12.450911
 20
6.878468
 30
-0.000000
 11
12.760381
 21
5.665718
 31
-0.000000
  0
LINE
  8
0
 62
     7
  6
CONTINUOUS
 10
12.760381
 20
5.665718
 30
-0.000000
 11
13.153081
 21
5.665718
 31
-0.000000
  0
LINE
  8
0
 62
     7
  6
CONTINUOUS
 10
13.153081
 20
5.665718
 30
-0.000000
 11
13.153081
 21
8.045018
 31
-0.000000
  0
LINE
  8
0
 62
     7
  6
CONTINUOUS
 10
13.153081
 20
8.045018
 30
-0.000000
 11
12.760381
 21
8.045018
 31
-0.000000
  0
LINE
  8
0
 62
     7
  6
CONTINUOUS
 10
12.760381
 20
8.045018
 30
-0.000000
 11
12.760381
 21
6.878468
 31
-0.000000
  0
LINE
  8
0
 62
     7
  6
CONTINUOUS
 10
12.760381
 20
6.878468
 30
-0.000000
 11
12.474061
 21
8.045018
 31
-0.000000
  0
ARC
  8
0
 62
     7
  6
CONTINUOUS
 10
13.065389
 20
4.614195
 30
0.000000
 40
0.614195
 50
270.000000
 51
360.000000
  0
LINE
  8
0
 62
     7
  6
CONTINUOUS
 10
13.679583
 20
9.527753
 30
0.000000
 11
13.679583
 21
4.614195
 31
0.000000
  0
ARC
  8
0
 62
     7
  6
CONTINUOUS
 10
13.065389
 20
9.527753
 30
0.000000
 40
0.614195
 50
0.000000
 51
90.000000
  0
LINE
  8
0
 62
     7
  6
CONTINUOUS
 10
2.746916
 20
10.141948
 30
0.000000
 11
13.065389
 21
10.141948
 31
0.000000
  0
ARC
  8
0
 62
     7
  6
CONTINUOUS
 10
2.746916
 20
9.527753
 30
0.000000
 40
0.614195
 50
90.000000
 51
180.000000
  0
LINE
  8
0
 62
     7
  6
CONTINUOUS
 10
2.132721
 20
4.614195
 30
0.000000
 11
2.132721
 21
9.527753
 31
0.000000
  0
ARC
  8
0
 62
     7
  6
CONTINUOUS
 10
2.746916
 20
4.614195
 30
0.000000
 40
0.614195
 50
180.000000
 51
270.000000
  0
LINE
  8
0
 62
     7
  6
CONTINUOUS
 10
2.746916
 20
4.000000
 30
0.000000
 11
13.065389
 21
4.000000
 31
0.000000
  0
LINE
  8
0
 62
     7
  6
CONTINUOUS
 10
12.474061
 20
8.045018
 30
-0.000000
 11
12.092861
 21
8.045018
 31
-0.000000
  0
LINE
  8
0
 62
     7
  6
CONTINUOUS
 10
12.092861
 20
8.045018
 30
-0.000000
 11
12.092861
 21
5.665718
 31
-0.000000
  0
INSERT
  8
Default
 62
     7
  2
Object_0
 10
-10.160000
 20
-10.160000
 30
0.000000
  0
ENDSEC
  0
EOF
