  0
SECTION
  2
HEADER
  9
$ACADVER
  1
AC1015
  9
$ACADMAINTVER
 70
    20
  9
$DWGCODEPAGE
  3
ANSI_1252
  9
$INSBASE
 10
0.0
 20
0.0
 30
0.0
  9
$EXTMIN
 10
-98.73261871909605
 20
-77.52965413692475
 30
0.0
  9
$EXTMAX
 10
238.9703526226381
 20
47.92677882152625
 30
0.0
  9
$LIMMIN
 10
0.0
 20
0.0
  9
$LIMMAX
 10
12.0
 20
9.0
  9
$ORTHOMODE
 70
     0
  9
$REGENMODE
 70
     1
  9
$FILLMODE
 70
     1
  9
$QTEXTMODE
 70
     0
  9
$MIRRTEXT
 70
     1
  9
$LTSCALE
 40
1.0
  9
$ATTMODE
 70
     1
  9
$TEXTSIZE
 40
0.2
  9
$TRACEWID
 40
0.05
  9
$TEXTSTYLE
  7
Standard
  9
$CLAYER
  8
0
  9
$CELTYPE
  6
ByLayer
  9
$CECOLOR
 62
   256
  9
$CELTSCALE
 40
1.0
  9
$DISPSILH
 70
     0
  9
$DIMSCALE
 40
1.0
  9
$DIMASZ
 40
0.18
  9
$DIMEXO
 40
0.0625
  9
$DIMDLI
 40
0.38
  9
$DIMRND
 40
0.0
  9
$DIMDLE
 40
0.0
  9
$DIMEXE
 40
0.18
  9
$DIMTP
 40
0.0
  9
$DIMTM
 40
0.0
  9
$DIMTXT
 40
0.18
  9
$DIMCEN
 40
0.09
  9
$DIMTSZ
 40
0.0
  9
$DIMTOL
 70
     0
  9
$DIMLIM
 70
     0
  9
$DIMTIH
 70
     1
  9
$DIMTOH
 70
     1
  9
$DIMSE1
 70
     0
  9
$DIMSE2
 70
     0
  9
$DIMTAD
 70
     0
  9
$DIMZIN
 70
     0
  9
$DIMBLK
  1

  9
$DIMASO
 70
     1
  9
$DIMSHO
 70
     1
  9
$DIMPOST
  1

  9
$DIMAPOST
  1

  9
$DIMALT
 70
     0
  9
$DIMALTD
 70
     2
  9
$DIMALTF
 40
25.4
  9
$DIMLFAC
 40
1.0
  9
$DIMTOFL
 70
     0
  9
$DIMTVP
 40
0.0
  9
$DIMTIX
 70
     0
  9
$DIMSOXD
 70
     0
  9
$DIMSAH
 70
     0
  9
$DIMBLK1
  1

  9
$DIMBLK2
  1

  9
$DIMSTYLE
  2
Standard
  9
$DIMCLRD
 70
     0
  9
$DIMCLRE
 70
     0
  9
$DIMCLRT
 70
     0
  9
$DIMTFAC
 40
1.0
  9
$DIMGAP
 40
0.09
  9
$DIMJUST
 70
     0
  9
$DIMSD1
 70
     0
  9
$DIMSD2
 70
     0
  9
$DIMTOLJ
 70
     1
  9
$DIMTZIN
 70
     0
  9
$DIMALTZ
 70
     0
  9
$DIMALTTZ
 70
     0
  9
$DIMUPT
 70
     0
  9
$DIMDEC
 70
     4
  9
$DIMTDEC
 70
     4
  9
$DIMALTU
 70
     2
  9
$DIMALTTD
 70
     2
  9
$DIMTXSTY
  7
Standard
  9
$DIMAUNIT
 70
     0
  9
$DIMADEC
 70
     0
  9
$DIMALTRND
 40
0.0
  9
$DIMAZIN
 70
     0
  9
$DIMDSEP
 70
    46
  9
$DIMATFIT
 70
     3
  9
$DIMFRAC
 70
     0
  9
$DIMLDRBLK
  1

  9
$DIMLUNIT
 70
     2
  9
$DIMLWD
 70
    -2
  9
$DIMLWE
 70
    -2
  9
$DIMTMOVE
 70
     0
  9
$LUNITS
 70
     2
  9
$LUPREC
 70
     4
  9
$SKETCHINC
 40
0.1
  9
$FILLETRAD
 40
0.5
  9
$AUNITS
 70
     0
  9
$AUPREC
 70
     0
  9
$MENU
  1
.
  9
$ELEVATION
 40
0.0
  9
$PELEVATION
 40
0.0
  9
$THICKNESS
 40
0.0
  9
$LIMCHECK
 70
     0
  9
$CHAMFERA
 40
0.5
  9
$CHAMFERB
 40
0.5
  9
$CHAMFERC
 40
1.0
  9
$CHAMFERD
 40
0.0
  9
$SKPOLY
 70
     0
  9
$TDCREATE
 40
2454577.564468310
  9
$TDUCREATE
 40
2454577.481134977
  9
$TDUPDATE
 40
2454577.483586331
  9
$TDUUPDATE
 40
2454577.400252998
  9
$TDINDWG
 40
0.0011773148
  9
$TDUSRTIMER
 40
0.0011773148
  9
$USRTIMER
 70
     1
  9
$ANGBASE
 50
0.0
  9
$ANGDIR
 70
     0
  9
$PDMODE
 70
     0
  9
$PDSIZE
 40
0.0
  9
$PLINEWID
 40
0.0
  9
$SPLFRAME
 70
     0
  9
$SPLINETYPE
 70
     6
  9
$SPLINESEGS
 70
     8
  9
$HANDSEED
  5
69
  9
$SURFTAB1
 70
     6
  9
$SURFTAB2
 70
     6
  9
$SURFTYPE
 70
     6
  9
$SURFU
 70
     6
  9
$SURFV
 70
     6
  9
$UCSBASE
  2

  9
$UCSNAME
  2

  9
$UCSORG
 10
0.0
 20
0.0
 30
0.0
  9
$UCSXDIR
 10
1.0
 20
0.0
 30
0.0
  9
$UCSYDIR
 10
0.0
 20
1.0
 30
0.0
  9
$UCSORTHOREF
  2

  9
$UCSORTHOVIEW
 70
     0
  9
$UCSORGTOP
 10
0.0
 20
0.0
 30
0.0
  9
$UCSORGBOTTOM
 10
0.0
 20
0.0
 30
0.0
  9
$UCSORGLEFT
 10
0.0
 20
0.0
 30
0.0
  9
$UCSORGRIGHT
 10
0.0
 20
0.0
 30
0.0
  9
$UCSORGFRONT
 10
0.0
 20
0.0
 30
0.0
  9
$UCSORGBACK
 10
0.0
 20
0.0
 30
0.0
  9
$PUCSBASE
  2

  9
$PUCSNAME
  2

  9
$PUCSORG
 10
0.0
 20
0.0
 30
0.0
  9
$PUCSXDIR
 10
1.0
 20
0.0
 30
0.0
  9
$PUCSYDIR
 10
0.0
 20
1.0
 30
0.0
  9
$PUCSORTHOREF
  2

  9
$PUCSORTHOVIEW
 70
     0
  9
$PUCSORGTOP
 10
0.0
 20
0.0
 30
0.0
  9
$PUCSORGBOTTOM
 10
0.0
 20
0.0
 30
0.0
  9
$PUCSORGLEFT
 10
0.0
 20
0.0
 30
0.0
  9
$PUCSORGRIGHT
 10
0.0
 20
0.0
 30
0.0
  9
$PUCSORGFRONT
 10
0.0
 20
0.0
 30
0.0
  9
$PUCSORGBACK
 10
0.0
 20
0.0
 30
0.0
  9
$USERI1
 70
     0
  9
$USERI2
 70
     0
  9
$USERI3
 70
     0
  9
$USERI4
 70
     0
  9
$USERI5
 70
     0
  9
$USERR1
 40
0.0
  9
$USERR2
 40
0.0
  9
$USERR3
 40
0.0
  9
$USERR4
 40
0.0
  9
$USERR5
 40
0.0
  9
$WORLDVIEW
 70
     1
  9
$SHADEDGE
 70
     3
  9
$SHADEDIF
 70
    70
  9
$TILEMODE
 70
     1
  9
$MAXACTVP
 70
    64
  9
$PINSBASE
 10
0.0
 20
0.0
 30
0.0
  9
$PLIMCHECK
 70
     0
  9
$PEXTMIN
 10
1.000000000000000E+20
 20
1.000000000000000E+20
 30
1.000000000000000E+20
  9
$PEXTMAX
 10
-1.000000000000000E+20
 20
-1.000000000000000E+20
 30
-1.000000000000000E+20
  9
$PLIMMIN
 10
0.0
 20
0.0
  9
$PLIMMAX
 10
12.0
 20
9.0
  9
$UNITMODE
 70
     0
  9
$VISRETAIN
 70
     1
  9
$PLINEGEN
 70
     0
  9
$PSLTSCALE
 70
     1
  9
$TREEDEPTH
 70
  3020
  9
$CMLSTYLE
  2
Standard
  9
$CMLJUST
 70
     0
  9
$CMLSCALE
 40
1.0
  9
$PROXYGRAPHICS
 70
     1
  9
$MEASUREMENT
 70
     0
  9
$CELWEIGHT
370
    -1
  9
$ENDCAPS
280
     0
  9
$JOINSTYLE
280
     0
  9
$LWDISPLAY
290
     0
  9
$INSUNITS
 70
     5
  9
$HYPERLINKBASE
  1

  9
$STYLESHEET
  1

  9
$XEDIT
290
     1
  9
$CEPSNTYPE
380
     0
  9
$PSTYLEMODE
290
     0
  9
$FINGERPRINTGUID
  2
{FAEB1C30-E019-11D5-929B-00C0DF256EC4}
  9
$VERSIONGUID
  2
{2FDA18FD-D09E-4BD9-94EA-0039E2DFD066}
  9
$EXTNAMES
290
     1
  9
$PSVPSCALE
 40
0.0
  9
$OLESTARTUP
290
     0
  0
ENDSEC
  0
SECTION
  2
CLASSES
  0
CLASS
  1
ACDBDICTIONARYWDFLT
  2
AcDbDictionaryWithDefault
  3
ObjectDBX Classes
 90
        0
280
     0
281
     0
  0
CLASS
  1
TABLESTYLE
  2
AcDbTableStyle
  3
ObjectDBX Classes
 90
     2047
280
     0
281
     0
  0
CLASS
  1
DICTIONARYVAR
  2
AcDbDictionaryVar
  3
ObjectDBX Classes
 90
        0
280
     0
281
     0
  0
CLASS
  1
ACDBPLACEHOLDER
  2
AcDbPlaceHolder
  3
ObjectDBX Classes
 90
        0
280
     0
281
     0
  0
CLASS
  1
LAYOUT
  2
AcDbLayout
  3
ObjectDBX Classes
 90
        0
280
     0
281
     0
  0
ENDSEC
  0
SECTION
  2
TABLES
  0
TABLE
  2
VPORT
  5
8
330
0
100
AcDbSymbolTable
 70
     2
  0
VPORT
  5
61
330
8
100
AcDbSymbolTableRecord
100
AcDbViewportTableRecord
  2
*Active
 70
     0
 10
0.0
 20
0.0
 11
1.0
 21
1.0
 12
21.08891897147528
 22
-1.439768076050498
 13
0.0
 23
0.0
 14
0.5
 24
0.5
 15
0.5
 25
0.5
 16
0.0
 26
0.0
 36
1.0
 17
0.0
 27
0.0
 37
0.0
 40
73.57930835628625
 41
1.916467780429593
 42
50.0
 43
0.0
 44
0.0
 50
0.0
 51
0.0
 71
     0
 72
   100
 73
     1
 74
     3
 75
     0
 76
     0
 77
     0
 78
     0
281
     0
 65
     1
110
0.0
120
0.0
130
0.0
111
1.0
121
0.0
131
0.0
112
0.0
122
1.0
132
0.0
 79
     0
146
0.0
  0
ENDTAB
  0
TABLE
  2
LTYPE
  5
5
330
0
100
AcDbSymbolTable
 70
     1
  0
LTYPE
  5
14
330
5
100
AcDbSymbolTableRecord
100
AcDbLinetypeTableRecord
  2
ByBlock
 70
     0
  3

 72
    65
 73
     0
 40
0.0
  0
LTYPE
  5
15
330
5
100
AcDbSymbolTableRecord
100
AcDbLinetypeTableRecord
  2
ByLayer
 70
     0
  3

 72
    65
 73
     0
 40
0.0
  0
LTYPE
  5
16
330
5
100
AcDbSymbolTableRecord
100
AcDbLinetypeTableRecord
  2
Continuous
 70
     0
  3
Solid line
 72
    65
 73
     0
 40
0.0
  0
ENDTAB
  0
TABLE
  2
LAYER
  5
2
330
0
100
AcDbSymbolTable
 70
     2
  0
LAYER
  5
10
330
2
100
AcDbSymbolTableRecord
100
AcDbLayerTableRecord
  2
0
 70
     0
 62
     7
  6
Continuous
370
    -3
390
F
  0
LAYER
  5
2B
330
2
100
AcDbSymbolTableRecord
100
AcDbLayerTableRecord
  2
Layer 1
 70
     0
 62
     7
  6
Continuous
370
    -3
390
F
  0
ENDTAB
  0
TABLE
  2
STYLE
  5
3
330
0
100
AcDbSymbolTable
 70
     1
  0
STYLE
  5
11
330
3
100
AcDbSymbolTableRecord
100
AcDbTextStyleTableRecord
  2
Standard
 70
     0
 40
0.0
 41
1.0
 50
0.0
 71
     0
 42
0.2
  3
txt
  4

  0
ENDTAB
  0
TABLE
  2
VIEW
  5
6
330
0
100
AcDbSymbolTable
 70
     0
  0
ENDTAB
  0
TABLE
  2
UCS
  5
7
330
0
100
AcDbSymbolTable
 70
     0
  0
ENDTAB
  0
TABLE
  2
APPID
  5
9
330
0
100
AcDbSymbolTable
 70
     3
  0
APPID
  5
12
330
9
100
AcDbSymbolTableRecord
100
AcDbRegAppTableRecord
  2
ACAD
 70
     0
  0
APPID
  5
2A
330
9
100
AcDbSymbolTableRecord
100
AcDbRegAppTableRecord
  2
ODA
 70
     0
  0
APPID
  5
5A
330
9
100
AcDbSymbolTableRecord
100
AcDbRegAppTableRecord
  2
DCO15
 70
     0
  0
ENDTAB
  0
TABLE
  2
DIMSTYLE
  5
A
330
0
100
AcDbSymbolTable
 70
     1
100
AcDbDimStyleTable
 71
     0
  0
DIMSTYLE
105
27
330
A
100
AcDbSymbolTableRecord
100
AcDbDimStyleTableRecord
  2
Standard
 70
     0
340
11
  0
ENDTAB
  0
TABLE
  2
BLOCK_RECORD
  5
1
330
0
100
AcDbSymbolTable
 70
     1
  0
BLOCK_RECORD
  5
1F
330
1
100
AcDbSymbolTableRecord
100
AcDbBlockTableRecord
  2
*Model_Space
340
22
  0
BLOCK_RECORD
  5
1B
330
1
100
AcDbSymbolTableRecord
100
AcDbBlockTableRecord
  2
*Paper_Space
340
1E
  0
BLOCK_RECORD
  5
23
330
1
100
AcDbSymbolTableRecord
100
AcDbBlockTableRecord
  2
*Paper_Space0
340
26
  0
ENDTAB
  0
ENDSEC
  0
SECTION
  2
BLOCKS
  0
BLOCK
  5
20
330
1F
100
AcDbEntity
  8
0
100
AcDbBlockBegin
  2
*Model_Space
 70
     0
 10
0.0
 20
0.0
 30
0.0
  3
*Model_Space
  1

  0
ENDBLK
  5
21
330
1F
100
AcDbEntity
  8
0
100
AcDbBlockEnd
  0
BLOCK
  5
1C
330
1B
100
AcDbEntity
 67
     1
  8
0
100
AcDbBlockBegin
  2
*Paper_Space
 70
     0
 10
0.0
 20
0.0
 30
0.0
  3
*Paper_Space
  1

  0
ENDBLK
  5
1D
330
1B
100
AcDbEntity
 67
     1
  8
0
100
AcDbBlockEnd
  0
BLOCK
  5
24
330
23
100
AcDbEntity
 67
     1
  8
0
100
AcDbBlockBegin
  2
*Paper_Space0
 70
     0
 10
0.0
 20
0.0
 30
0.0
  3
*Paper_Space0
  1

  0
ENDBLK
  5
25
330
23
100
AcDbEntity
 67
     1
  8
0
100
AcDbBlockEnd
  0
ENDSEC
  0
SECTION
  2
ENTITIES
  0
SPLINE
  5
2C
330
1F
100
AcDbEntity
  8
Layer 1
 62
    22
370
     5
100
AcDbSpline
210
0.0
220
0.0
230
1.0
 70
    11
 71
     3
 72
   124
 73
   120
 74
     0
 42
0.0000000001
 43
0.0000000001
 40
0.0
 40
0.0
 40
0.0
 40
0.0
 40
0.0333333333333333
 40
0.0333333333333333
 40
0.0333333333333333
 40
0.0333333333333333
 40
0.0666666666666667
 40
0.0666666666666667
 40
0.0666666666666667
 40
0.0666666666666667
 40
0.1
 40
0.1
 40
0.1
 40
0.1
 40
0.1333333333333333
 40
0.1333333333333333
 40
0.1333333333333333
 40
0.1333333333333333
 40
0.1666666666666666
 40
0.1666666666666666
 40
0.1666666666666666
 40
0.1666666666666666
 40
0.2
 40
0.2
 40
0.2
 40
0.2
 40
0.2333333333333333
 40
0.2333333333333333
 40
0.2333333333333333
 40
0.2333333333333333
 40
0.2666666666666666
 40
0.2666666666666666
 40
0.2666666666666666
 40
0.2666666666666666
 40
0.3
 40
0.3
 40
0.3
 40
0.3
 40
0.3333333333333333
 40
0.3333333333333333
 40
0.3333333333333333
 40
0.3333333333333333
 40
0.3666666666666666
 40
0.3666666666666666
 40
0.3666666666666666
 40
0.3666666666666666
 40
0.4
 40
0.4
 40
0.4
 40
0.4
 40
0.4333333333333333
 40
0.4333333333333333
 40
0.4333333333333333
 40
0.4333333333333333
 40
0.4666666666666666
 40
0.4666666666666666
 40
0.4666666666666666
 40
0.4666666666666666
 40
0.5
 40
0.5
 40
0.5
 40
0.5
 40
0.5333333333333333
 40
0.5333333333333333
 40
0.5333333333333333
 40
0.5333333333333333
 40
0.5666666666666666
 40
0.5666666666666666
 40
0.5666666666666666
 40
0.5666666666666666
 40
0.6
 40
0.6
 40
0.6
 40
0.6
 40
0.6333333333333333
 40
0.6333333333333333
 40
0.6333333333333333
 40
0.6333333333333333
 40
0.6666666666666666
 40
0.6666666666666666
 40
0.6666666666666666
 40
0.6666666666666666
 40
0.7
 40
0.7
 40
0.7
 40
0.7
 40
0.7333333333333333
 40
0.7333333333333333
 40
0.7333333333333333
 40
0.7333333333333333
 40
0.7666666666666666
 40
0.7666666666666666
 40
0.7666666666666666
 40
0.7666666666666666
 40
0.8
 40
0.8
 40
0.8
 40
0.8
 40
0.8333333333333332
 40
0.8333333333333332
 40
0.8333333333333332
 40
0.8333333333333332
 40
0.8666666666666666
 40
0.8666666666666666
 40
0.8666666666666666
 40
0.8666666666666666
 40
0.9
 40
0.9
 40
0.9
 40
0.9
 40
0.9333333333333332
 40
0.9333333333333332
 40
0.9333333333333332
 40
0.9333333333333332
 40
0.9666666666666666
 40
0.9666666666666666
 40
0.9666666666666666
 40
0.9666666666666666
 40
1.0
 40
1.0
 40
1.0
 40
1.0
 10
-95.050954
 20
-46.942445
 30
0.0
 10
-93.08163699999999
 20
-50.720807
 30
0.0
 10
-94.77362799999999
 20
-52.434281
 30
0.0
 10
-96.00408099999999
 20
-54.208298
 30
0.0
 10
-96.00408099999999
 20
-54.208298
 30
0.0
 10
-99.77891500000001
 20
-58.721429
 30
0.0
 10
-96.808087
 20
-68.74391
 30
0.0
 10
-89.77596400000001
 20
-67.378133
 30
0.0
 10
-89.77596400000001
 20
-67.378133
 30
0.0
 10
-89.77596400000001
 20
-67.378133
 30
0.0
 10
-91.08289900000002
 20
-58.870739
 30
0.0
 10
-91.08289900000002
 20
-58.870739
 30
0.0
 10
-91.08289900000002
 20
-58.870739
 30
0.0
 10
-91.345168
 20
-57.3365
 30
0.0
 10
-89.34945400000001
 20
-56.985086
 30
0.0
 10
-88.96162600000002
 20
-58.544651
 30
0.0
 10
-88.96162600000002
 20
-58.544651
 30
0.0
 10
-88.96162600000002
 20
-58.544651
 30
0.0
 10
-87.562837
 20
-66.97083800000001
 30
0.0
 10
-87.562837
 20
-66.97083800000001
 30
0.0
 10
-87.562837
 20
-66.97083800000001
 30
0.0
 10
-79.412779
 20
-64.149635
 30
0.0
 10
-80.13463300000001
 20
-54.939728
 30
0.0
 10
-87.868954
 20
-50.62189700000001
 30
0.0
 10
-87.868954
 20
-50.62189700000001
 30
0.0
 10
-89.46556300000001
 20
-48.724148
 30
0.0
 10
-88.48849599999999
 20
-47.340164
 30
0.0
 10
-87.075343
 20
-46.658945
 30
0.0
 10
-87.075343
 20
-46.658945
 30
0.0
 10
-84.835945
 20
-45.011873
 30
0.0
 10
-79.09551100000001
 20
-41.35888099999999
 30
0.0
 10
-78.98790700000001
 20
-35.088932
 30
0.0
 10
-78.98790700000001
 20
-35.088932
 30
0.0
 10
-79.21237600000001
 20
-33.266405
 30
0.0
 10
-78.19498900000002
 20
-32.565782
 30
0.0
 10
-76.131361
 20
-33.136877
 30
0.0
 10
-76.131361
 20
-33.136877
 30
0.0
 10
-71.150329
 20
-34.221989
 30
0.0
 10
-66.79608400000001
 20
-32.329406
 30
0.0
 10
-63.068374
 20
-27.459506
 30
0.0
 10
-63.068374
 20
-27.459506
 30
0.0
 10
-62.02755099999999
 20
-26.12882
 30
0.0
 10
-61.187824
 20
-25.886837
 30
0.0
 10
-59.30091100000002
 20
-27.953741
 30
0.0
 10
-59.30091100000002
 20
-27.953741
 30
0.0
 10
-55.00620099999999
 20
-32.588084
 30
0.0
 10
-48.01654
 20
-34.966775
 30
0.0
 10
-41.69430099999999
 20
-33.548204
 30
0.0
 10
-41.69430099999999
 20
-33.548204
 30
0.0
 10
-39.90050200000001
 20
-33.143744
 30
0.0
 10
-39.570571
 20
-34.05415700000001
 30
0.0
 10
-39.905479
 20
-35.562125
 30
0.0
 10
-39.905479
 20
-35.562125
 30
0.0
 10
-40.23005499999999
 20
-39.241451
 30
0.0
 10
-37.877005
 20
-43.017419
 30
0.0
 10
-33.451066
 20
-46.576289
 30
0.0
 10
-33.451066
 20
-46.576289
 30
0.0
 10
-31.70905300000001
 20
-47.958257
 30
0.0
 10
-31.542418
 20
-49.72043
 30
0.0
 10
-33.70319200000002
 20
-50.88385099999999
 30
0.0
 10
-33.70319200000002
 20
-50.88385099999999
 30
0.0
 10
-39.35668599999999
 20
-53.713244
 30
0.0
 10
-40.71742300000001
 20
-61.45323499999999
 30
0.0
 10
-34.92917199999999
 20
-64.90324100000001
 30
0.0
 10
-34.92917199999999
 20
-64.90324100000001
 30
0.0
 10
-34.92917199999999
 20
-64.90324100000001
 30
0.0
 10
-32.977558
 20
-59.255921
 30
0.0
 10
-32.977558
 20
-59.255921
 30
0.0
 10
-32.977558
 20
-59.255921
 30
0.0
 10
-32.49321399999999
 20
-57.925298
 30
0.0
 10
-30.58588900000001
 20
-58.620125
 30
0.0
 10
-31.017124
 20
-59.849633
 30
0.0
 10
-31.017124
 20
-59.849633
 30
0.0
 10
-31.017124
 20
-59.849633
 30
0.0
 10
-32.76676000000001
 20
-65.211815
 30
0.0
 10
-32.76676000000001
 20
-65.211815
 30
0.0
 10
-32.76676000000001
 20
-65.211815
 30
0.0
 10
-29.581102
 20
-66.28123999999999
 30
0.0
 10
-27.271018
 20
-65.039762
 30
0.0
 10
-25.378813
 20
-60.461678
 30
0.0
 10
-25.378813
 20
-60.461678
 30
0.0
 10
-24.64202800000001
 20
-58.847996
 30
0.0
 10
-24.460903
 20
-56.623403
 30
0.0
 10
-25.502104
 20
-53.054579
 30
0.0
 10
-25.502104
 20
-53.054579
 30
0.0
 10
-26.69790700000002
 20
-51.183416
 30
0.0
 10
-25.872355
 20
-50.007899
 30
0.0
 10
-25.22622700000001
 20
-48.417527
 30
0.0
 10
-25.22622700000001
 20
-48.417527
 30
0.0
 10
-23.16700900000001
 20
-42.136364
 30
0.0
 10
-28.25583400000001
 20
-34.116023
 30
0.0
 10
-34.39083700000001
 20
-31.084526
 30
0.0
 10
-34.39083700000001
 20
-31.084526
 30
0.0
 10
-37.61303500000001
 20
-30.101789
 30
0.0
 10
-37.432918
 20
-28.684919
 30
0.0
 10
-37.674649
 20
-27.799643
 30
0.0
 10
-37.674649
 20
-27.799643
 30
0.0
 10
-40.22438500000001
 20
-21.910088
 30
0.0
 10
-50.23319499999999
 20
-20.089262
 30
0.0
 10
-56.43970300000001
 20
-19.706285
 30
0.0
 10
-56.43970300000001
 20
-19.706285
 30
0.0
 10
-57.493063
 20
-19.678124
 30
0.0
 10
-59.147065
 20
-21.03086
 30
0.0
 10
-61.166719
 20
-21.282293
 30
0.0
 10
-61.166719
 20
-21.282293
 30
0.0
 10
-61.98723100000001
 20
-21.384542
 30
0.0
 10
-62.54717500000001
 20
-21.095687
 30
0.0
 10
-63.29851300000001
 20
-20.78579
 30
0.0
 10
-63.29851300000001
 20
-20.78579
 30
0.0
 10
-65.24855200000001
 20
-19.964522
 30
0.0
 10
-73.52820099999999
 20
-19.434881
 30
0.0
 10
-79.858945
 20
-26.078168
 30
0.0
 10
-79.858945
 20
-26.078168
 30
0.0
 10
-80.84426500000001
 20
-27.705899
 30
0.0
 10
-81.91835199999999
 20
-29.488295
 30
0.0
 10
-84.84633999999999
 20
-29.666837
 30
0.0
 10
-84.84633999999999
 20
-29.666837
 30
0.0
 10
-90.460711
 20
-30.965204
 30
0.0
 10
-96.13077400000001
 20
-40.265579
 30
0.0
 10
-95.050954
 20
-46.942445
 30
0.0
  0
SPLINE
  5
2D
330
1F
100
AcDbEntity
  8
Layer 1
 62
    22
370
     5
100
AcDbSpline
210
0.0
220
0.0
230
1.0
 70
    11
 71
     3
 72
   124
 73
   120
 74
     0
 42
0.0000000001
 43
0.0000000001
 40
0.0
 40
0.0
 40
0.0
 40
0.0
 40
0.0333333333333333
 40
0.0333333333333333
 40
0.0333333333333333
 40
0.0333333333333333
 40
0.0666666666666667
 40
0.0666666666666667
 40
0.0666666666666667
 40
0.0666666666666667
 40
0.1
 40
0.1
 40
0.1
 40
0.1
 40
0.1333333333333333
 40
0.1333333333333333
 40
0.1333333333333333
 40
0.1333333333333333
 40
0.1666666666666666
 40
0.1666666666666666
 40
0.1666666666666666
 40
0.1666666666666666
 40
0.2
 40
0.2
 40
0.2
 40
0.2
 40
0.2333333333333333
 40
0.2333333333333333
 40
0.2333333333333333
 40
0.2333333333333333
 40
0.2666666666666666
 40
0.2666666666666666
 40
0.2666666666666666
 40
0.2666666666666666
 40
0.3
 40
0.3
 40
0.3
 40
0.3
 40
0.3333333333333333
 40
0.3333333333333333
 40
0.3333333333333333
 40
0.3333333333333333
 40
0.3666666666666666
 40
0.3666666666666666
 40
0.3666666666666666
 40
0.3666666666666666
 40
0.4
 40
0.4
 40
0.4
 40
0.4
 40
0.4333333333333333
 40
0.4333333333333333
 40
0.4333333333333333
 40
0.4333333333333333
 40
0.4666666666666666
 40
0.4666666666666666
 40
0.4666666666666666
 40
0.4666666666666666
 40
0.5
 40
0.5
 40
0.5
 40
0.5
 40
0.5333333333333333
 40
0.5333333333333333
 40
0.5333333333333333
 40
0.5333333333333333
 40
0.5666666666666666
 40
0.5666666666666666
 40
0.5666666666666666
 40
0.5666666666666666
 40
0.6
 40
0.6
 40
0.6
 40
0.6
 40
0.6333333333333333
 40
0.6333333333333333
 40
0.6333333333333333
 40
0.6333333333333333
 40
0.6666666666666666
 40
0.6666666666666666
 40
0.6666666666666666
 40
0.6666666666666666
 40
0.7
 40
0.7
 40
0.7
 40
0.7
 40
0.7333333333333333
 40
0.7333333333333333
 40
0.7333333333333333
 40
0.7333333333333333
 40
0.7666666666666666
 40
0.7666666666666666
 40
0.7666666666666666
 40
0.7666666666666666
 40
0.8
 40
0.8
 40
0.8
 40
0.8
 40
0.8333333333333332
 40
0.8333333333333332
 40
0.8333333333333332
 40
0.8333333333333332
 40
0.8666666666666666
 40
0.8666666666666666
 40
0.8666666666666666
 40
0.8666666666666666
 40
0.9
 40
0.9
 40
0.9
 40
0.9
 40
0.9333333333333332
 40
0.9333333333333332
 40
0.9333333333333332
 40
0.9333333333333332
 40
0.9666666666666666
 40
0.9666666666666666
 40
0.9666666666666666
 40
0.9666666666666666
 40
1.0
 40
1.0
 40
1.0
 40
1.0
 10
34.494182
 20
-39.37904299999999
 30
0.0
 10
37.448315
 20
-36.308738
 30
0.0
 10
36.3077
 20
-34.187906
 30
0.0
 10
35.62704800000001
 20
-32.13902
 30
0.0
 10
35.62704800000001
 20
-32.13902
 30
0.0
 10
33.276833
 20
-26.745149
 30
0.0
 10
38.951495
 20
-17.965847
 30
0.0
 10
45.313802
 20
-21.257786
 30
0.0
 10
45.313802
 20
-21.257786
 30
0.0
 10
45.313802
 20
-21.257786
 30
0.0
 10
41.662574
 20
-29.052272
 30
0.0
 10
41.662574
 20
-29.052272
 30
0.0
 10
41.662574
 20
-29.052272
 30
0.0
 10
40.978583
 20
-30.450431
 30
0.0
 10
42.794432
 20
-31.349945
 30
0.0
 10
43.605998
 20
-29.962811
 30
0.0
 10
43.605998
 20
-29.962811
 30
0.0
 10
43.605998
 20
-29.962811
 30
0.0
 10
47.322494
 20
-22.272275
 30
0.0
 10
47.322494
 20
-22.272275
 30
0.0
 10
47.322494
 20
-22.272275
 30
0.0
 10
54.347309
 20
-27.275609
 30
0.0
 10
51.059528
 20
-35.90894
 30
0.0
 10
42.421913
 20
-37.872398
 30
0.0
 10
42.421913
 20
-37.872398
 30
0.0
 10
40.355261
 20
-39.243404
 30
0.0
 10
40.902794
 20
-40.846628
 30
0.0
 10
42.066656
 20
-41.898413
 30
0.0
 10
42.066656
 20
-41.898413
 30
0.0
 10
43.751276
 20
-44.109839
 30
0.0
 10
48.22969399999999
 20
-49.232306
 30
0.0
 10
46.566179
 20
-55.278542
 30
0.0
 10
46.566179
 20
-55.278542
 30
0.0
 10
45.837269
 20
-56.963918
 30
0.0
 10
46.61601199999999
 20
-57.92284099999999
 30
0.0
 10
48.757004
 20
-57.95642
 30
0.0
 10
48.757004
 20
-57.95642
 30
0.0
 10
53.841923
 20
-58.318796
 30
0.0
 10
57.48641
 20
-61.36163299999999
 30
0.0
 10
59.690843
 20
-67.084553
 30
0.0
 10
59.690843
 20
-67.084553
 30
0.0
 10
60.31448000000001
 20
-68.654639
 30
0.0
 10
61.052021
 20
-69.12342200000001
 30
0.0
 10
63.44495
 20
-67.67202800000001
 30
0.0
 10
63.44495
 20
-67.67202800000001
 30
0.0
 10
68.87145499999999
 20
-64.435592
 30
0.0
 10
76.248125
 20
-64.12286
 30
0.0
 10
81.91447100000001
 20
-67.26542599999999
 30
0.0
 10
81.91447100000001
 20
-67.26542599999999
 30
0.0
 10
83.521601
 20
-68.15895499999999
 30
0.0
 10
84.094712
 20
-67.37838500000001
 30
0.0
 10
84.198284
 20
-65.837153
 30
0.0
 10
84.198284
 20
-65.837153
 30
0.0
 10
84.923666
 20
-62.21547199999999
 30
0.0
 10
88.24534099999999
 20
-59.255543
 30
0.0
 10
93.49475299999999
 20
-57.088028
 30
0.0
 10
93.49475299999999
 20
-57.088028
 30
0.0
 10
95.55560900000001
 20
-56.252963
 30
0.0
 10
96.212069
 20
-54.609167
 30
0.0
 10
94.46659100000001
 20
-52.88397500000001
 30
0.0
 10
94.46659100000001
 20
-52.88397500000001
 30
0.0
 10
89.839493
 20
-48.576161
 30
0.0
 10
90.71487799999999
 20
-40.766366
 30
0.0
 10
97.240733
 20
-39.087227
 30
0.0
 10
97.240733
 20
-39.087227
 30
0.0
 10
97.240733
 20
-39.087227
 30
0.0
 10
97.52196500000001
 20
-45.05565799999999
 30
0.0
 10
97.52196500000001
 20
-45.05565799999999
 30
0.0
 10
97.52196500000001
 20
-45.05565799999999
 30
0.0
 10
97.61174
 20
-46.468811
 30
0.0
 10
99.637568
 20
-46.33959799999999
 30
0.0
 10
99.570284
 20
-45.038396
 30
0.0
 10
99.570284
 20
-45.038396
 30
0.0
 10
99.570284
 20
-45.038396
 30
0.0
 10
99.402515
 20
-39.400463
 30
0.0
 10
99.402515
 20
-39.400463
 30
0.0
 10
99.402515
 20
-39.400463
 30
0.0
 10
102.760352
 20
-39.27200600000001
 30
0.0
 10
104.627042
 20
-41.11418899999999
 30
0.0
 10
105.152588
 20
-46.03990699999999
 30
0.0
 10
105.152588
 20
-46.03990699999999
 30
0.0
 10
105.404777
 20
-47.79577999999999
 30
0.0
 10
104.951744
 20
-49.981313
 30
0.0
 10
102.947084
 20
-53.112098
 30
0.0
 10
102.947084
 20
-53.112098
 30
0.0
 10
101.272481
 20
-54.570548
 30
0.0
 10
101.733389
 20
-55.931033
 30
0.0
 10
101.905127
 20
-57.639026
 30
0.0
 10
101.905127
 20
-57.639026
 30
0.0
 10
102.111011
 20
-64.245899
 30
0.0
 10
94.96844900000001
 20
-70.50734299999999
 30
0.0
 10
88.227764
 20
-71.68727000000001
 30
0.0
 10
88.227764
 20
-71.68727000000001
 30
0.0
 10
84.859217
 20
-71.722172
 30
0.0
 10
84.632795
 20
-73.132427
 30
0.0
 10
84.151412
 20
-73.91369
 30
0.0
 10
84.151412
 20
-73.91369
 30
0.0
 10
80.04545
 20
-78.84614899999999
 30
0.0
 10
69.929162
 20
-77.77288100000001
 30
0.0
 10
63.866168
 20
-76.39148
 30
0.0
 10
63.866168
 20
-76.39148
 30
0.0
 10
62.847584
 20
-76.12165100000002
 30
0.0
 10
61.641764
 20
-74.35771400000001
 30
0.0
 10
59.774822
 20
-73.54734500000001
 30
0.0
 10
59.774822
 20
-73.54734500000001
 30
0.0
 10
59.016365
 20
-73.21804399999999
 30
0.0
 10
58.397705
 20
-73.337429
 30
0.0
 10
57.589478
 20
-73.423046
 30
0.0
 10
57.589478
 20
-73.423046
 30
0.0
 10
55.487042
 20
-73.661564
 30
0.0
 10
47.393684
 20
-71.83670599999999
 30
0.0
 10
43.191395
 20
-63.67871
 30
0.0
 10
43.191395
 20
-63.67871
 30
0.0
 10
42.70465699999999
 20
-61.839236
 30
0.0
 10
42.176339
 20
-59.826386
 30
0.0
 10
39.417317
 20
-58.830041
 30
0.0
 10
39.417317
 20
-58.830041
 30
0.0
 10
34.396343
 20
-56.002286
 30
0.0
 10
31.576652
 20
-45.48103399999999
 30
0.0
 10
34.494182
 20
-39.37904299999999
 30
0.0
  0
SPLINE
  5
2E
330
1F
100
AcDbEntity
  8
Layer 1
 62
    22
370
     5
100
AcDbSpline
210
0.0
220
0.0
230
1.0
 70
    11
 71
     3
 72
    36
 73
    32
 74
     0
 42
0.0000000001
 43
0.0000000001
 40
0.0
 40
0.0
 40
0.0
 40
0.0
 40
0.125
 40
0.125
 40
0.125
 40
0.125
 40
0.25
 40
0.25
 40
0.25
 40
0.25
 40
0.375
 40
0.375
 40
0.375
 40
0.375
 40
0.5
 40
0.5
 40
0.5
 40
0.5
 40
0.625
 40
0.625
 40
0.625
 40
0.625
 40
0.75
 40
0.75
 40
0.75
 40
0.75
 40
0.875
 40
0.875
 40
0.875
 40
0.875
 40
1.0
 40
1.0
 40
1.0
 40
1.0
 10
-71.247601
 20
-57.253718
 30
0.0
 10
-71.247601
 20
-57.253718
 30
0.0
 10
-71.91596799999999
 20
-50.70669500000001
 30
0.0
 10
-71.91596799999999
 20
-50.70669500000001
 30
0.0
 10
-71.91596799999999
 20
-50.70669500000001
 30
0.0
 10
-71.98381900000001
 20
-49.434032
 30
0.0
 10
-74.10572200000001
 20
-49.498481
 30
0.0
 10
-73.97972200000001
 20
-50.85632
 30
0.0
 10
-73.97972200000001
 20
-50.85632
 30
0.0
 10
-73.97972200000001
 20
-50.85632
 30
0.0
 10
-73.29277000000002
 20
-57.585224
 30
0.0
 10
-73.29277000000002
 20
-57.585224
 30
0.0
 10
-73.29277000000002
 20
-57.585224
 30
0.0
 10
-77.55976000000001
 20
-57.63808100000001
 30
0.0
 10
-80.907139
 20
-56.206784
 30
0.0
 10
-81.625843
 20
-51.119219
 30
0.0
 10
-81.625843
 20
-51.119219
 30
0.0
 10
-81.90291700000001
 20
-46.98245
 30
0.0
 10
-75.992572
 20
-36.02738
 30
0.0
 10
-63.178246
 20
-43.723145
 30
0.0
 10
-63.178246
 20
-43.723145
 30
0.0
 10
-56.095219
 20
-47.854496
 30
0.0
 10
-52.44865299999999
 20
-41.877749
 30
0.0
 10
-56.90615500000001
 20
-37.661915
 30
0.0
 10
-56.90615500000001
 20
-37.661915
 30
0.0
 10
-58.32592299999999
 20
-35.75503100000001
 30
0.0
 10
-57.30532300000001
 20
-35.252669
 30
0.0
 10
-55.508815
 20
-36.049241
 30
0.0
 10
-55.508815
 20
-36.049241
 30
0.0
 10
-47.32832800000001
 20
-41.83711399999999
 30
0.0
 10
-52.24182400000001
 20
-56.469809
 30
0.0
 10
-71.247601
 20
-57.253718
 30
0.0
  0
SPLINE
  5
2F
330
1F
100
AcDbEntity
  8
Layer 1
 62
    22
370
     5
100
AcDbSpline
210
0.0
220
0.0
230
1.0
 70
    11
 71
     3
 72
    36
 73
    32
 74
     0
 42
0.0000000001
 43
0.0000000001
 40
0.0
 40
0.0
 40
0.0
 40
0.0
 40
0.125
 40
0.125
 40
0.125
 40
0.125
 40
0.25
 40
0.25
 40
0.25
 40
0.25
 40
0.375
 40
0.375
 40
0.375
 40
0.375
 40
0.5
 40
0.5
 40
0.5
 40
0.5
 40
0.625
 40
0.625
 40
0.625
 40
0.625
 40
0.75
 40
0.75
 40
0.75
 40
0.75
 40
0.875
 40
0.875
 40
0.875
 40
0.875
 40
1.0
 40
1.0
 40
1.0
 40
1.0
 10
-45.912466
 20
-66.985139
 30
0.0
 10
-45.912466
 20
-66.985139
 30
0.0
 10
-49.649185
 20
-61.567832
 30
0.0
 10
-49.649185
 20
-61.567832
 30
0.0
 10
-49.649185
 20
-61.567832
 30
0.0
 10
-50.422825
 20
-60.555044
 30
0.0
 10
-48.765799
 20
-59.228138
 30
0.0
 10
-47.981134
 20
-60.34349
 30
0.0
 10
-47.981134
 20
-60.34349
 30
0.0
 10
-47.981134
 20
-60.34349
 30
0.0
 10
-44.140654
 20
-65.911304
 30
0.0
 10
-44.140654
 20
-65.911304
 30
0.0
 10
-44.140654
 20
-65.911304
 30
0.0
 10
-40.85816499999999
 20
-63.184538
 30
0.0
 10
-39.23812000000001
 20
-59.924288
 30
0.0
 10
-41.99008599999999
 20
-55.58535200000001
 30
0.0
 10
-41.99008599999999
 20
-55.58535200000001
 30
0.0
 10
-44.46176499999999
 20
-52.256621
 30
0.0
 10
-56.064916
 20
-47.74979
 30
0.0
 10
-60.82935400000002
 20
-61.917734
 30
0.0
 10
-60.82935400000002
 20
-61.917734
 30
0.0
 10
-63.54219699999998
 20
-69.655835
 30
0.0
 10
-70.19386299999999
 20
-67.470743
 30
0.0
 10
-69.53444200000001
 20
-61.37095699999999
 30
0.0
 10
-69.53444200000001
 20
-61.37095699999999
 30
0.0
 10
-69.690178
 20
-58.998692
 30
0.0
 10
-70.792867
 20
-59.278034
 30
0.0
 10
-71.64387100000002
 20
-61.049405
 30
0.0
 10
-71.64387100000002
 20
-61.049405
 30
0.0
 10
-74.118007
 20
-70.76016200000001
 30
0.0
 10
-60.88882599999999
 20
-78.71296700000001
 30
0.0
 10
-45.912466
 20
-66.985139
 30
0.0
  0
SPLINE
  5
30
330
1F
100
AcDbEntity
  8
Layer 1
 62
    22
370
     5
100
AcDbSpline
210
0.0
220
0.0
230
1.0
 70
    11
 71
     3
 72
    64
 73
    60
 74
     0
 42
0.0000000001
 43
0.0000000001
 40
0.0
 40
0.0
 40
0.0
 40
0.0
 40
0.0666666666666667
 40
0.0666666666666667
 40
0.0666666666666667
 40
0.0666666666666667
 40
0.1333333333333333
 40
0.1333333333333333
 40
0.1333333333333333
 40
0.1333333333333333
 40
0.2
 40
0.2
 40
0.2
 40
0.2
 40
0.2666666666666666
 40
0.2666666666666666
 40
0.2666666666666666
 40
0.2666666666666666
 40
0.3333333333333333
 40
0.3333333333333333
 40
0.3333333333333333
 40
0.3333333333333333
 40
0.4
 40
0.4
 40
0.4
 40
0.4
 40
0.4666666666666666
 40
0.4666666666666666
 40
0.4666666666666666
 40
0.4666666666666666
 40
0.5333333333333333
 40
0.5333333333333333
 40
0.5333333333333333
 40
0.5333333333333333
 40
0.6
 40
0.6
 40
0.6
 40
0.6
 40
0.6666666666666666
 40
0.6666666666666666
 40
0.6666666666666666
 40
0.6666666666666666
 40
0.7333333333333333
 40
0.7333333333333333
 40
0.7333333333333333
 40
0.7333333333333333
 40
0.8
 40
0.8
 40
0.8
 40
0.8
 40
0.8666666666666666
 40
0.8666666666666666
 40
0.8666666666666666
 40
0.8666666666666666
 40
0.9333333333333332
 40
0.9333333333333332
 40
0.9333333333333332
 40
0.9333333333333332
 40
1.0
 40
1.0
 40
1.0
 40
1.0
 10
123.992738
 20
-31.476512
 30
0.0
 10
123.992738
 20
-31.476512
 30
0.0
 10
124.005716
 20
-34.445576
 30
0.0
 10
124.005716
 20
-34.445576
 30
0.0
 10
124.005716
 20
-34.445576
 30
0.0
 10
122.612408
 20
-34.403807
 30
0.0
 10
120.339872
 20
-34.339925
 30
0.0
 10
120.239198
 20
-37.119548
 30
0.0
 10
120.239198
 20
-37.119548
 30
0.0
 10
120.138524
 20
-39.89917099999999
 30
0.0
 10
120.271391
 20
-38.166923
 30
0.0
 10
120.04478
 20
-42.709601
 30
0.0
 10
120.04478
 20
-42.709601
 30
0.0
 10
119.613734
 20
-44.645969
 30
0.0
 10
116.866808
 20
-46.50478399999999
 30
0.0
 10
114.304787
 20
-43.80844699999999
 30
0.0
 10
114.304787
 20
-43.80844699999999
 30
0.0
 10
114.304787
 20
-43.80844699999999
 30
0.0
 10
104.866694
 20
-31.355048
 30
0.0
 10
104.866694
 20
-31.355048
 30
0.0
 10
104.866694
 20
-31.355048
 30
0.0
 10
103.037678
 20
-29.00288
 30
0.0
 10
103.664276
 20
-26.525216
 30
0.0
 10
105.558056
 20
-24.77936
 30
0.0
 10
105.558056
 20
-24.77936
 30
0.0
 10
110.086244
 20
-21.604727
 30
0.0
 10
115.143569
 20
-19.476398
 30
0.0
 10
124.962434
 20
-19.514324
 30
0.0
 10
124.962434
 20
-19.514324
 30
0.0
 10
134.781614
 20
-19.594586
 30
0.0
 10
140.487209
 20
-23.355245
 30
0.0
 10
144.656234
 20
-25.434245
 30
0.0
 10
144.656234
 20
-25.434245
 30
0.0
 10
147.761063
 20
-27.708608
 30
0.0
 10
146.612636
 20
-30.609191
 30
0.0
 10
144.669968
 20
-33.085847
 30
0.0
 10
144.669968
 20
-33.085847
 30
0.0
 10
144.669968
 20
-33.085847
 30
0.0
 10
136.3958
 20
-43.149404
 30
0.0
 10
136.3958
 20
-43.149404
 30
0.0
 10
136.3958
 20
-43.149404
 30
0.0
 10
133.669664
 20
-45.822305
 30
0.0
 10
130.118732
 20
-45.28208
 30
0.0
 10
129.726305
 20
-43.103603
 30
0.0
 10
129.726305
 20
-43.103603
 30
0.0
 10
129.644594
 20
-38.064107
 30
0.0
 10
129.732353
 20
-39.79396100000001
 30
0.0
 10
129.740039
 20
-37.265456
 30
0.0
 10
129.740039
 20
-37.265456
 30
0.0
 10
129.747662
 20
-34.736951
 30
0.0
 10
127.5065
 20
-34.43606300000001
 30
0.0
 10
126.114515
 20
-34.508387
 30
0.0
 10
126.114515
 20
-34.508387
 30
0.0
 10
126.114515
 20
-34.508387
 30
0.0
 10
126.15011
 20
-31.456604
 30
0.0
 10
126.15011
 20
-31.456604
 30
0.0
 10
126.15011
 20
-31.456604
 30
0.0
 10
126.133226
 20
-29.790569
 30
0.0
 10
123.973586
 20
-29.845064
 30
0.0
 10
123.992738
 20
-31.476512
 30
0.0
  0
SPLINE
  5
31
330
1F
100
AcDbEntity
  8
Layer 1
 62
    22
370
     5
100
AcDbSpline
210
0.0
220
0.0
230
1.0
 70
    11
 71
     3
 72
    64
 73
    60
 74
     0
 42
0.0000000001
 43
0.0000000001
 40
0.0
 40
0.0
 40
0.0
 40
0.0
 40
0.0666666666666667
 40
0.0666666666666667
 40
0.0666666666666667
 40
0.0666666666666667
 40
0.1333333333333333
 40
0.1333333333333333
 40
0.1333333333333333
 40
0.1333333333333333
 40
0.2
 40
0.2
 40
0.2
 40
0.2
 40
0.2666666666666666
 40
0.2666666666666666
 40
0.2666666666666666
 40
0.2666666666666666
 40
0.3333333333333333
 40
0.3333333333333333
 40
0.3333333333333333
 40
0.3333333333333333
 40
0.4
 40
0.4
 40
0.4
 40
0.4
 40
0.4666666666666666
 40
0.4666666666666666
 40
0.4666666666666666
 40
0.4666666666666666
 40
0.5333333333333333
 40
0.5333333333333333
 40
0.5333333333333333
 40
0.5333333333333333
 40
0.6
 40
0.6
 40
0.6
 40
0.6
 40
0.6666666666666666
 40
0.6666666666666666
 40
0.6666666666666666
 40
0.6666666666666666
 40
0.7333333333333333
 40
0.7333333333333333
 40
0.7333333333333333
 40
0.7333333333333333
 40
0.8
 40
0.8
 40
0.8
 40
0.8
 40
0.8666666666666666
 40
0.8666666666666666
 40
0.8666666666666666
 40
0.8666666666666666
 40
0.9333333333333332
 40
0.9333333333333332
 40
0.9333333333333332
 40
0.9333333333333332
 40
1.0
 40
1.0
 40
1.0
 40
1.0
 10
125.330417
 20
-64.710083
 30
0.0
 10
125.330417
 20
-64.710083
 30
0.0
 10
125.134298
 20
-61.527323
 30
0.0
 10
125.134298
 20
-61.527323
 30
0.0
 10
125.134298
 20
-61.527323
 30
0.0
 10
126.52811
 20
-61.546916
 30
0.0
 10
129.106385
 20
-61.454999
 30
0.0
 10
129.162833
 20
-58.674116
 30
0.0
 10
129.162833
 20
-58.674116
 30
0.0
 10
129.219281
 20
-55.893233
 30
0.0
 10
129.114008
 20
-57.627371
 30
0.0
 10
129.268295
 20
-53.08166899999999
 30
0.0
 10
129.268295
 20
-53.08166899999999
 30
0.0
 10
129.6548
 20
-50.63449699999999
 30
0.0
 10
132.046469
 20
-48.704807
 30
0.0
 10
134.668844
 20
-52.008275
 30
0.0
 10
134.668844
 20
-52.008275
 30
0.0
 10
134.668844
 20
-52.008275
 30
0.0
 10
144.303875
 20
-64.30990700000001
 30
0.0
 10
144.303875
 20
-64.30990700000001
 30
0.0
 10
144.303875
 20
-64.30990700000001
 30
0.0
 10
146.170124
 20
-66.632717
 30
0.0
 10
143.112104
 20
-69.727529
 30
0.0
 10
141.2463589999999
 20
-71.50331
 30
0.0
 10
141.2463589999999
 20
-71.50331
 30
0.0
 10
136.769264
 20
-74.749574
 30
0.0
 10
133.437698
 20
-75.506519
 30
0.0
 10
124.390331
 20
-76.144835
 30
0.0
 10
124.390331
 20
-76.144835
 30
0.0
 10
115.097642
 20
-75.693251
 30
0.0
 10
113.26157
 20
-74.675864
 30
0.0
 10
107.779436
 20
-71.96761999999999
 30
0.0
 10
107.779436
 20
-71.96761999999999
 30
0.0
 10
104.879231
 20
-69.95281699999999
 30
0.0
 10
103.612742
 20
-67.422926
 30
0.0
 10
105.576263
 20
-63.832304
 30
0.0
 10
105.576263
 20
-63.832304
 30
0.0
 10
105.576263
 20
-63.832304
 30
0.0
 10
112.591061
 20
-53.018795
 30
0.0
 10
112.591061
 20
-53.018795
 30
0.0
 10
112.591061
 20
-53.018795
 30
0.0
 10
114.526358
 20
-49.295999
 30
0.0
 10
117.86498
 20
-49.60564399999999
 30
0.0
 10
119.038544
 20
-52.74821
 30
0.0
 10
119.038544
 20
-52.74821
 30
0.0
 10
119.200391
 20
-57.78575299999999
 30
0.0
 10
119.193209
 20
-56.054639
 30
0.0
 10
119.22578
 20
-58.582955
 30
0.0
 10
119.22578
 20
-58.582955
 30
0.0
 10
119.258351
 20
-61.111271
 30
0.0
 10
121.63364
 20
-61.587425
 30
0.0
 10
123.024365
 20
-61.492988
 30
0.0
 10
123.024365
 20
-61.492988
 30
0.0
 10
123.024365
 20
-61.492988
 30
0.0
 10
123.154208
 20
-64.86506300000001
 30
0.0
 10
123.154208
 20
-64.86506300000001
 30
0.0
 10
123.154208
 20
-64.86506300000001
 30
0.0
 10
123.365447
 20
-66.717893
 30
0.0
 10
125.360468
 20
-66.33907400000001
 30
0.0
 10
125.330417
 20
-64.710083
 30
0.0
  0
SPLINE
  5
32
330
1F
100
AcDbEntity
  8
Layer 1
 62
    22
370
     5
100
AcDbSpline
210
0.0
220
0.0
230
1.0
 70
    11
 71
     3
 72
    48
 73
    44
 74
     0
 42
0.0000000001
 43
0.0000000001
 40
0.0
 40
0.0
 40
0.0
 40
0.0
 40
0.0909090909090909
 40
0.0909090909090909
 40
0.0909090909090909
 40
0.0909090909090909
 40
0.1818181818181818
 40
0.1818181818181818
 40
0.1818181818181818
 40
0.1818181818181818
 40
0.2727272727272727
 40
0.2727272727272727
 40
0.2727272727272727
 40
0.2727272727272727
 40
0.3636363636363637
 40
0.3636363636363637
 40
0.3636363636363637
 40
0.3636363636363637
 40
0.4545454545454546
 40
0.4545454545454546
 40
0.4545454545454546
 40
0.4545454545454546
 40
0.5454545454545455
 40
0.5454545454545455
 40
0.5454545454545455
 40
0.5454545454545455
 40
0.6363636363636365
 40
0.6363636363636365
 40
0.6363636363636365
 40
0.6363636363636365
 40
0.7272727272727275
 40
0.7272727272727275
 40
0.7272727272727275
 40
0.7272727272727275
 40
0.8181818181818183
 40
0.8181818181818183
 40
0.8181818181818183
 40
0.8181818181818183
 40
0.9090909090909093
 40
0.9090909090909093
 40
0.9090909090909093
 40
0.9090909090909093
 40
1.0
 40
1.0
 40
1.0
 40
1.0
 10
207.717785
 20
-28.682462
 30
0.0
 10
207.717785
 20
-28.682462
 30
0.0
 10
207.265256
 20
-31.825154
 30
0.0
 10
207.265256
 20
-31.825154
 30
0.0
 10
207.265256
 20
-31.825154
 30
0.0
 10
205.903007
 20
-31.529936
 30
0.0
 10
204.210449
 20
-31.888217
 30
0.0
 10
202.895072
 20
-34.14594800000001
 30
0.0
 10
202.895072
 20
-34.14594800000001
 30
0.0
 10
200.814749
 20
-37.716599
 30
0.0
 10
198.450485
 20
-36.085655
 30
0.0
 10
196.841969
 20
-33.889034
 30
0.0
 10
196.841969
 20
-33.889034
 30
0.0
 10
196.841969
 20
-33.889034
 30
0.0
 10
192.934772
 20
-26.059583
 30
0.0
 10
192.934772
 20
-26.059583
 30
0.0
 10
192.934772
 20
-26.059583
 30
0.0
 10
190.332431
 20
-21.00818
 30
0.0
 10
203.29235
 20
-17.04611
 30
0.0
 10
210.60224
 20
-18.110684
 30
0.0
 10
210.60224
 20
-18.110684
 30
0.0
 10
217.178369
 20
-19.301321
 30
0.0
 10
228.905882
 20
-27.136253
 30
0.0
 10
224.864999
 20
-31.736639
 30
0.0
 10
224.864999
 20
-31.736639
 30
0.0
 10
224.864999
 20
-31.736639
 30
0.0
 10
219.201425
 20
-36.81254900000001
 30
0.0
 10
219.201425
 20
-36.81254900000001
 30
0.0
 10
219.201425
 20
-36.81254900000001
 30
0.0
 10
215.589761
 20
-40.275596
 30
0.0
 10
213.290891
 20
-39.323666
 30
0.0
 10
212.478695
 20
-35.7401
 30
0.0
 10
212.478695
 20
-35.7401
 30
0.0
 10
212.002982
 20
-33.640373
 30
0.0
 10
210.546989
 20
-32.36733200000001
 30
0.0
 10
209.290139
 20
-32.096558
 30
0.0
 10
209.290139
 20
-32.096558
 30
0.0
 10
209.290139
 20
-32.096558
 30
0.0
 10
209.863502
 20
-28.752077
 30
0.0
 10
209.863502
 20
-28.752077
 30
0.0
 10
209.863502
 20
-28.752077
 30
0.0
 10
210.051557
 20
-27.152444
 30
0.0
 10
207.914093
 20
-26.876882
 30
0.0
 10
207.717785
 20
-28.682462
 30
0.0
  0
SPLINE
  5
33
330
1F
100
AcDbEntity
  8
Layer 1
 62
    22
370
     5
100
AcDbSpline
210
0.0
220
0.0
230
1.0
 70
    11
 71
     3
 72
    64
 73
    60
 74
     0
 42
0.0000000001
 43
0.0000000001
 40
0.0
 40
0.0
 40
0.0
 40
0.0
 40
0.0666666666666667
 40
0.0666666666666667
 40
0.0666666666666667
 40
0.0666666666666667
 40
0.1333333333333333
 40
0.1333333333333333
 40
0.1333333333333333
 40
0.1333333333333333
 40
0.2
 40
0.2
 40
0.2
 40
0.2
 40
0.2666666666666666
 40
0.2666666666666666
 40
0.2666666666666666
 40
0.2666666666666666
 40
0.3333333333333333
 40
0.3333333333333333
 40
0.3333333333333333
 40
0.3333333333333333
 40
0.4
 40
0.4
 40
0.4
 40
0.4
 40
0.4666666666666666
 40
0.4666666666666666
 40
0.4666666666666666
 40
0.4666666666666666
 40
0.5333333333333333
 40
0.5333333333333333
 40
0.5333333333333333
 40
0.5333333333333333
 40
0.6
 40
0.6
 40
0.6
 40
0.6
 40
0.6666666666666666
 40
0.6666666666666666
 40
0.6666666666666666
 40
0.6666666666666666
 40
0.7333333333333333
 40
0.7333333333333333
 40
0.7333333333333333
 40
0.7333333333333333
 40
0.8
 40
0.8
 40
0.8
 40
0.8
 40
0.8666666666666666
 40
0.8666666666666666
 40
0.8666666666666666
 40
0.8666666666666666
 40
0.9333333333333332
 40
0.9333333333333332
 40
0.9333333333333332
 40
0.9333333333333332
 40
1.0
 40
1.0
 40
1.0
 40
1.0
 10
224.717264
 20
-58.867904
 30
0.0
 10
224.717264
 20
-58.867904
 30
0.0
 10
221.742467
 20
-57.022823
 30
0.0
 10
221.742467
 20
-57.022823
 30
0.0
 10
221.742467
 20
-57.022823
 30
0.0
 10
221.085818
 20
-57.99913400000001
 30
0.0
 10
219.14
 20
-59.712986
 30
0.0
 10
217.506032
 20
-58.884851
 30
0.0
 10
217.506032
 20
-58.884851
 30
0.0
 10
215.872001
 20
-58.05665300000001
 30
0.0
 10
215.466281
 20
-57.398429
 30
0.0
 10
213.451919
 20
-57.002096
 30
0.0
 10
213.451919
 20
-57.002096
 30
0.0
 10
211.452173
 20
-56.92448
 30
0.0
 10
210.115439
 20
-58.66202
 30
0.0
 10
211.325228
 20
-62.36805799999999
 30
0.0
 10
211.325228
 20
-62.36805799999999
 30
0.0
 10
211.325228
 20
-62.36805799999999
 30
0.0
 10
214.668197
 20
-72.98494400000001
 30
0.0
 10
214.668197
 20
-72.98494400000001
 30
0.0
 10
214.668197
 20
-72.98494400000001
 30
0.0
 10
215.85959
 20
-74.911799
 30
0.0
 10
216.781847
 20
-77.528693
 30
0.0
 10
220.936382
 20
-75.99426500000001
 30
0.0
 10
220.936382
 20
-75.99426500000001
 30
0.0
 10
225.905507
 20
-73.381466
 30
0.0
 10
230.872994
 20
-70.807664
 30
0.0
 10
235.004093
 20
-64.82776699999999
 30
0.0
 10
235.004093
 20
-64.82776699999999
 30
0.0
 10
238.146659
 20
-58.955915
 30
0.0
 10
238.794929
 20
-54.196139
 30
0.0
 10
238.971392
 20
-52.282955
 30
0.0
 10
238.971392
 20
-52.282955
 30
0.0
 10
238.680521
 20
-47.05244299999999
 30
0.0
 10
239.804378
 20
-42.883481
 30
0.0
 10
234.501416
 20
-42.03260299999999
 30
0.0
 10
234.501416
 20
-42.03260299999999
 30
0.0
 10
231.959744
 20
-41.968847
 30
0.0
 10
226.275065
 20
-42.287501
 30
0.0
 10
222.529148
 20
-42.72705199999999
 30
0.0
 10
222.529148
 20
-42.72705199999999
 30
0.0
 10
219.042917
 20
-42.922604
 30
0.0
 10
218.316653
 20
-45.612704
 30
0.0
 10
218.676446
 20
-46.83446299999999
 30
0.0
 10
218.676446
 20
-46.83446299999999
 30
0.0
 10
219.454055
 20
-48.39812300000001
 30
0.0
 10
222.05438
 20
-49.718918
 30
0.0
 10
222.847802
 20
-50.393522
 30
0.0
 10
222.847802
 20
-50.393522
 30
0.0
 10
223.98092
 20
-51.859343
 30
0.0
 10
223.607897
 20
-54.02837
 30
0.0
 10
222.822224
 20
-55.200674
 30
0.0
 10
222.822224
 20
-55.200674
 30
0.0
 10
222.822224
 20
-55.200674
 30
0.0
 10
225.780074
 20
-57.082232
 30
0.0
 10
225.780074
 20
-57.082232
 30
0.0
 10
225.780074
 20
-57.082232
 30
0.0
 10
227.069747
 20
-57.93626
 30
0.0
 10
225.968066
 20
-59.55699800000001
 30
0.0
 10
224.717264
 20
-58.867904
 30
0.0
  0
SPLINE
  5
34
330
1F
100
AcDbEntity
  8
Layer 1
 62
    22
370
     5
100
AcDbSpline
210
0.0
220
0.0
230
1.0
 70
    11
 71
     3
 72
   216
 73
   212
 74
     0
 42
0.0000000001
 43
0.0000000001
 40
0.0
 40
0.0
 40
0.0
 40
0.0
 40
0.0188679245283019
 40
0.0188679245283019
 40
0.0188679245283019
 40
0.0188679245283019
 40
0.0377358490566038
 40
0.0377358490566038
 40
0.0377358490566038
 40
0.0377358490566038
 40
0.0566037735849057
 40
0.0566037735849057
 40
0.0566037735849057
 40
0.0566037735849057
 40
0.0754716981132076
 40
0.0754716981132076
 40
0.0754716981132076
 40
0.0754716981132076
 40
0.0943396226415094
 40
0.0943396226415094
 40
0.0943396226415094
 40
0.0943396226415094
 40
0.1132075471698113
 40
0.1132075471698113
 40
0.1132075471698113
 40
0.1132075471698113
 40
0.1320754716981132
 40
0.1320754716981132
 40
0.1320754716981132
 40
0.1320754716981132
 40
0.1509433962264151
 40
0.1509433962264151
 40
0.1509433962264151
 40
0.1509433962264151
 40
0.169811320754717
 40
0.169811320754717
 40
0.169811320754717
 40
0.169811320754717
 40
0.1886792452830188
 40
0.1886792452830188
 40
0.1886792452830188
 40
0.1886792452830188
 40
0.2075471698113207
 40
0.2075471698113207
 40
0.2075471698113207
 40
0.2075471698113207
 40
0.2264150943396226
 40
0.2264150943396226
 40
0.2264150943396226
 40
0.2264150943396226
 40
0.2452830188679245
 40
0.2452830188679245
 40
0.2452830188679245
 40
0.2452830188679245
 40
0.2641509433962264
 40
0.2641509433962264
 40
0.2641509433962264
 40
0.2641509433962264
 40
0.2830188679245283
 40
0.2830188679245283
 40
0.2830188679245283
 40
0.2830188679245283
 40
0.3018867924528302
 40
0.3018867924528302
 40
0.3018867924528302
 40
0.3018867924528302
 40
0.320754716981132
 40
0.320754716981132
 40
0.320754716981132
 40
0.320754716981132
 40
0.3396226415094339
 40
0.3396226415094339
 40
0.3396226415094339
 40
0.3396226415094339
 40
0.3584905660377358
 40
0.3584905660377358
 40
0.3584905660377358
 40
0.3584905660377358
 40
0.3773584905660377
 40
0.3773584905660377
 40
0.3773584905660377
 40
0.3773584905660377
 40
0.3962264150943396
 40
0.3962264150943396
 40
0.3962264150943396
 40
0.3962264150943396
 40
0.4150943396226415
 40
0.4150943396226415
 40
0.4150943396226415
 40
0.4150943396226415
 40
0.4339622641509434
 40
0.4339622641509434
 40
0.4339622641509434
 40
0.4339622641509434
 40
0.4528301886792453
 40
0.4528301886792453
 40
0.4528301886792453
 40
0.4528301886792453
 40
0.4716981132075471
 40
0.4716981132075471
 40
0.4716981132075471
 40
0.4716981132075471
 40
0.4905660377358491
 40
0.4905660377358491
 40
0.4905660377358491
 40
0.4905660377358491
 40
0.509433962264151
 40
0.509433962264151
 40
0.509433962264151
 40
0.509433962264151
 40
0.5283018867924528
 40
0.5283018867924528
 40
0.5283018867924528
 40
0.5283018867924528
 40
0.5471698113207548
 40
0.5471698113207548
 40
0.5471698113207548
 40
0.5471698113207548
 40
0.5660377358490566
 40
0.5660377358490566
 40
0.5660377358490566
 40
0.5660377358490566
 40
0.5849056603773585
 40
0.5849056603773585
 40
0.5849056603773585
 40
0.5849056603773585
 40
0.6037735849056604
 40
0.6037735849056604
 40
0.6037735849056604
 40
0.6037735849056604
 40
0.6226415094339623
 40
0.6226415094339623
 40
0.6226415094339623
 40
0.6226415094339623
 40
0.6415094339622641
 40
0.6415094339622641
 40
0.6415094339622641
 40
0.6415094339622641
 40
0.6603773584905661
 40
0.6603773584905661
 40
0.6603773584905661
 40
0.6603773584905661
 40
0.6792452830188679
 40
0.6792452830188679
 40
0.6792452830188679
 40
0.6792452830188679
 40
0.6981132075471698
 40
0.6981132075471698
 40
0.6981132075471698
 40
0.6981132075471698
 40
0.7169811320754717
 40
0.7169811320754717
 40
0.7169811320754717
 40
0.7169811320754717
 40
0.7358490566037736
 40
0.7358490566037736
 40
0.7358490566037736
 40
0.7358490566037736
 40
0.7547169811320754
 40
0.7547169811320754
 40
0.7547169811320754
 40
0.7547169811320754
 40
0.7735849056603774
 40
0.7735849056603774
 40
0.7735849056603774
 40
0.7735849056603774
 40
0.7924528301886792
 40
0.7924528301886792
 40
0.7924528301886792
 40
0.7924528301886792
 40
0.811320754716981
 40
0.811320754716981
 40
0.811320754716981
 40
0.811320754716981
 40
0.830188679245283
 40
0.830188679245283
 40
0.830188679245283
 40
0.830188679245283
 40
0.8490566037735847
 40
0.8490566037735847
 40
0.8490566037735847
 40
0.8490566037735847
 40
0.8679245283018866
 40
0.8679245283018866
 40
0.8679245283018866
 40
0.8679245283018866
 40
0.8867924528301886
 40
0.8867924528301886
 40
0.8867924528301886
 40
0.8867924528301886
 40
0.9056603773584905
 40
0.9056603773584905
 40
0.9056603773584905
 40
0.9056603773584905
 40
0.9245283018867922
 40
0.9245283018867922
 40
0.9245283018867922
 40
0.9245283018867922
 40
0.9433962264150942
 40
0.9433962264150942
 40
0.9433962264150942
 40
0.9433962264150942
 40
0.9622641509433961
 40
0.9622641509433961
 40
0.9622641509433961
 40
0.9622641509433961
 40
0.981132075471698
 40
0.981132075471698
 40
0.981132075471698
 40
0.981132075471698
 40
1.0
 40
1.0
 40
1.0
 40
1.0
 10
59.306669
 20
-41.039156
 30
0.0
 10
61.382267
 20
-41.039156
 30
0.0
 10
63.722465
 20
-40.915235
 30
0.0
 10
65.798315
 20
-40.915235
 30
0.0
 10
65.798315
 20
-40.915235
 30
0.0
 10
67.13082800000001
 20
-40.883042
 30
0.0
 10
67.17959
 20
-42.910949
 30
0.0
 10
65.863772
 20
-42.981698
 30
0.0
 10
65.863772
 20
-42.981698
 30
0.0
 10
63.754973
 20
-43.04740699999999
 30
0.0
 10
61.415216
 20
-43.081112
 30
0.0
 10
59.306669
 20
-43.147199
 30
0.0
 10
59.306669
 20
-43.147199
 30
0.0
 10
59.479793
 20
-44.500187
 30
0.0
 10
58.964894
 20
-45.58397600000001
 30
0.0
 10
56.93446699999999
 20
-47.157842
 30
0.0
 10
56.93446699999999
 20
-47.157842
 30
0.0
 10
56.394557
 20
-47.71098199999999
 30
0.0
 10
55.156607
 20
-48.9512
 30
0.0
 10
55.32393500000001
 20
-50.917115
 30
0.0
 10
55.32393500000001
 20
-50.917115
 30
0.0
 10
55.81817
 20
-52.95548
 30
0.0
 10
58.909202
 20
-56.490914
 30
0.0
 10
59.55451100000001
 20
-57.635309
 30
0.0
 10
59.55451100000001
 20
-57.635309
 30
0.0
 10
60.435755
 20
-58.895246
 30
0.0
 10
61.00464500000001
 20
-59.115242
 30
0.0
 10
62.412002
 20
-58.946528
 30
0.0
 10
62.412002
 20
-58.946528
 30
0.0
 10
63.010502
 20
-58.884914
 30
0.0
 10
63.826478
 20
-58.387655
 30
0.0
 10
63.04754599999999
 20
-57.439442
 30
0.0
 10
63.04754599999999
 20
-57.439442
 30
0.0
 10
62.355491
 20
-56.417897
 30
0.0
 10
61.526978
 20
-55.371341
 30
0.0
 10
60.835175
 20
-54.350048
 30
0.0
 10
60.835175
 20
-54.350048
 30
0.0
 10
60.541406
 20
-53.34356
 30
0.0
 10
61.677107
 20
-52.412357
 30
0.0
 10
62.617004
 20
-53.283269
 30
0.0
 10
62.617004
 20
-53.283269
 30
0.0
 10
63.473489
 20
-54.37039699999999
 30
0.0
 10
64.206242
 20
-55.568531
 30
0.0
 10
65.06304199999999
 20
-56.655974
 30
0.0
 10
65.06304199999999
 20
-56.655974
 30
0.0
 10
67.538501
 20
-56.432198
 30
0.0
 10
67.009805
 20
-57.363212
 30
0.0
 10
67.214177
 20
-57.635309
 30
0.0
 10
67.214177
 20
-57.635309
 30
0.0
 10
67.883804
 20
-58.295297
 30
0.0
 10
68.649947
 20
-58.336184
 30
0.0
 10
69.306155
 20
-58.29473
 30
0.0
 10
69.306155
 20
-58.29473
 30
0.0
 10
69.83315000000001
 20
-58.22864299999999
 30
0.0
 10
70.228097
 20
-58.048904
 30
0.0
 10
70.714079
 20
-57.859274
 30
0.0
 10
70.714079
 20
-57.859274
 30
0.0
 10
69.75849499999999
 20
-56.541188
 30
0.0
 10
68.789303
 20
-55.323461
 30
0.0
 10
67.83397100000001
 20
-54.00569
 30
0.0
 10
67.83397100000001
 20
-54.00569
 30
0.0
 10
67.374953
 20
-53.058863
 30
0.0
 10
68.848649
 20
-52.139693
 30
0.0
 10
69.46025300000001
 20
-52.819463
 30
0.0
 10
69.46025300000001
 20
-52.819463
 30
0.0
 10
70.349687
 20
-53.873642
 30
0.0
 10
71.060579
 20
-55.001279
 30
0.0
 10
71.95032799999999
 20
-56.055773
 30
0.0
 10
71.95032799999999
 20
-56.055773
 30
0.0
 10
74.645405
 20
-55.18700299999999
 30
0.0
 10
75.37538600000001
 20
-59.320937
 30
0.0
 10
78.02945
 20
-57.915596
 30
0.0
 10
78.02945
 20
-57.915596
 30
0.0
 10
78.72043399999999
 20
-57.413927
 30
0.0
 10
78.601238
 20
-56.963918
 30
0.0
 10
77.867288
 20
-56.254979
 30
0.0
 10
77.867288
 20
-56.254979
 30
0.0
 10
76.76541799999999
 20
-55.247546
 30
0.0
 10
75.87976400000001
 20
-54.548687
 30
0.0
 10
74.924432
 20
-53.659253
 30
0.0
 10
74.924432
 20
-53.659253
 30
0.0
 10
74.445884
 20
-52.815494
 30
0.0
 10
75.368267
 20
-51.565889
 30
0.0
 10
76.495463
 20
-52.302422
 30
0.0
 10
76.495463
 20
-52.302422
 30
0.0
 10
81.76805900000001
 20
-56.728424
 30
0.0
 10
84.01123700000001
 20
-59.526254
 30
0.0
 10
86.74134200000001
 20
-56.115875
 30
0.0
 10
86.74134200000001
 20
-56.115875
 30
0.0
 10
85.25857400000001
 20
-55.324973
 30
0.0
 10
83.750417
 20
-54.57344599999999
 30
0.0
 10
82.267901
 20
-53.782796
 30
0.0
 10
82.267901
 20
-53.782796
 30
0.0
 10
81.61289000000001
 20
-53.180642
 30
0.0
 10
82.52765000000001
 20
-51.730823
 30
0.0
 10
83.306582
 20
-52.061762
 30
0.0
 10
83.306582
 20
-52.061762
 30
0.0
 10
84.65730200000001
 20
-52.687667
 30
0.0
 10
86.008148
 20
-53.377895
 30
0.0
 10
87.35918299999999
 20
-54.004052
 30
0.0
 10
87.35918299999999
 20
-54.004052
 30
0.0
 10
88.323335
 20
-53.725403
 30
0.0
 10
89.10755900000001
 20
-51.64167800000001
 30
0.0
 10
87.081794
 20
-50.61742399999999
 30
0.0
 10
87.081794
 20
-50.61742399999999
 30
0.0
 10
84.643505
 20
-49.497032
 30
0.0
 10
82.20534200000001
 20
-48.376766
 30
0.0
 10
79.76736800000001
 20
-47.256689
 30
0.0
 10
79.76736800000001
 20
-47.256689
 30
0.0
 10
79.239995
 20
-47.091818
 30
0.0
 10
78.71287399999999
 20
-46.927073
 30
0.0
 10
78.185816
 20
-46.762517
 30
0.0
 10
78.185816
 20
-46.762517
 30
0.0
 10
73.215998
 20
-45.50365099999999
 30
0.0
 10
74.33670499999999
 20
-43.554683
 30
0.0
 10
76.78778300000001
 20
-43.714577
 30
0.0
 10
76.78778300000001
 20
-43.714577
 30
0.0
 10
82.91106799999999
 20
-44.014142
 30
0.0
 10
84.53293999999999
 20
-43.529168
 30
0.0
 10
84.83344999999999
 20
-41.268539
 30
0.0
 10
84.83344999999999
 20
-41.268539
 30
0.0
 10
85.35635
 20
-37.638353
 30
0.0
 10
81.61528399999999
 20
-38.708912
 30
0.0
 10
79.330652
 20
-38.739908
 30
0.0
 10
79.330652
 20
-38.739908
 30
0.0
 10
74.668463
 20
-39.067886
 30
0.0
 10
72.881846
 20
-38.166419
 30
0.0
 10
75.89620700000001
 20
-36.425225
 30
0.0
 10
75.89620700000001
 20
-36.425225
 30
0.0
 10
79.51177699999999
 20
-34.920407
 30
0.0
 10
83.151539
 20
-33.22577
 30
0.0
 10
86.09332400000001
 20
-30.453266
 30
0.0
 10
86.09332400000001
 20
-30.453266
 30
0.0
 10
87.530291
 20
-29.457425
 30
0.0
 10
87.40637000000001
 20
-28.05662
 30
0.0
 10
86.26947200000001
 20
-27.170021
 30
0.0
 10
86.26947200000001
 20
-27.170021
 30
0.0
 10
85.098239
 20
-28.111241
 30
0.0
 10
83.87780300000001
 20
-29.147654
 30
0.0
 10
82.641428
 20
-30.027827
 30
0.0
 10
82.641428
 20
-30.027827
 30
0.0
 10
81.54913400000001
 20
-30.72278
 30
0.0
 10
80.545796
 20
-29.180603
 30
0.0
 10
81.29070799999999
 20
-28.41446
 30
0.0
 10
81.29070799999999
 20
-28.41446
 30
0.0
 10
82.80611
 20
-27.261434
 30
0.0
 10
84.25126699999999
 20
-26.265719
 30
0.0
 10
85.85726300000001
 20
-25.112378
 30
0.0
 10
85.85726300000001
 20
-25.112378
 30
0.0
 10
83.321009
 20
-22.11005
 30
0.0
 10
78.97230799999999
 20
-26.109794
 30
0.0
 10
75.076136
 20
-30.459944
 30
0.0
 10
75.076136
 20
-30.459944
 30
0.0
 10
74.451806
 20
-31.103741
 30
0.0
 10
72.809837
 20
-30.374768
 30
0.0
 10
73.52198900000001
 20
-29.072369
 30
0.0
 10
73.52198900000001
 20
-29.072369
 30
0.0
 10
74.215241
 20
-28.331741
 30
0.0
 10
77.95385
 20
-24.506444
 30
0.0
 10
77.74733600000001
 20
-24.382523
 30
0.0
 10
77.74733600000001
 20
-24.382523
 30
0.0
 10
76.923485
 20
-24.382649
 30
0.0
 10
76.241762
 20
-24.382649
 30
0.0
 10
75.418226
 20
-24.423851
 30
0.0
 10
75.418226
 20
-24.423851
 30
0.0
 10
73.86949699999999
 20
-25.214753
 30
0.0
 10
73.190483
 20
-26.630426
 30
0.0
 10
71.22910400000001
 20
-26.925455
 30
0.0
 10
71.22910400000001
 20
-26.925455
 30
0.0
 10
70.30640599999999
 20
-28.078733
 30
0.0
 10
69.366005
 20
-29.413514
 30
0.0
 10
68.443559
 20
-30.56654
 30
0.0
 10
68.443559
 20
-30.56654
 30
0.0
 10
67.59406699999999
 20
-31.206998
 30
0.0
 10
66.43556
 20
-30.307673
 30
0.0
 10
66.844178
 20
-29.283419
 30
0.0
 10
66.844178
 20
-29.283419
 30
0.0
 10
67.733612
 20
-28.130393
 30
0.0
 10
68.40046700000001
 20
-27.18596
 30
0.0
 10
69.290216
 20
-26.032682
 30
0.0
 10
69.290216
 20
-26.032682
 30
0.0
 10
70.138952
 20
-25.020965
 30
0.0
 10
69.670421
 20
-24.660227
 30
0.0
 10
68.17952599999999
 20
-24.584186
 30
0.0
 10
68.17952599999999
 20
-24.584186
 30
0.0
 10
66.40160299999999
 20
-24.304907
 30
0.0
 10
67.06675699999999
 20
-27.644663
 30
0.0
 10
63.980576
 20
-27.223949
 30
0.0
 10
63.980576
 20
-27.223949
 30
0.0
 10
63.32146999999999
 20
-28.410239
 30
0.0
 10
62.2574
 20
-29.844308
 30
0.0
 10
61.598609
 20
-31.030283
 30
0.0
 10
61.598609
 20
-31.030283
 30
0.0
 10
61.22482999999999
 20
-31.740671
 30
0.0
 10
59.54474600000001
 20
-31.455722
 30
0.0
 10
59.793029
 20
-30.108656
 30
0.0
 10
59.793029
 20
-30.108656
 30
0.0
 10
60.201017
 20
-29.219033
 30
0.0
 10
62.539829
 20
-25.94901800000001
 30
0.0
 10
62.21204
 20
-25.808213
 30
0.0
 10
62.21204
 20
-25.808213
 30
0.0
 10
60.124913
 20
-24.959477
 30
0.0
 10
59.327333
 20
-25.998788
 30
0.0
 10
58.679756
 20
-26.880032
 30
0.0
 10
58.679756
 20
-26.880032
 30
0.0
 10
57.841352
 20
-28.103996
 30
0.0
 10
56.094173
 20
-31.103615
 30
0.0
 10
54.883754
 20
-33.772673
 30
0.0
 10
54.883754
 20
-33.772673
 30
0.0
 10
54.25199
 20
-37.887518
 30
0.0
 10
58.080311
 20
-35.933447
 30
0.0
 10
59.306669
 20
-41.039156
 30
0.0
  0
SPLINE
  5
35
330
1F
100
AcDbEntity
  8
Layer 1
 62
    22
370
     5
100
AcDbSpline
210
0.0
220
0.0
230
1.0
 70
    11
 71
     3
 72
   132
 73
   128
 74
     0
 42
0.0000000001
 43
0.0000000001
 40
0.0
 40
0.0
 40
0.0
 40
0.0
 40
0.03125
 40
0.03125
 40
0.03125
 40
0.03125
 40
0.0625
 40
0.0625
 40
0.0625
 40
0.0625
 40
0.09375
 40
0.09375
 40
0.09375
 40
0.09375
 40
0.125
 40
0.125
 40
0.125
 40
0.125
 40
0.15625
 40
0.15625
 40
0.15625
 40
0.15625
 40
0.1875
 40
0.1875
 40
0.1875
 40
0.1875
 40
0.21875
 40
0.21875
 40
0.21875
 40
0.21875
 40
0.25
 40
0.25
 40
0.25
 40
0.25
 40
0.28125
 40
0.28125
 40
0.28125
 40
0.28125
 40
0.3125
 40
0.3125
 40
0.3125
 40
0.3125
 40
0.34375
 40
0.34375
 40
0.34375
 40
0.34375
 40
0.375
 40
0.375
 40
0.375
 40
0.375
 40
0.40625
 40
0.40625
 40
0.40625
 40
0.40625
 40
0.4375
 40
0.4375
 40
0.4375
 40
0.4375
 40
0.46875
 40
0.46875
 40
0.46875
 40
0.46875
 40
0.5
 40
0.5
 40
0.5
 40
0.5
 40
0.53125
 40
0.53125
 40
0.53125
 40
0.53125
 40
0.5625
 40
0.5625
 40
0.5625
 40
0.5625
 40
0.59375
 40
0.59375
 40
0.59375
 40
0.59375
 40
0.625
 40
0.625
 40
0.625
 40
0.625
 40
0.65625
 40
0.65625
 40
0.65625
 40
0.65625
 40
0.6875
 40
0.6875
 40
0.6875
 40
0.6875
 40
0.71875
 40
0.71875
 40
0.71875
 40
0.71875
 40
0.75
 40
0.75
 40
0.75
 40
0.75
 40
0.78125
 40
0.78125
 40
0.78125
 40
0.78125
 40
0.8125
 40
0.8125
 40
0.8125
 40
0.8125
 40
0.84375
 40
0.84375
 40
0.84375
 40
0.84375
 40
0.875
 40
0.875
 40
0.875
 40
0.875
 40
0.90625
 40
0.90625
 40
0.90625
 40
0.90625
 40
0.9375
 40
0.9375
 40
0.9375
 40
0.9375
 40
0.96875
 40
0.96875
 40
0.96875
 40
0.96875
 40
1.0
 40
1.0
 40
1.0
 40
1.0
 10
-10.200349
 20
-52.39163000000001
 30
0.0
 10
-10.200349
 20
-52.39163000000001
 30
0.0
 10
-6.464574999999996
 20
-59.186306
 30
0.0
 10
-6.464574999999996
 20
-59.186306
 30
0.0
 10
-6.464574999999996
 20
-59.186306
 30
0.0
 10
-5.807484999999999
 20
-60.330575
 30
0.0
 10
-7.476481000000006
 20
-61.33290500000001
 30
0.0
 10
-8.221141000000002
 20
-60.361949
 30
0.0
 10
-8.221141000000002
 20
-60.361949
 30
0.0
 10
-8.221141000000002
 20
-60.361949
 30
0.0
 10
-11.76085900000001
 20
-53.975954
 30
0.0
 10
-11.76085900000001
 20
-53.975954
 30
0.0
 10
-11.76085900000001
 20
-53.975954
 30
0.0
 10
-14.593276
 20
-55.587683
 30
0.0
 10
-13.58389000000001
 20
-58.017719
 30
0.0
 10
-10.180441
 20
-63.808301
 30
0.0
 10
-10.180441
 20
-63.808301
 30
0.0
 10
-7.333030000000007
 20
-68.999627
 30
0.0
 10
-6.897132999999996
 20
-70.53815
 30
0.0
 10
-4.269214000000005
 20
-70.629752
 30
0.0
 10
-4.269214000000005
 20
-70.629752
 30
0.0
 10
-2.534131000000002
 20
-70.340141
 30
0.0
 10
-1.777878999999998
 20
-71.745608
 30
0.0
 10
-1.089100000000001
 20
-73.13753
 30
0.0
 10
-1.089100000000001
 20
-73.13753
 30
0.0
 10
0.7012969999999968
 20
-76.121714
 30
0.0
 10
7.344709999999999
 20
-75.522332
 30
0.0
 10
16.100513
 20
-73.75600099999999
 30
0.0
 10
16.100513
 20
-73.75600099999999
 30
0.0
 10
16.100513
 20
-73.75600099999999
 30
0.0
 10
30.537026
 20
-68.55056300000001
 30
0.0
 10
30.537026
 20
-68.55056300000001
 30
0.0
 10
30.537026
 20
-68.55056300000001
 30
0.0
 10
35.525114
 20
-65.641349
 30
0.0
 10
27.980234
 20
-65.08121600000001
 30
0.0
 10
31.246406
 20
-62.241239
 30
0.0
 10
31.246406
 20
-62.241239
 30
0.0
 10
33.24577400000001
 20
-59.795768
 30
0.0
 10
29.8502
 20
-54.209621
 30
0.0
 10
25.410149
 20
-49.954286
 30
0.0
 10
25.410149
 20
-49.954286
 30
0.0
 10
25.410149
 20
-49.954286
 30
0.0
 10
17.84214799999999
 20
-43.576607
 30
0.0
 10
17.84214799999999
 20
-43.576607
 30
0.0
 10
17.84214799999999
 20
-43.576607
 30
0.0
 10
15.89015599999999
 20
-41.901752
 30
0.0
 10
16.681436
 20
-39.173789
 30
0.0
 10
14.458481
 20
-37.79453
 30
0.0
 10
14.458481
 20
-37.79453
 30
0.0
 10
13.50472399999999
 20
-36.786278
 30
0.0
 10
13.57604
 20
-35.800454
 30
0.0
 10
14.672492
 20
-34.836995
 30
0.0
 10
14.672492
 20
-34.836995
 30
0.0
 10
15.123509
 20
-34.397066
 30
0.0
 10
15.487145
 20
-33.471092
 30
0.0
 10
15.763211
 20
-32.05888400000001
 30
0.0
 10
15.763211
 20
-32.05888400000001
 30
0.0
 10
16.77933799999999
 20
-30.267605
 30
0.0
 10
18.078209
 20
-31.552994
 30
0.0
 10
18.74645
 20
-32.147651
 30
0.0
 10
18.74645
 20
-32.147651
 30
0.0
 10
23.535017
 20
-38.124146
 30
0.0
 10
26.99756
 20
-38.46661400000001
 30
0.0
 10
28.598768
 20
-35.55236
 30
0.0
 10
28.598768
 20
-35.55236
 30
0.0
 10
28.598768
 20
-35.55236
 30
0.0
 10
22.52708
 20
-31.334573
 30
0.0
 10
22.52708
 20
-31.334573
 30
0.0
 10
22.52708
 20
-31.334573
 30
0.0
 10
21.150278
 20
-30.519101
 30
0.0
 10
22.283522
 20
-28.63559
 30
0.0
 10
23.780402
 20
-29.626013
 30
0.0
 10
23.780402
 20
-29.626013
 30
0.0
 10
23.780402
 20
-29.626013
 30
0.0
 10
29.705489
 20
-33.736259
 30
0.0
 10
29.705489
 20
-33.736259
 30
0.0
 10
29.705489
 20
-33.736259
 30
0.0
 10
30.61376
 20
-32.46334400000001
 30
0.0
 10
31.292396
 20
-30.002438
 30
0.0
 10
28.115243
 20
-28.454339
 30
0.0
 10
28.115243
 20
-28.454339
 30
0.0
 10
24.797411
 20
-26.175692
 30
0.0
 10
20.43485
 20
-25.227542
 30
0.0
 10
18.24446599999999
 20
-21.213749
 30
0.0
 10
18.24446599999999
 20
-21.213749
 30
0.0
 10
15.141275
 20
-17.539715
 30
0.0
 10
11.748914
 20
-19.798391
 30
0.0
 10
12.417092
 20
-23.544119
 30
0.0
 10
12.417092
 20
-23.544119
 30
0.0
 10
12.848327
 20
-25.957901
 30
0.0
 10
11.987432
 20
-27.82604
 30
0.0
 10
9.834217999999999
 20
-29.148599
 30
0.0
 10
9.834217999999999
 20
-29.148599
 30
0.0
 10
7.852615999999997
 20
-30.334322
 30
0.0
 10
7.761580999999999
 20
-32.57378300000001
 30
0.0
 10
9.152116999999996
 20
-34.09832
 30
0.0
 10
9.152116999999996
 20
-34.09832
 30
0.0
 10
11.46465799999999
 20
-36.392654
 30
0.0
 10
6.103105999999996
 20
-38.449793
 30
0.0
 10
10.35295999999999
 20
-41.912903
 30
0.0
 10
10.35295999999999
 20
-41.912903
 30
0.0
 10
15.7823
 20
-45.187328
 30
0.0
 10
20.023334
 20
-49.43541800000001
 30
0.0
 10
22.528529
 20
-55.106111
 30
0.0
 10
22.528529
 20
-55.106111
 30
0.0
 10
23.33789
 20
-57.002222
 30
0.0
 10
23.90583499999999
 20
-59.349287
 30
0.0
 10
25.862804
 20
-61.129163
 30
0.0
 10
25.862804
 20
-61.129163
 30
0.0
 10
26.926055
 20
-62.286914
 30
0.0
 10
26.911187
 20
-63.22403900000001
 30
0.0
 10
24.82141400000001
 20
-63.666236
 30
0.0
 10
24.82141400000001
 20
-63.666236
 30
0.0
 10
17.56954699999999
 20
-64.30165400000001
 30
0.0
 10
10.25965699999999
 20
-66.12210199999999
 30
0.0
 10
3.032485999999991
 20
-69.38417900000001
 30
0.0
 10
3.032485999999991
 20
-69.38417900000001
 30
0.0
 10
1.384343000000001
 20
-70.196312
 30
0.0
 10
0.2168900000000065
 20
-69.117878
 30
0.0
 10
0.8579779999999885
 20
-67.895048
 30
0.0
 10
0.8579779999999885
 20
-67.895048
 30
0.0
 10
1.667338999999998
 20
-66.568583
 30
0.0
 10
1.598606000000003
 20
-65.287226
 30
0.0
 10
0.814193000000003
 20
-63.961013
 30
0.0
 10
0.814193000000003
 20
-63.961013
 30
0.0
 10
-1.104031000000006
 20
-60.877667
 30
0.0
 10
-5.602041999999997
 20
-50.200931
 30
0.0
 10
-10.200349
 20
-52.39163000000001
 30
0.0
  0
SPLINE
  5
36
330
1F
100
AcDbEntity
  8
Layer 1
 62
    22
370
     5
100
AcDbSpline
210
0.0
220
0.0
230
1.0
 70
    11
 71
     3
 72
    96
 73
    92
 74
     0
 42
0.0000000001
 43
0.0000000001
 40
0.0
 40
0.0
 40
0.0
 40
0.0
 40
0.0434782608695652
 40
0.0434782608695652
 40
0.0434782608695652
 40
0.0434782608695652
 40
0.0869565217391305
 40
0.0869565217391305
 40
0.0869565217391305
 40
0.0869565217391305
 40
0.1304347826086956
 40
0.1304347826086956
 40
0.1304347826086956
 40
0.1304347826086956
 40
0.1739130434782609
 40
0.1739130434782609
 40
0.1739130434782609
 40
0.1739130434782609
 40
0.2173913043478261
 40
0.2173913043478261
 40
0.2173913043478261
 40
0.2173913043478261
 40
0.2608695652173913
 40
0.2608695652173913
 40
0.2608695652173913
 40
0.2608695652173913
 40
0.3043478260869565
 40
0.3043478260869565
 40
0.3043478260869565
 40
0.3043478260869565
 40
0.3478260869565217
 40
0.3478260869565217
 40
0.3478260869565217
 40
0.3478260869565217
 40
0.3913043478260869
 40
0.3913043478260869
 40
0.3913043478260869
 40
0.3913043478260869
 40
0.4347826086956522
 40
0.4347826086956522
 40
0.4347826086956522
 40
0.4347826086956522
 40
0.4782608695652173
 40
0.4782608695652173
 40
0.4782608695652173
 40
0.4782608695652173
 40
0.5217391304347825
 40
0.5217391304347825
 40
0.5217391304347825
 40
0.5217391304347825
 40
0.5652173913043477
 40
0.5652173913043477
 40
0.5652173913043477
 40
0.5652173913043477
 40
0.6086956521739129
 40
0.6086956521739129
 40
0.6086956521739129
 40
0.6086956521739129
 40
0.6521739130434781
 40
0.6521739130434781
 40
0.6521739130434781
 40
0.6521739130434781
 40
0.6956521739130432
 40
0.6956521739130432
 40
0.6956521739130432
 40
0.6956521739130432
 40
0.7391304347826085
 40
0.7391304347826085
 40
0.7391304347826085
 40
0.7391304347826085
 40
0.7826086956521737
 40
0.7826086956521737
 40
0.7826086956521737
 40
0.7826086956521737
 40
0.8260869565217387
 40
0.8260869565217387
 40
0.8260869565217387
 40
0.8260869565217387
 40
0.8695652173913039
 40
0.8695652173913039
 40
0.8695652173913039
 40
0.8695652173913039
 40
0.9130434782608691
 40
0.9130434782608691
 40
0.9130434782608691
 40
0.9130434782608691
 40
0.9565217391304344
 40
0.9565217391304344
 40
0.9565217391304344
 40
0.9565217391304344
 40
1.0
 40
1.0
 40
1.0
 40
1.0
 10
152.751482
 20
-73.886348
 30
0.0
 10
149.107121
 20
-72.695711
 30
0.0
 10
147.765536
 20
-75.64990700000001
 30
0.0
 10
152.613512
 20
-76.08618200000001
 30
0.0
 10
152.613512
 20
-76.08618200000001
 30
0.0
 10
155.056022
 20
-76.506518
 30
0.0
 10
156.564431
 20
-76.20210199999999
 30
0.0
 10
157.389164
 20
-74.187614
 30
0.0
 10
157.389164
 20
-74.187614
 30
0.0
 10
157.389164
 20
-74.187614
 30
0.0
 10
160.136657
 20
-66.92194999999999
 30
0.0
 10
160.136657
 20
-66.92194999999999
 30
0.0
 10
160.136657
 20
-66.92194999999999
 30
0.0
 10
161.545211
 20
-64.392122
 30
0.0
 10
162.621629
 20
-63.174836
 30
0.0
 10
164.405222
 20
-61.647653
 30
0.0
 10
164.405222
 20
-61.647653
 30
0.0
 10
165.649913
 20
-59.821409
 30
0.0
 10
166.707683
 20
-58.956923
 30
0.0
 10
168.389216
 20
-55.428356
 30
0.0
 10
168.389216
 20
-55.428356
 30
0.0
 10
169.391042
 20
-53.40089
 30
0.0
 10
170.596106
 20
-53.43806
 30
0.0
 10
171.914318
 20
-55.68048199999999
 30
0.0
 10
171.914318
 20
-55.68048199999999
 30
0.0
 10
172.689785
 20
-57.744362
 30
0.0
 10
173.133809
 20
-59.768678
 30
0.0
 10
176.261948
 20
-61.59404000000001
 30
0.0
 10
176.261948
 20
-61.59404000000001
 30
0.0
 10
177.381836
 20
-62.226875
 30
0.0
 10
177.625583
 20
-62.509241
 30
0.0
 10
177.577388
 20
-63.70787899999999
 30
0.0
 10
177.577388
 20
-63.70787899999999
 30
0.0
 10
176.931197
 20
-65.48838499999999
 30
0.0
 10
180.170342
 20
-70.11264800000001
 30
0.0
 10
182.87783
 20
-72.867134
 30
0.0
 10
182.87783
 20
-72.867134
 30
0.0
 10
184.863779
 20
-74.52768800000001
 30
0.0
 10
186.430589
 20
-72.894791
 30
0.0
 10
188.462843
 20
-75.17992699999999
 30
0.0
 10
188.462843
 20
-75.17992699999999
 30
0.0
 10
190.07747
 20
-76.250297
 30
0.0
 10
192.342131
 20
-76.493099
 30
0.0
 10
194.140529
 20
-76.60637300000001
 30
0.0
 10
194.140529
 20
-76.60637300000001
 30
0.0
 10
196.592489
 20
-76.795121
 30
0.0
 10
199.01969
 20
-77.962511
 30
0.0
 10
200.284919
 20
-74.66339000000001
 30
0.0
 10
200.284919
 20
-74.66339000000001
 30
0.0
 10
200.284919
 20
-74.66339000000001
 30
0.0
 10
195.038972
 20
-73.75171700000001
 30
0.0
 10
195.038972
 20
-73.75171700000001
 30
0.0
 10
195.038972
 20
-73.75171700000001
 30
0.0
 10
193.509269
 20
-73.51817600000001
 30
0.0
 10
194.139773
 20
-71.56026199999999
 30
0.0
 10
195.224381
 20
-71.68437199999999
 30
0.0
 10
195.224381
 20
-71.68437199999999
 30
0.0
 10
195.224381
 20
-71.68437199999999
 30
0.0
 10
200.076389
 20
-72.47439200000001
 30
0.0
 10
200.076389
 20
-72.47439200000001
 30
0.0
 10
200.076389
 20
-72.47439200000001
 30
0.0
 10
201.882788
 20
-69.52164500000001
 30
0.0
 10
190.718936
 20
-67.402577
 30
0.0
 10
187.951346
 20
-69.73943600000001
 30
0.0
 10
187.951346
 20
-69.73943600000001
 30
0.0
 10
186.8714
 20
-70.23430100000002
 30
0.0
 10
186.098705
 20
-69.654512
 30
0.0
 10
186.271136
 20
-68.79021500000002
 30
0.0
 10
186.271136
 20
-68.79021500000002
 30
0.0
 10
186.10973
 20
-65.93303900000001
 30
0.0
 10
183.457493
 20
-63.259445
 30
0.0
 10
179.267363
 20
-60.871304
 30
0.0
 10
179.267363
 20
-60.871304
 30
0.0
 10
178.505378
 20
-57.629072
 30
0.0
 10
175.997789
 20
-54.20086399999999
 30
0.0
 10
172.697219
 20
-50.687795
 30
0.0
 10
172.697219
 20
-50.687795
 30
0.0
 10
171.546902
 20
-50.035808
 30
0.0
 10
170.951615
 20
-50.502008
 30
0.0
 10
169.84817
 20
-50.76956899999999
 30
0.0
 10
169.84817
 20
-50.76956899999999
 30
0.0
 10
166.99868
 20
-49.411352
 30
0.0
 10
164.981357
 20
-52.911191
 30
0.0
 10
162.03806
 20
-57.494
 30
0.0
 10
162.03806
 20
-57.494
 30
0.0
 10
159.359174
 20
-61.66523
 30
0.0
 10
157.22801
 20
-65.383616
 30
0.0
 10
155.994848
 20
-71.00624
 30
0.0
 10
155.994848
 20
-71.00624
 30
0.0
 10
155.326418
 20
-72.908966
 30
0.0
 10
154.245338
 20
-73.869023
 30
0.0
 10
152.751482
 20
-73.886348
 30
0.0
  0
SPLINE
  5
37
330
1F
100
AcDbEntity
  8
Layer 1
 62
    22
370
     5
100
AcDbSpline
210
0.0
220
0.0
230
1.0
 70
    11
 71
     3
 72
   100
 73
    96
 74
     0
 42
0.0000000001
 43
0.0000000001
 40
0.0
 40
0.0
 40
0.0
 40
0.0
 40
0.0416666666666667
 40
0.0416666666666667
 40
0.0416666666666667
 40
0.0416666666666667
 40
0.0833333333333333
 40
0.0833333333333333
 40
0.0833333333333333
 40
0.0833333333333333
 40
0.125
 40
0.125
 40
0.125
 40
0.125
 40
0.1666666666666666
 40
0.1666666666666666
 40
0.1666666666666666
 40
0.1666666666666666
 40
0.2083333333333333
 40
0.2083333333333333
 40
0.2083333333333333
 40
0.2083333333333333
 40
0.25
 40
0.25
 40
0.25
 40
0.25
 40
0.2916666666666666
 40
0.2916666666666666
 40
0.2916666666666666
 40
0.2916666666666666
 40
0.3333333333333333
 40
0.3333333333333333
 40
0.3333333333333333
 40
0.3333333333333333
 40
0.375
 40
0.375
 40
0.375
 40
0.375
 40
0.4166666666666667
 40
0.4166666666666667
 40
0.4166666666666667
 40
0.4166666666666667
 40
0.4583333333333334
 40
0.4583333333333334
 40
0.4583333333333334
 40
0.4583333333333334
 40
0.5
 40
0.5
 40
0.5
 40
0.5
 40
0.5416666666666666
 40
0.5416666666666666
 40
0.5416666666666666
 40
0.5416666666666666
 40
0.5833333333333333
 40
0.5833333333333333
 40
0.5833333333333333
 40
0.5833333333333333
 40
0.625
 40
0.625
 40
0.625
 40
0.625
 40
0.6666666666666666
 40
0.6666666666666666
 40
0.6666666666666666
 40
0.6666666666666666
 40
0.7083333333333332
 40
0.7083333333333332
 40
0.7083333333333332
 40
0.7083333333333332
 40
0.7499999999999999
 40
0.7499999999999999
 40
0.7499999999999999
 40
0.7499999999999999
 40
0.7916666666666665
 40
0.7916666666666665
 40
0.7916666666666665
 40
0.7916666666666665
 40
0.833333333333333
 40
0.833333333333333
 40
0.833333333333333
 40
0.833333333333333
 40
0.8749999999999996
 40
0.8749999999999996
 40
0.8749999999999996
 40
0.8749999999999996
 40
0.9166666666666662
 40
0.9166666666666662
 40
0.9166666666666662
 40
0.9166666666666662
 40
0.9583333333333328
 40
0.9583333333333328
 40
0.9583333333333328
 40
0.9583333333333328
 40
1.0
 40
1.0
 40
1.0
 40
1.0
 10
147.726161
 20
-64.733834
 30
0.0
 10
146.306645
 20
-64.966808
 30
0.0
 10
146.830931
 20
-66.381662
 30
0.0
 10
148.19255
 20
-66.51660799999999
 30
0.0
 10
148.19255
 20
-66.51660799999999
 30
0.0
 10
148.19255
 20
-66.51660799999999
 30
0.0
 10
152.509184
 20
-67.08826999999999
 30
0.0
 10
152.509184
 20
-67.08826999999999
 30
0.0
 10
152.509184
 20
-67.08826999999999
 30
0.0
 10
153.643184
 20
-67.13803999999999
 30
0.0
 10
154.52594
 20
-66.65709799999999
 30
0.0
 10
155.294036
 20
-64.624025
 30
0.0
 10
155.294036
 20
-64.624025
 30
0.0
 10
156.302162
 20
-62.30071099999999
 30
0.0
 10
157.368941
 20
-59.491226
 30
0.0
 10
157.959125
 20
-56.628506
 30
0.0
 10
157.959125
 20
-56.628506
 30
0.0
 10
158.702021
 20
-55.12375099999999
 30
0.0
 10
159.692381
 20
-53.925302
 30
0.0
 10
161.221958
 20
-52.924169
 30
0.0
 10
161.221958
 20
-52.924169
 30
0.0
 10
164.265803
 20
-50.850839
 30
0.0
 10
166.165253
 20
-47.871695
 30
0.0
 10
168.166007
 20
-44.11928899999999
 30
0.0
 10
168.166007
 20
-44.11928899999999
 30
0.0
 10
168.71102
 20
-43.072292
 30
0.0
 10
169.631639
 20
-42.709034
 30
0.0
 10
170.478926
 20
-43.037768
 30
0.0
 10
170.478926
 20
-43.037768
 30
0.0
 10
173.372642
 20
-46.590401
 30
0.0
 10
174.168962
 20
-50.647538
 30
0.0
 10
179.160641
 20
-53.695478
 30
0.0
 10
179.160641
 20
-53.695478
 30
0.0
 10
180.372635
 20
-59.216294
 30
0.0
 10
189.018251
 20
-66.48517100000001
 30
0.0
 10
191.889224
 20
-65.14314500000001
 30
0.0
 10
191.889224
 20
-65.14314500000001
 30
0.0
 10
194.324237
 20
-67.095704
 30
0.0
 10
196.317431
 20
-68.05702099999999
 30
0.0
 10
199.100204
 20
-68.12121799999999
 30
0.0
 10
199.100204
 20
-68.12121799999999
 30
0.0
 10
200.929346
 20
-68.355704
 30
0.0
 10
204.472025
 20
-69.931397
 30
0.0
 10
205.305263
 20
-66.388655
 30
0.0
 10
205.305263
 20
-66.388655
 30
0.0
 10
205.305263
 20
-66.388655
 30
0.0
 10
200.195018
 20
-65.58767299999999
 30
0.0
 10
200.195018
 20
-65.58767299999999
 30
0.0
 10
200.195018
 20
-65.58767299999999
 30
0.0
 10
198.728693
 20
-65.407493
 30
0.0
 10
198.993482
 20
-63.489647
 30
0.0
 10
200.162951
 20
-63.496766
 30
0.0
 10
200.162951
 20
-63.496766
 30
0.0
 10
200.162951
 20
-63.496766
 30
0.0
 10
205.430759
 20
-64.36478
 30
0.0
 10
205.430759
 20
-64.36478
 30
0.0
 10
205.430759
 20
-64.36478
 30
0.0
 10
205.506296
 20
-62.63253200000001
 30
0.0
 10
204.275213
 20
-62.093063
 30
0.0
 10
203.082749
 20
-61.71399199999999
 30
0.0
 10
203.082749
 20
-61.71399199999999
 30
0.0
 10
198.927962
 20
-60.603491
 30
0.0
 10
194.438834
 20
-60.30650900000001
 30
0.0
 10
192.704255
 20
-61.72445
 30
0.0
 10
192.704255
 20
-61.72445
 30
0.0
 10
190.806128
 20
-61.1921
 30
0.0
 10
191.546441
 20
-58.703033
 30
0.0
 10
186.460136
 20
-54.78934699999999
 30
0.0
 10
186.460136
 20
-54.78934699999999
 30
0.0
 10
184.750379
 20
-53.602112
 30
0.0
 10
183.174119
 20
-52.638716
 30
0.0
 10
180.953684
 20
-51.816566
 30
0.0
 10
180.953684
 20
-51.816566
 30
0.0
 10
179.731043
 20
-48.20528
 30
0.0
 10
176.697719
 20
-44.540192
 30
0.0
 10
173.177279
 20
-41.206862
 30
0.0
 10
173.177279
 20
-41.206862
 30
0.0
 10
172.583252
 20
-40.19363300000001
 30
0.0
 10
171.061046
 20
-39.399014
 30
0.0
 10
169.241543
 20
-40.26161
 30
0.0
 10
169.241543
 20
-40.26161
 30
0.0
 10
165.883517
 20
-39.461447
 30
0.0
 10
165.278402
 20
-40.942199
 30
0.0
 10
164.168153
 20
-42.173219
 30
0.0
 10
164.168153
 20
-42.173219
 30
0.0
 10
162.174644
 20
-44.50466
 30
0.0
 10
160.092935
 20
-47.09622799999999
 30
0.0
 10
158.816681
 20
-49.931858
 30
0.0
 10
158.816681
 20
-49.931858
 30
0.0
 10
155.873825
 20
-53.755643
 30
0.0
 10
155.468546
 20
-58.465523
 30
0.0
 10
153.794825
 20
-62.73232400000001
 30
0.0
 10
153.794825
 20
-62.73232400000001
 30
0.0
 10
153.25901
 20
-64.85737700000001
 30
0.0
 10
150.598457
 20
-64.500167
 30
0.0
 10
147.726161
 20
-64.733834
 30
0.0
  0
SPLINE
  5
38
330
1F
100
AcDbEntity
  8
Layer 1
 62
    22
370
     5
100
AcDbSpline
210
0.0
220
0.0
230
1.0
 70
    11
 71
     3
 72
   100
 73
    96
 74
     0
 42
0.0000000001
 43
0.0000000001
 40
0.0
 40
0.0
 40
0.0
 40
0.0
 40
0.0416666666666667
 40
0.0416666666666667
 40
0.0416666666666667
 40
0.0416666666666667
 40
0.0833333333333333
 40
0.0833333333333333
 40
0.0833333333333333
 40
0.0833333333333333
 40
0.125
 40
0.125
 40
0.125
 40
0.125
 40
0.1666666666666666
 40
0.1666666666666666
 40
0.1666666666666666
 40
0.1666666666666666
 40
0.2083333333333333
 40
0.2083333333333333
 40
0.2083333333333333
 40
0.2083333333333333
 40
0.25
 40
0.25
 40
0.25
 40
0.25
 40
0.2916666666666666
 40
0.2916666666666666
 40
0.2916666666666666
 40
0.2916666666666666
 40
0.3333333333333333
 40
0.3333333333333333
 40
0.3333333333333333
 40
0.3333333333333333
 40
0.375
 40
0.375
 40
0.375
 40
0.375
 40
0.4166666666666667
 40
0.4166666666666667
 40
0.4166666666666667
 40
0.4166666666666667
 40
0.4583333333333334
 40
0.4583333333333334
 40
0.4583333333333334
 40
0.4583333333333334
 40
0.5
 40
0.5
 40
0.5
 40
0.5
 40
0.5416666666666666
 40
0.5416666666666666
 40
0.5416666666666666
 40
0.5416666666666666
 40
0.5833333333333333
 40
0.5833333333333333
 40
0.5833333333333333
 40
0.5833333333333333
 40
0.625
 40
0.625
 40
0.625
 40
0.625
 40
0.6666666666666666
 40
0.6666666666666666
 40
0.6666666666666666
 40
0.6666666666666666
 40
0.7083333333333332
 40
0.7083333333333332
 40
0.7083333333333332
 40
0.7083333333333332
 40
0.7499999999999999
 40
0.7499999999999999
 40
0.7499999999999999
 40
0.7499999999999999
 40
0.7916666666666665
 40
0.7916666666666665
 40
0.7916666666666665
 40
0.7916666666666665
 40
0.833333333333333
 40
0.833333333333333
 40
0.833333333333333
 40
0.833333333333333
 40
0.8749999999999996
 40
0.8749999999999996
 40
0.8749999999999996
 40
0.8749999999999996
 40
0.9166666666666662
 40
0.9166666666666662
 40
0.9166666666666662
 40
0.9166666666666662
 40
0.9583333333333328
 40
0.9583333333333328
 40
0.9583333333333328
 40
0.9583333333333328
 40
1.0
 40
1.0
 40
1.0
 40
1.0
 10
145.096667
 20
-55.006634
 30
0.0
 10
143.677151
 20
-55.239545
 30
0.0
 10
143.980937
 20
-56.785817
 30
0.0
 10
145.342556
 20
-56.920763
 30
0.0
 10
145.342556
 20
-56.920763
 30
0.0
 10
145.342556
 20
-56.920763
 30
0.0
 10
149.65919
 20
-57.492425
 30
0.0
 10
149.65919
 20
-57.492425
 30
0.0
 10
149.65919
 20
-57.492425
 30
0.0
 10
150.793253
 20
-57.542195
 30
0.0
 10
153.033596
 20
-56.431505
 30
0.0
 10
153.801755
 20
-54.398369
 30
0.0
 10
153.801755
 20
-54.398369
 30
0.0
 10
154.809818
 20
-52.075118
 30
0.0
 10
155.915846
 20
-47.927513
 30
0.0
 10
157.368374
 20
-45.208244
 30
0.0
 10
157.368374
 20
-45.208244
 30
0.0
 10
158.11127
 20
-43.703552
 30
0.0
 10
160.273556
 20
-42.165281
 30
0.0
 10
161.803133
 20
-41.164148
 30
0.0
 10
161.803133
 20
-41.164148
 30
0.0
 10
164.846978
 20
-39.090818
 30
0.0
 10
166.548608
 20
-37.484444
 30
0.0
 10
168.549362
 20
-33.73203800000001
 30
0.0
 10
168.549362
 20
-33.73203800000001
 30
0.0
 10
169.094375
 20
-32.684978
 30
0.0
 10
169.856423
 20
-32.356496
 30
0.0
 10
170.70371
 20
-32.68523
 30
0.0
 10
170.70371
 20
-32.68523
 30
0.0
 10
171.792665
 20
-33.309623
 30
0.0
 10
175.958477
 20
-44.02365500000001
 30
0.0
 10
181.526921
 20
-45.532694
 30
0.0
 10
181.526921
 20
-45.532694
 30
0.0
 10
182.956391
 20
-49.484369
 30
0.0
 10
188.318825
 20
-53.664041
 30
0.0
 10
192.042062
 20
-55.88699599999999
 30
0.0
 10
192.042062
 20
-55.88699599999999
 30
0.0
 10
193.774436
 20
-57.055016
 30
0.0
 10
195.488162
 20
-56.99107099999999
 30
0.0
 10
196.924058
 20
-56.645075
 30
0.0
 10
196.924058
 20
-56.645075
 30
0.0
 10
199.359071
 20
-58.59763400000001
 30
0.0
 10
201.855194
 20
-59.199473
 30
0.0
 10
204.328385
 20
-59.747006
 30
0.0
 10
204.328385
 20
-59.747006
 30
0.0
 10
206.157527
 20
-59.981429
 30
0.0
 10
209.303117
 20
-61.06660399999999
 30
0.0
 10
210.205844
 20
-57.840941
 30
0.0
 10
210.205844
 20
-57.840941
 30
0.0
 10
210.205844
 20
-57.840941
 30
0.0
 10
205.083503
 20
-56.980676
 30
0.0
 10
205.083503
 20
-56.980676
 30
0.0
 10
205.083503
 20
-56.980676
 30
0.0
 10
203.633243
 20
-56.83817000000001
 30
0.0
 10
203.934131
 20
-54.779519
 30
0.0
 10
205.313579
 20
-54.901046
 30
0.0
 10
205.313579
 20
-54.901046
 30
0.0
 10
205.313579
 20
-54.901046
 30
0.0
 10
210.746321
 20
-55.84793600000001
 30
0.0
 10
210.746321
 20
-55.84793600000001
 30
0.0
 10
210.746321
 20
-55.84793600000001
 30
0.0
 10
210.945716
 20
-53.922404
 30
0.0
 10
209.751047
 20
-53.33222
 30
0.0
 10
208.144799
 20
-52.960646
 30
0.0
 10
208.144799
 20
-52.960646
 30
0.0
 10
203.990012
 20
-51.850208
 30
0.0
 10
198.936089
 20
-52.00928300000001
 30
0.0
 10
197.132021
 20
-53.110145
 30
0.0
 10
197.132021
 20
-53.110145
 30
0.0
 10
196.543538
 20
-50.99107700000001
 30
0.0
 10
189.874421
 20
-44.869934
 30
0.0
 10
183.644729
 20
-43.99814000000001
 30
0.0
 10
183.644729
 20
-43.99814000000001
 30
0.0
 10
182.243546
 20
-39.47744900000001
 30
0.0
 10
176.104511
 20
-31.687184
 30
0.0
 10
174.0635
 20
-30.460196
 30
0.0
 10
174.0635
 20
-30.460196
 30
0.0
 10
173.159954
 20
-29.930177
 30
0.0
 10
172.782458
 20
-29.050949
 30
0.0
 10
170.962955
 20
-29.913608
 30
0.0
 10
170.962955
 20
-29.913608
 30
0.0
 10
168.5759479999999
 20
-28.235918
 30
0.0
 10
166.694705
 20
-29.580842
 30
0.0
 10
165.584519
 20
-30.811799
 30
0.0
 10
165.584519
 20
-30.811799
 30
0.0
 10
162.91439
 20
-32.709863
 30
0.0
 10
158.805971
 20
-35.911586
 30
0.0
 10
154.592468
 20
-43.54523299999999
 30
0.0
 10
154.592468
 20
-43.54523299999999
 30
0.0
 10
152.643374
 20
-47.732969
 30
0.0
 10
153.171314
 20
-49.496402
 30
0.0
 10
151.331462
 20
-53.384132
 30
0.0
 10
151.331462
 20
-53.384132
 30
0.0
 10
150.795647
 20
-55.509185
 30
0.0
 10
147.968963
 20
-54.772967
 30
0.0
 10
145.096667
 20
-55.006634
 30
0.0
  0
SPLINE
  5
39
330
1F
100
AcDbEntity
  8
Layer 1
 62
    22
370
     5
100
AcDbSpline
210
0.0
220
0.0
230
1.0
 70
    11
 71
     3
 72
    96
 73
    92
 74
     0
 42
0.0000000001
 43
0.0000000001
 40
0.0
 40
0.0
 40
0.0
 40
0.0
 40
0.0434782608695652
 40
0.0434782608695652
 40
0.0434782608695652
 40
0.0434782608695652
 40
0.0869565217391305
 40
0.0869565217391305
 40
0.0869565217391305
 40
0.0869565217391305
 40
0.1304347826086956
 40
0.1304347826086956
 40
0.1304347826086956
 40
0.1304347826086956
 40
0.1739130434782609
 40
0.1739130434782609
 40
0.1739130434782609
 40
0.1739130434782609
 40
0.2173913043478261
 40
0.2173913043478261
 40
0.2173913043478261
 40
0.2173913043478261
 40
0.2608695652173913
 40
0.2608695652173913
 40
0.2608695652173913
 40
0.2608695652173913
 40
0.3043478260869565
 40
0.3043478260869565
 40
0.3043478260869565
 40
0.3043478260869565
 40
0.3478260869565217
 40
0.3478260869565217
 40
0.3478260869565217
 40
0.3478260869565217
 40
0.3913043478260869
 40
0.3913043478260869
 40
0.3913043478260869
 40
0.3913043478260869
 40
0.4347826086956522
 40
0.4347826086956522
 40
0.4347826086956522
 40
0.4347826086956522
 40
0.4782608695652173
 40
0.4782608695652173
 40
0.4782608695652173
 40
0.4782608695652173
 40
0.5217391304347825
 40
0.5217391304347825
 40
0.5217391304347825
 40
0.5217391304347825
 40
0.5652173913043477
 40
0.5652173913043477
 40
0.5652173913043477
 40
0.5652173913043477
 40
0.6086956521739129
 40
0.6086956521739129
 40
0.6086956521739129
 40
0.6086956521739129
 40
0.6521739130434781
 40
0.6521739130434781
 40
0.6521739130434781
 40
0.6521739130434781
 40
0.6956521739130432
 40
0.6956521739130432
 40
0.6956521739130432
 40
0.6956521739130432
 40
0.7391304347826085
 40
0.7391304347826085
 40
0.7391304347826085
 40
0.7391304347826085
 40
0.7826086956521737
 40
0.7826086956521737
 40
0.7826086956521737
 40
0.7826086956521737
 40
0.8260869565217387
 40
0.8260869565217387
 40
0.8260869565217387
 40
0.8260869565217387
 40
0.8695652173913039
 40
0.8695652173913039
 40
0.8695652173913039
 40
0.8695652173913039
 40
0.9130434782608691
 40
0.9130434782608691
 40
0.9130434782608691
 40
0.9130434782608691
 40
0.9565217391304344
 40
0.9565217391304344
 40
0.9565217391304344
 40
0.9565217391304344
 40
1.0
 40
1.0
 40
1.0
 40
1.0
 10
143.170946
 20
-45.457598
 30
0.0
 10
141.751367
 20
-45.690509
 30
0.0
 10
142.055153
 20
-47.23678099999999
 30
0.0
 10
143.416835
 20
-47.371727
 30
0.0
 10
143.416835
 20
-47.371727
 30
0.0
 10
143.416835
 20
-47.371727
 30
0.0
 10
147.733469
 20
-47.94338899999999
 30
0.0
 10
147.733469
 20
-47.94338899999999
 30
0.0
 10
147.733469
 20
-47.94338899999999
 30
0.0
 10
149.594426
 20
-48.277037
 30
0.0
 10
151.166024
 20
-47.146691
 30
0.0
 10
151.875971
 20
-44.849333
 30
0.0
 10
151.875971
 20
-44.849333
 30
0.0
 10
152.731196
 20
-42.42811699999999
 30
0.0
 10
153.399815
 20
-37.86420800000001
 30
0.0
 10
154.73132
 20
-35.06719700000001
 30
0.0
 10
154.73132
 20
-35.06719700000001
 30
0.0
 10
155.457269
 20
-33.59709200000001
 30
0.0
 10
156.157325
 20
-32.193767
 30
0.0
 10
157.346702
 20
-31.543544
 30
0.0
 10
157.346702
 20
-31.543544
 30
0.0
 10
162.219626
 20
-28.880093
 30
0.0
 10
168.31601
 20
-27.83612
 30
0.0
 10
172.505888
 20
-23.725244
 30
0.0
 10
172.505888
 20
-23.725244
 30
0.0
 10
173.109176
 20
-22.944233
 30
0.0
 10
174.710006
 20
-22.652669
 30
0.0
 10
175.52258
 20
-22.82195
 30
0.0
 10
175.52258
 20
-22.82195
 30
0.0
 10
176.708177
 20
-23.508209
 30
0.0
 10
179.49221
 20
-37.01774
 30
0.0
 10
185.060717
 20
-38.526716
 30
0.0
 10
185.060717
 20
-38.526716
 30
0.0
 10
186.279704
 20
-42.948182
 30
0.0
 10
193.175936
 20
-46.223363
 30
0.0
 10
196.898732
 20
-48.092699
 30
0.0
 10
196.898732
 20
-48.092699
 30
0.0
 10
199.114379
 20
-49.570238
 30
0.0
 10
201.192056
 20
-48.51259399999999
 30
0.0
 10
202.627952
 20
-48.166598
 30
0.0
 10
202.627952
 20
-48.166598
 30
0.0
 10
204.72623
 20
-50.85764300000001
 30
0.0
 10
207.013886
 20
-50.508056
 30
0.0
 10
209.487077
 20
-51.055589
 30
0.0
 10
209.487077
 20
-51.055589
 30
0.0
 10
211.316219
 20
-51.290012
 30
0.0
 10
214.398683
 20
-52.348097
 30
0.0
 10
215.301473
 20
-49.122497
 30
0.0
 10
215.301473
 20
-49.122497
 30
0.0
 10
215.301473
 20
-49.122497
 30
0.0
 10
210.144167
 20
-48.24326899999999
 30
0.0
 10
210.144167
 20
-48.24326899999999
 30
0.0
 10
210.144167
 20
-48.24326899999999
 30
0.0
 10
208.719296
 20
-48.066554
 30
0.0
 10
209.142467
 20
-46.045262
 30
0.0
 10
210.373109
 20
-46.180145
 30
0.0
 10
210.373109
 20
-46.180145
 30
0.0
 10
210.373109
 20
-46.180145
 30
0.0
 10
215.805788
 20
-47.127035
 30
0.0
 10
215.805788
 20
-47.127035
 30
0.0
 10
215.805788
 20
-47.127035
 30
0.0
 10
216.005183
 20
-45.201503
 30
0.0
 10
215.026037
 20
-44.033672
 30
0.0
 10
213.419789
 20
-43.66216099999999
 30
0.0
 10
213.419789
 20
-43.66216099999999
 30
0.0
 10
209.458286
 20
-42.67551799999999
 30
0.0
 10
204.590087
 20
-42.544667
 30
0.0
 10
202.511213
 20
-44.28731
 30
0.0
 10
202.511213
 20
-44.28731
 30
0.0
 10
201.92273
 20
-42.168305
 30
0.0
 10
193.787225
 20
-37.697825
 30
0.0
 10
187.557533
 20
-36.826031
 30
0.0
 10
187.557533
 20
-36.826031
 30
0.0
 10
186.949205
 20
-32.131712
 30
0.0
 10
181.855214
 20
-22.284497
 30
0.0
 10
179.10287
 20
-20.465498
 30
0.0
 10
179.10287
 20
-20.465498
 30
0.0
 10
176.858873
 20
-19.194221
 30
0.0
 10
175.446287
 20
-18.202916
 30
0.0
 10
168.029297
 20
-19.972964
 30
0.0
 10
168.029297
 20
-19.972964
 30
0.0
 10
164.268827
 20
-21.445148
 30
0.0
 10
155.878928
 20
-25.584815
 30
0.0
 10
151.665425
 20
-33.218462
 30
0.0
 10
151.665425
 20
-33.218462
 30
0.0
 10
150.605828
 20
-37.29443600000001
 30
0.0
 10
151.500806
 20
-39.974519
 30
0.0
 10
149.660954
 20
-43.862249
 30
0.0
 10
149.660954
 20
-43.862249
 30
0.0
 10
149.125139
 20
-45.987365
 30
0.0
 10
146.236526
 20
-45.34772600000001
 30
0.0
 10
143.170946
 20
-45.457598
 30
0.0
  0
SPLINE
  5
3A
330
1F
100
AcDbEntity
  8
Layer 1
 62
    22
370
     5
100
AcDbSpline
210
0.0
220
0.0
230
1.0
 70
    11
 71
     3
 72
   104
 73
   100
 74
     0
 42
0.0000000001
 43
0.0000000001
 40
0.0
 40
0.0
 40
0.0
 40
0.0
 40
0.04
 40
0.04
 40
0.04
 40
0.04
 40
0.08
 40
0.08
 40
0.08
 40
0.08
 40
0.12
 40
0.12
 40
0.12
 40
0.12
 40
0.16
 40
0.16
 40
0.16
 40
0.16
 40
0.2
 40
0.2
 40
0.2
 40
0.2
 40
0.24
 40
0.24
 40
0.24
 40
0.24
 40
0.28
 40
0.28
 40
0.28
 40
0.28
 40
0.32
 40
0.32
 40
0.32
 40
0.32
 40
0.36
 40
0.36
 40
0.36
 40
0.36
 40
0.4
 40
0.4
 40
0.4
 40
0.4
 40
0.44
 40
0.44
 40
0.44
 40
0.44
 40
0.4799999999999999
 40
0.4799999999999999
 40
0.4799999999999999
 40
0.4799999999999999
 40
0.52
 40
0.52
 40
0.52
 40
0.52
 40
0.56
 40
0.56
 40
0.56
 40
0.56
 40
0.6
 40
0.6
 40
0.6
 40
0.6
 40
0.6400000000000001
 40
0.6400000000000001
 40
0.6400000000000001
 40
0.6400000000000001
 40
0.6800000000000001
 40
0.6800000000000001
 40
0.6800000000000001
 40
0.6800000000000001
 40
0.7200000000000001
 40
0.7200000000000001
 40
0.7200000000000001
 40
0.7200000000000001
 40
0.7600000000000002
 40
0.7600000000000002
 40
0.7600000000000002
 40
0.7600000000000002
 40
0.8000000000000001
 40
0.8000000000000001
 40
0.8000000000000001
 40
0.8000000000000001
 40
0.8400000000000002
 40
0.8400000000000002
 40
0.8400000000000002
 40
0.8400000000000002
 40
0.8800000000000002
 40
0.8800000000000002
 40
0.8800000000000002
 40
0.8800000000000002
 40
0.9200000000000002
 40
0.9200000000000002
 40
0.9200000000000002
 40
0.9200000000000002
 40
0.9600000000000003
 40
0.9600000000000003
 40
0.9600000000000003
 40
0.9600000000000003
 40
1.0
 40
1.0
 40
1.0
 40
1.0
 10
13.26425299999999
 20
-62.356403
 30
0.0
 10
13.26425299999999
 20
-62.356403
 30
0.0
 10
7.275913999999993
 20
-55.78777099999999
 30
0.0
 10
7.275913999999993
 20
-55.78777099999999
 30
0.0
 10
7.275913999999993
 20
-55.78777099999999
 30
0.0
 10
6.217954999999989
 20
-54.56198
 30
0.0
 10
7.762525999999994
 20
-53.18650100000001
 30
0.0
 10
8.839132999999996
 20
-54.45236
 30
0.0
 10
8.839132999999996
 20
-54.45236
 30
0.0
 10
8.839132999999996
 20
-54.45236
 30
0.0
 10
14.95076299999999
 20
-60.879494
 30
0.0
 10
14.95076299999999
 20
-60.879494
 30
0.0
 10
14.95076299999999
 20
-60.879494
 30
0.0
 10
20.506922
 20
-56.95724
 30
0.0
 10
12.44771
 20
-46.797104
 30
0.0
 10
5.704064000000002
 20
-45.603758
 30
0.0
 10
5.704064000000002
 20
-45.603758
 30
0.0
 10
4.151995999999996
 20
-45.379541
 30
0.0
 10
3.321340999999989
 20
-44.522426
 30
0.0
 10
3.212098999999994
 20
-43.031846
 30
0.0
 10
3.212098999999994
 20
-43.031846
 30
0.0
 10
3.180221000000003
 20
-34.207058
 30
0.0
 10
-19.60001199999999
 20
-17.394185
 30
0.0
 10
-23.41201600000001
 20
-19.500212
 30
0.0
 10
-23.41201600000001
 20
-19.500212
 30
0.0
 10
-24.363379
 20
-19.809668
 30
0.0
 10
-23.94058600000001
 20
-20.543744
 30
0.0
 10
-22.143511
 20
-21.70181
 30
0.0
 10
-22.143511
 20
-21.70181
 30
0.0
 10
-21.39916600000001
 20
-23.23901
 30
0.0
 10
-20.358406
 20
-24.084092
 30
0.0
 10
-19.02135700000001
 20
-24.236489
 30
0.0
 10
-19.02135700000001
 20
-24.236489
 30
0.0
 10
-18.674983
 20
-25.459949
 30
0.0
 10
-17.844328
 20
-26.317442
 30
0.0
 10
-16.529392
 20
-26.808401
 30
0.0
 10
-16.529392
 20
-26.808401
 30
0.0
 10
-16.000066
 20
-28.27397
 30
0.0
 10
-14.996413
 20
-29.205614
 30
0.0
 10
-13.51837
 20
-29.60264
 30
0.0
 10
-13.51837
 20
-29.60264
 30
0.0
 10
-13.24621
 20
-30.640754
 30
0.0
 10
-12.65779
 20
-31.322855
 30
0.0
 10
-11.753173
 20
-31.648376
 30
0.0
 10
-11.753173
 20
-31.648376
 30
0.0
 10
-11.54754100000001
 20
-32.310569
 30
0.0
 10
-10.966366
 20
-32.833532
 30
0.0
 10
-9.553717000000006
 20
-33.881474
 30
0.0
 10
-9.553717000000006
 20
-33.881474
 30
0.0
 10
-8.350858000000002
 20
-34.909193
 30
0.0
 10
-9.769176999999999
 20
-36.542846
 30
0.0
 10
-10.986715
 20
-35.486903
 30
0.0
 10
-10.986715
 20
-35.486903
 30
0.0
 10
-12.25490500000001
 20
-34.360526
 30
0.0
 10
-13.58389000000001
 20
-33.485582
 30
0.0
 10
-15.148432
 20
-33.05069299999999
 30
0.0
 10
-15.148432
 20
-33.05069299999999
 30
0.0
 10
-15.858001
 20
-32.10210200000001
 30
0.0
 10
-16.784857
 20
-31.75661
 30
0.0
 10
-17.929063
 20
-32.013587
 30
0.0
 10
-17.929063
 20
-32.013587
 30
0.0
 10
-18.64846
 20
-31.255319
 30
0.0
 10
-19.51603299999999
 20
-30.84311
 30
0.0
 10
-20.531845
 20
-30.776267
 30
0.0
 10
-20.531845
 20
-30.776267
 30
0.0
 10
-21.278458
 20
-29.914175
 30
0.0
 10
-22.16329300000001
 20
-29.566226
 30
0.0
 10
-23.186413
 20
-29.731664
 30
0.0
 10
-23.186413
 20
-29.731664
 30
0.0
 10
-23.851378
 20
-28.822511
 30
0.0
 10
-24.56542000000001
 20
-28.506251
 30
0.0
 10
-25.329421
 20
-28.783325
 30
0.0
 10
-25.329421
 20
-28.783325
 30
0.0
 10
-26.12019700000001
 20
-28.239887
 30
0.0
 10
-26.802109
 20
-28.111556
 30
0.0
 10
-27.37585
 20
-28.398458
 30
0.0
 10
-27.37585
 20
-28.398458
 30
0.0
 10
-27.88470100000001
 20
-28.344215
 30
0.0
 10
-28.393867
 20
-28.290035
 30
0.0
 10
-28.903159
 20
-28.235792
 30
0.0
 10
-28.903159
 20
-28.235792
 30
0.0
 10
-30.20039200000001
 20
-28.39682
 30
0.0
 10
-31.225402
 20
-29.595773
 30
0.0
 10
-28.24247800000001
 20
-30.852812
 30
0.0
 10
-28.24247800000001
 20
-30.852812
 30
0.0
 10
-20.0647
 20
-33.902642
 30
0.0
 10
-15.708628
 20
-38.677853
 30
0.0
 10
-9.702712000000005
 20
-44.933879
 30
0.0
 10
-9.702712000000005
 20
-44.933879
 30
0.0
 10
-8.572681000000002
 20
-46.216181
 30
0.0
 10
-6.365223999999997
 20
-47.18178199999999
 30
0.0
 10
-3.080971000000005
 20
-47.830745
 30
0.0
 10
-3.080971000000005
 20
-47.830745
 30
0.0
 10
-0.0999999999999943
 20
-48.687356
 30
0.0
 10
-0.9373329999999953
 20
-50.21246
 30
0.0
 10
-0.7221880000000028
 20
-51.35912300000001
 30
0.0
 10
-0.7221880000000028
 20
-51.35912300000001
 30
0.0
 10
-1.045819000000008
 20
-59.291705
 30
0.0
 10
8.570689999999991
 20
-66.884654
 30
0.0
 10
13.26425299999999
 20
-62.356403
 30
0.0
  0
SPLINE
  5
3B
330
1F
100
AcDbEntity
  8
Layer 1
 62
    22
370
     5
100
AcDbSpline
210
0.0
220
0.0
230
1.0
 70
    11
 71
     3
 72
   264
 73
   260
 74
     0
 42
0.0000000001
 43
0.0000000001
 40
0.0
 40
0.0
 40
0.0
 40
0.0
 40
0.0153846153846154
 40
0.0153846153846154
 40
0.0153846153846154
 40
0.0153846153846154
 40
0.0307692307692308
 40
0.0307692307692308
 40
0.0307692307692308
 40
0.0307692307692308
 40
0.0461538461538462
 40
0.0461538461538462
 40
0.0461538461538462
 40
0.0461538461538462
 40
0.0615384615384616
 40
0.0615384615384616
 40
0.0615384615384616
 40
0.0615384615384616
 40
0.0769230769230769
 40
0.0769230769230769
 40
0.0769230769230769
 40
0.0769230769230769
 40
0.0923076923076923
 40
0.0923076923076923
 40
0.0923076923076923
 40
0.0923076923076923
 40
0.1076923076923077
 40
0.1076923076923077
 40
0.1076923076923077
 40
0.1076923076923077
 40
0.1230769230769231
 40
0.1230769230769231
 40
0.1230769230769231
 40
0.1230769230769231
 40
0.1384615384615385
 40
0.1384615384615385
 40
0.1384615384615385
 40
0.1384615384615385
 40
0.1538461538461539
 40
0.1538461538461539
 40
0.1538461538461539
 40
0.1538461538461539
 40
0.1692307692307692
 40
0.1692307692307692
 40
0.1692307692307692
 40
0.1692307692307692
 40
0.1846153846153846
 40
0.1846153846153846
 40
0.1846153846153846
 40
0.1846153846153846
 40
0.2
 40
0.2
 40
0.2
 40
0.2
 40
0.2153846153846154
 40
0.2153846153846154
 40
0.2153846153846154
 40
0.2153846153846154
 40
0.2307692307692308
 40
0.2307692307692308
 40
0.2307692307692308
 40
0.2307692307692308
 40
0.2461538461538462
 40
0.2461538461538462
 40
0.2461538461538462
 40
0.2461538461538462
 40
0.2615384615384615
 40
0.2615384615384615
 40
0.2615384615384615
 40
0.2615384615384615
 40
0.2769230769230769
 40
0.2769230769230769
 40
0.2769230769230769
 40
0.2769230769230769
 40
0.2923076923076923
 40
0.2923076923076923
 40
0.2923076923076923
 40
0.2923076923076923
 40
0.3076923076923077
 40
0.3076923076923077
 40
0.3076923076923077
 40
0.3076923076923077
 40
0.3230769230769231
 40
0.3230769230769231
 40
0.3230769230769231
 40
0.3230769230769231
 40
0.3384615384615385
 40
0.3384615384615385
 40
0.3384615384615385
 40
0.3384615384615385
 40
0.3538461538461539
 40
0.3538461538461539
 40
0.3538461538461539
 40
0.3538461538461539
 40
0.3692307692307692
 40
0.3692307692307692
 40
0.3692307692307692
 40
0.3692307692307692
 40
0.3846153846153846
 40
0.3846153846153846
 40
0.3846153846153846
 40
0.3846153846153846
 40
0.4
 40
0.4
 40
0.4
 40
0.4
 40
0.4153846153846155
 40
0.4153846153846155
 40
0.4153846153846155
 40
0.4153846153846155
 40
0.4307692307692309
 40
0.4307692307692309
 40
0.4307692307692309
 40
0.4307692307692309
 40
0.4461538461538462
 40
0.4461538461538462
 40
0.4461538461538462
 40
0.4461538461538462
 40
0.4615384615384616
 40
0.4615384615384616
 40
0.4615384615384616
 40
0.4615384615384616
 40
0.476923076923077
 40
0.476923076923077
 40
0.476923076923077
 40
0.476923076923077
 40
0.4923076923076924
 40
0.4923076923076924
 40
0.4923076923076924
 40
0.4923076923076924
 40
0.5076923076923077
 40
0.5076923076923077
 40
0.5076923076923077
 40
0.5076923076923077
 40
0.523076923076923
 40
0.523076923076923
 40
0.523076923076923
 40
0.523076923076923
 40
0.5384615384615384
 40
0.5384615384615384
 40
0.5384615384615384
 40
0.5384615384615384
 40
0.5538461538461537
 40
0.5538461538461537
 40
0.5538461538461537
 40
0.5538461538461537
 40
0.569230769230769
 40
0.569230769230769
 40
0.569230769230769
 40
0.569230769230769
 40
0.5846153846153844
 40
0.5846153846153844
 40
0.5846153846153844
 40
0.5846153846153844
 40
0.5999999999999997
 40
0.5999999999999997
 40
0.5999999999999997
 40
0.5999999999999997
 40
0.615384615384615
 40
0.615384615384615
 40
0.615384615384615
 40
0.615384615384615
 40
0.6307692307692303
 40
0.6307692307692303
 40
0.6307692307692303
 40
0.6307692307692303
 40
0.6461538461538457
 40
0.6461538461538457
 40
0.6461538461538457
 40
0.6461538461538457
 40
0.661538461538461
 40
0.661538461538461
 40
0.661538461538461
 40
0.661538461538461
 40
0.6769230769230763
 40
0.6769230769230763
 40
0.6769230769230763
 40
0.6769230769230763
 40
0.6923076923076917
 40
0.6923076923076917
 40
0.6923076923076917
 40
0.6923076923076917
 40
0.707692307692307
 40
0.707692307692307
 40
0.707692307692307
 40
0.707692307692307
 40
0.7230769230769223
 40
0.7230769230769223
 40
0.7230769230769223
 40
0.7230769230769223
 40
0.7384615384615377
 40
0.7384615384615377
 40
0.7384615384615377
 40
0.7384615384615377
 40
0.753846153846153
 40
0.753846153846153
 40
0.753846153846153
 40
0.753846153846153
 40
0.7692307692307683
 40
0.7692307692307683
 40
0.7692307692307683
 40
0.7692307692307683
 40
0.7846153846153836
 40
0.7846153846153836
 40
0.7846153846153836
 40
0.7846153846153836
 40
0.799999999999999
 40
0.799999999999999
 40
0.799999999999999
 40
0.799999999999999
 40
0.8153846153846142
 40
0.8153846153846142
 40
0.8153846153846142
 40
0.8153846153846142
 40
0.8307692307692295
 40
0.8307692307692295
 40
0.8307692307692295
 40
0.8307692307692295
 40
0.8461538461538449
 40
0.8461538461538449
 40
0.8461538461538449
 40
0.8461538461538449
 40
0.8615384615384602
 40
0.8615384615384602
 40
0.8615384615384602
 40
0.8615384615384602
 40
0.8769230769230755
 40
0.8769230769230755
 40
0.8769230769230755
 40
0.8769230769230755
 40
0.8923076923076909
 40
0.8923076923076909
 40
0.8923076923076909
 40
0.8923076923076909
 40
0.9076923076923062
 40
0.9076923076923062
 40
0.9076923076923062
 40
0.9076923076923062
 40
0.9230769230769215
 40
0.9230769230769215
 40
0.9230769230769215
 40
0.9230769230769215
 40
0.9384615384615369
 40
0.9384615384615369
 40
0.9384615384615369
 40
0.9384615384615369
 40
0.9538461538461522
 40
0.9538461538461522
 40
0.9538461538461522
 40
0.9538461538461522
 40
0.9692307692307675
 40
0.9692307692307675
 40
0.9692307692307675
 40
0.9692307692307675
 40
0.9846153846153828
 40
0.9846153846153828
 40
0.9846153846153828
 40
0.9846153846153828
 40
1.0
 40
1.0
 40
1.0
 40
1.0
 10
-93.801223
 20
33.87540400000001
 30
0.0
 10
-92.96275600000001
 20
31.847623
 30
0.0
 10
-91.66073500000001
 20
30.695353
 30
0.0
 10
-89.14079800000001
 20
31.44612400000001
 30
0.0
 10
-89.14079800000001
 20
31.44612400000001
 30
0.0
 10
-86.00125600000001
 20
33.251074
 30
0.0
 10
-83.73092500000002
 20
33.776431
 30
0.0
 10
-81.81465400000002
 20
34.940482
 30
0.0
 10
-81.81465400000002
 20
34.940482
 30
0.0
 10
-80.92710999999999
 20
35.479699
 30
0.0
 10
-78.87286900000001
 20
37.38255100000001
 30
0.0
 10
-78.19908400000002
 20
38.023891
 30
0.0
 10
-78.19908400000002
 20
38.023891
 30
0.0
 10
-77.444344
 20
38.83079500000001
 30
0.0
 10
-75.86127999999999
 20
38.27104
 30
0.0
 10
-76.50312400000001
 20
36.773215
 30
0.0
 10
-76.50312400000001
 20
36.773215
 30
0.0
 10
-77.45625100000001
 20
35.819206
 30
0.0
 10
-78.53544099999999
 20
34.877734
 30
0.0
 10
-79.830532
 20
33.688357
 30
0.0
 10
-79.830532
 20
33.688357
 30
0.0
 10
-78.58540000000002
 20
33.265816
 30
0.0
 10
-77.73622300000003
 20
33.47025100000001
 30
0.0
 10
-76.32817299999999
 20
33.685774
 30
0.0
 10
-76.32817299999999
 20
33.685774
 30
0.0
 10
-76.32817299999999
 20
33.685774
 30
0.0
 10
-72.63744399999999
 20
37.179943
 30
0.0
 10
-72.63744399999999
 20
37.179943
 30
0.0
 10
-72.63744399999999
 20
37.179943
 30
0.0
 10
-71.63637399999998
 20
38.039578
 30
0.0
 10
-70.23922300000001
 20
36.82720600000001
 30
0.0
 10
-71.099299
 20
35.79822700000001
 30
0.0
 10
-71.099299
 20
35.79822700000001
 30
0.0
 10
-71.099299
 20
35.79822700000001
 30
0.0
 10
-74.249551
 20
32.765722
 30
0.0
 10
-74.249551
 20
32.765722
 30
0.0
 10
-74.249551
 20
32.765722
 30
0.0
 10
-74.93058100000002
 20
32.02729900000001
 30
0.0
 10
-75.145789
 20
31.99586200000001
 30
0.0
 10
-74.308267
 20
32.078644
 30
0.0
 10
-74.308267
 20
32.078644
 30
0.0
 10
-72.94374999999999
 20
31.86866500000001
 30
0.0
 10
-71.73162999999999
 20
32.102395
 30
0.0
 10
-70.388218
 20
32.30683000000001
 30
0.0
 10
-70.388218
 20
32.30683000000001
 30
0.0
 10
-70.388218
 20
32.30683000000001
 30
0.0
 10
-66.652129
 20
36.080215
 30
0.0
 10
-66.652129
 20
36.080215
 30
0.0
 10
-66.652129
 20
36.080215
 30
0.0
 10
-65.553031
 20
36.910807
 30
0.0
 10
-64.45872100000002
 20
35.73069100000001
 30
0.0
 10
-65.02269700000002
 20
34.76118400000001
 30
0.0
 10
-65.02269700000002
 20
34.76118400000001
 30
0.0
 10
-65.02269700000002
 20
34.76118400000001
 30
0.0
 10
-68.80811499999999
 20
31.018165
 30
0.0
 10
-68.80811499999999
 20
31.018165
 30
0.0
 10
-68.80811499999999
 20
31.018165
 30
0.0
 10
-67.60166500000003
 20
30.55807600000001
 30
0.0
 10
-66.52745200000001
 20
30.68552500000001
 30
0.0
 10
-65.63335599999999
 20
30.902308
 30
0.0
 10
-65.63335599999999
 20
30.902308
 30
0.0
 10
-65.63335599999999
 20
30.902308
 30
0.0
 10
-64.872379
 20
31.49072800000001
 30
0.0
 10
-64.872379
 20
31.49072800000001
 30
0.0
 10
-64.872379
 20
31.49072800000001
 30
0.0
 10
-64.872379
 20
31.49072800000001
 30
0.0
 10
-61.125076
 20
35.195191
 30
0.0
 10
-61.125076
 20
35.195191
 30
0.0
 10
-61.125076
 20
35.195191
 30
0.0
 10
-59.871124
 20
36.01179699999999
 30
0.0
 10
-59.14971099999999
 20
34.433458
 30
0.0
 10
-59.57502400000001
 20
33.86992300000001
 30
0.0
 10
-59.57502400000001
 20
33.86992300000001
 30
0.0
 10
-59.57502400000001
 20
33.86992300000001
 30
0.0
 10
-63.58610800000002
 20
29.790925
 30
0.0
 10
-63.58610800000002
 20
29.790925
 30
0.0
 10
-63.58610800000002
 20
29.790925
 30
0.0
 10
-61.95214000000001
 20
29.54761900000001
 30
0.0
 10
-60.70240900000001
 20
29.46067900000001
 30
0.0
 10
-59.366116
 20
29.617738
 30
0.0
 10
-59.366116
 20
29.617738
 30
0.0
 10
-59.366116
 20
29.617738
 30
0.0
 10
-55.16420500000001
 20
34.43919100000001
 30
0.0
 10
-55.16420500000001
 20
34.43919100000001
 30
0.0
 10
-55.16420500000001
 20
34.43919100000001
 30
0.0
 10
-53.99769700000002
 20
35.347777
 30
0.0
 10
-52.88757400000001
 20
33.99869500000001
 30
0.0
 10
-53.57030500000002
 20
33.11071
 30
0.0
 10
-53.57030500000002
 20
33.11071
 30
0.0
 10
-53.57030500000002
 20
33.11071
 30
0.0
 10
-57.52998099999999
 20
28.525381
 30
0.0
 10
-57.52998099999999
 20
28.525381
 30
0.0
 10
-57.52998099999999
 20
28.525381
 30
0.0
 10
-55.911889
 20
28.365172
 30
0.0
 10
-54.92593900000001
 20
28.406815
 30
0.0
 10
-53.328889
 20
28.661083
 30
0.0
 10
-53.328889
 20
28.661083
 30
0.0
 10
-53.328889
 20
28.661083
 30
0.0
 10
-49.11305499999999
 20
33.445366
 30
0.0
 10
-49.11305499999999
 20
33.445366
 30
0.0
 10
-49.11305499999999
 20
33.445366
 30
0.0
 10
-48.20894199999999
 20
34.329067
 30
0.0
 10
-47.103796
 20
33.23954500000001
 30
0.0
 10
-47.38666599999999
 20
32.31943000000001
 30
0.0
 10
-47.38666599999999
 20
32.31943000000001
 30
0.0
 10
-47.38666599999999
 20
32.31943000000001
 30
0.0
 10
-50.95889200000002
 20
28.12489
 30
0.0
 10
-50.95889200000002
 20
28.12489
 30
0.0
 10
-50.95889200000002
 20
28.12489
 30
0.0
 10
-49.51512100000001
 20
28.09597300000001
 30
0.0
 10
-48.486142
 20
28.394908
 30
0.0
 10
-47.071855
 20
28.607092
 30
0.0
 10
-47.071855
 20
28.607092
 30
0.0
 10
-47.071855
 20
28.607092
 30
0.0
 10
-43.30168300000001
 20
33.38161
 30
0.0
 10
-43.30168300000001
 20
33.38161
 30
0.0
 10
-43.30168300000001
 20
33.38161
 30
0.0
 10
-42.19231600000002
 20
34.65408400000001
 30
0.0
 10
-40.81160800000001
 20
33.249688
 30
0.0
 10
-41.566852
 20
32.215669
 30
0.0
 10
-41.566852
 20
32.215669
 30
0.0
 10
-41.566852
 20
32.215669
 30
0.0
 10
-44.61743799999999
 20
28.35187900000001
 30
0.0
 10
-44.61743799999999
 20
28.35187900000001
 30
0.0
 10
-44.61743799999999
 20
28.35187900000001
 30
0.0
 10
-44.61743799999999
 20
28.35187900000001
 30
0.0
 10
-40.238686
 20
28.82538700000001
 30
0.0
 10
-40.238686
 20
28.82538700000001
 30
0.0
 10
-40.238686
 20
28.82538700000001
 30
0.0
 10
-40.238686
 20
28.82538700000001
 30
0.0
 10
-36.691282
 20
32.82450100000001
 30
0.0
 10
-36.691282
 20
32.82450100000001
 30
0.0
 10
-36.691282
 20
32.82450100000001
 30
0.0
 10
-35.598736
 20
33.96165100000001
 30
0.0
 10
-34.20983800000001
 20
32.76011500000001
 30
0.0
 10
-34.99248700000001
 20
31.58856700000001
 30
0.0
 10
-34.99248700000001
 20
31.58856700000001
 30
0.0
 10
-34.99248700000001
 20
31.58856700000001
 30
0.0
 10
-37.440541
 20
28.885426
 30
0.0
 10
-37.440541
 20
28.885426
 30
0.0
 10
-37.440541
 20
28.885426
 30
0.0
 10
-35.41723300000001
 20
28.91837500000001
 30
0.0
 10
-33.677425
 20
29.28346000000001
 30
0.0
 10
-31.52918800000002
 20
29.58277300000001
 30
0.0
 10
-31.52918800000002
 20
29.58277300000001
 30
0.0
 10
-30.50776900000001
 20
29.71677400000001
 30
0.0
 10
-29.74080700000002
 20
29.449654
 30
0.0
 10
-29.24128000000001
 20
28.62057400000001
 30
0.0
 10
-29.24128000000001
 20
28.62057400000001
 30
0.0
 10
-29.012086
 20
28.10095
 30
0.0
 10
-27.630685
 20
27.94653700000001
 30
0.0
 10
-26.44849000000001
 20
28.10044600000001
 30
0.0
 10
-26.44849000000001
 20
28.10044600000001
 30
0.0
 10
-26.44849000000001
 20
28.10044600000001
 30
0.0
 10
-21.19403800000001
 20
28.43340100000001
 30
0.0
 10
-21.19403800000001
 20
28.43340100000001
 30
0.0
 10
-21.19403800000001
 20
28.43340100000001
 30
0.0
 10
-19.25489800000001
 20
28.480084
 30
0.0
 10
-19.39904199999999
 20
26.42949700000001
 30
0.0
 10
-21.00214000000001
 20
26.325043
 30
0.0
 10
-21.00214000000001
 20
26.325043
 30
0.0
 10
-21.00214000000001
 20
26.325043
 30
0.0
 10
-24.76500400000001
 20
26.095345
 30
0.0
 10
-24.76500400000001
 20
26.095345
 30
0.0
 10
-24.76500400000001
 20
26.095345
 30
0.0
 10
-24.007177
 20
24.222418
 30
0.0
 10
-22.96711000000001
 20
23.880706
 30
0.0
 10
-21.64285000000001
 20
24.117145
 30
0.0
 10
-21.64285000000001
 20
24.117145
 30
0.0
 10
-21.64285000000001
 20
24.117145
 30
0.0
 10
-14.302153
 20
24.49879900000001
 30
0.0
 10
-14.302153
 20
24.49879900000001
 30
0.0
 10
-14.302153
 20
24.49879900000001
 30
0.0
 10
-12.87514
 20
24.609616
 30
0.0
 10
-11.89801000000001
 20
25.37305
 30
0.0
 10
-11.68192
 20
26.77272100000001
 30
0.0
 10
-11.68192
 20
26.77272100000001
 30
0.0
 10
-11.167084
 20
28.684897
 30
0.0
 10
-10.34493400000001
 20
28.68918100000001
 30
0.0
 10
-8.379208000000005
 20
28.70077300000001
 30
0.0
 10
-8.379208000000005
 20
28.70077300000001
 30
0.0
 10
-8.379208000000005
 20
28.70077300000001
 30
0.0
 10
11.801204
 20
29.03939800000001
 30
0.0
 10
11.801204
 20
29.03939800000001
 30
0.0
 10
11.801204
 20
29.03939800000001
 30
0.0
 10
14.304383
 20
29.233123
 30
0.0
 10
15.295625
 20
32.502697
 30
0.0
 10
12.54473
 20
33.740521
 30
0.0
 10
12.54473
 20
33.740521
 30
0.0
 10
9.829492999999999
 20
34.044181
 30
0.0
 10
7.082693000000006
 20
36.07215100000001
 30
0.0
 10
6.107264
 20
37.138804
 30
0.0
 10
6.107264
 20
37.138804
 30
0.0
 10
4.320961999999994
 20
39.091867
 30
0.0
 10
6.64396099999999
 20
42.975187
 30
0.0
 10
10.38634999999999
 20
37.25075500000001
 30
0.0
 10
10.38634999999999
 20
37.25075500000001
 30
0.0
 10
11.221226
 20
35.86135300000001
 30
0.0
 10
13.13283499999999
 20
36.763828
 30
0.0
 10
12.39497899999999
 20
38.620438
 30
0.0
 10
12.39497899999999
 20
38.620438
 30
0.0
 10
10.919645
 20
41.104969
 30
0.0
 10
9.409724000000004
 20
49.255594
 30
0.0
 10
0.3951799999999963
 20
45.73257100000001
 30
0.0
 10
0.3951799999999963
 20
45.73257100000001
 30
0.0
 10
-4.732956999999998
 20
43.35514
 30
0.0
 10
-12.152467
 20
47.04631
 30
0.0
 10
-17.862661
 20
47.862664
 30
0.0
 10
-17.862661
 20
47.862664
 30
0.0
 10
-20.24752600000001
 20
48.216661
 30
0.0
 10
-21.832165
 20
47.31141400000001
 30
0.0
 10
-21.81798999999999
 20
44.20280500000001
 30
0.0
 10
-21.81798999999999
 20
44.20280500000001
 30
0.0
 10
-21.81798999999999
 20
44.20280500000001
 30
0.0
 10
-15.399235
 20
43.73818
 30
0.0
 10
-15.399235
 20
43.73818
 30
0.0
 10
-15.399235
 20
43.73818
 30
0.0
 10
-14.24060199999999
 20
43.65445300000001
 30
0.0
 10
-13.872556
 20
41.57942199999999
 30
0.0
 10
-15.79393
 20
41.65880200000001
 30
0.0
 10
-15.79393
 20
41.65880200000001
 30
0.0
 10
-17.715367
 20
41.772454
 30
0.0
 10
-20.721727
 20
42.052804
 30
0.0
 10
-22.44383200000001
 20
42.171244
 30
0.0
 10
-22.44383200000001
 20
42.171244
 30
0.0
 10
-24.22515700000001
 20
40.593661
 30
0.0
 10
-26.924959
 20
39.731884
 30
0.0
 10
-30.52232200000002
 20
39.602797
 30
0.0
 10
-30.52232200000002
 20
39.602797
 30
0.0
 10
-35.67421000000002
 20
39.278662
 30
0.0
 10
-41.574853
 20
38.96410300000001
 30
0.0
 10
-45.13239999999998
 20
38.864689
 30
0.0
 10
-45.13239999999998
 20
38.864689
 30
0.0
 10
-56.82261700000001
 20
38.164003
 30
0.0
 10
-64.921897
 20
41.07113800000001
 30
0.0
 10
-73.56373300000001
 20
43.094572
 30
0.0
 10
-73.56373300000001
 20
43.094572
 30
0.0
 10
-76.11699699999999
 20
43.861408
 30
0.0
 10
-78.07825
 20
44.35268200000001
 30
0.0
 10
-80.36641000000001
 20
44.04751
 30
0.0
 10
-80.36641000000001
 20
44.04751
 30
0.0
 10
-88.27788699999999
 20
42.992071
 30
0.0
 10
-91.57341700000001
 20
42.023131
 30
0.0
 10
-93.87505899999998
 20
41.050537
 30
0.0
 10
-93.87505899999998
 20
41.050537
 30
0.0
 10
-96.16076200000001
 20
39.452668
 30
0.0
 10
-96.46561900000001
 20
37.921579
 30
0.0
 10
-94.43569600000001
 20
35.993464
 30
0.0
 10
-94.43569600000001
 20
35.993464
 30
0.0
 10
-94.43569600000001
 20
35.993464
 30
0.0
 10
-87.62986900000001
 20
38.20205500000001
 30
0.0
 10
-87.62986900000001
 20
38.20205500000001
 30
0.0
 10
-87.62986900000001
 20
38.20205500000001
 30
0.0
 10
-85.43469700000001
 20
39.043546
 30
0.0
 10
-85.33225900000003
 20
36.66309100000001
 30
0.0
 10
-86.74635700000001
 20
36.231037
 30
0.0
 10
-86.74635700000001
 20
36.231037
 30
0.0
 10
-86.74635700000001
 20
36.231037
 30
0.0
 10
-93.801223
 20
33.87540400000001
 30
0.0
 10
-93.801223
 20
33.87540400000001
 30
0.0
  0
SPLINE
  5
3C
330
1F
100
AcDbEntity
  8
Layer 1
 62
    22
370
     5
100
AcDbSpline
210
0.0
220
0.0
230
1.0
 70
    11
 71
     3
 72
   100
 73
    96
 74
     0
 42
0.0000000001
 43
0.0000000001
 40
0.0
 40
0.0
 40
0.0
 40
0.0
 40
0.0416666666666667
 40
0.0416666666666667
 40
0.0416666666666667
 40
0.0416666666666667
 40
0.0833333333333333
 40
0.0833333333333333
 40
0.0833333333333333
 40
0.0833333333333333
 40
0.125
 40
0.125
 40
0.125
 40
0.125
 40
0.1666666666666666
 40
0.1666666666666666
 40
0.1666666666666666
 40
0.1666666666666666
 40
0.2083333333333333
 40
0.2083333333333333
 40
0.2083333333333333
 40
0.2083333333333333
 40
0.25
 40
0.25
 40
0.25
 40
0.25
 40
0.2916666666666666
 40
0.2916666666666666
 40
0.2916666666666666
 40
0.2916666666666666
 40
0.3333333333333333
 40
0.3333333333333333
 40
0.3333333333333333
 40
0.3333333333333333
 40
0.375
 40
0.375
 40
0.375
 40
0.375
 40
0.4166666666666667
 40
0.4166666666666667
 40
0.4166666666666667
 40
0.4166666666666667
 40
0.4583333333333334
 40
0.4583333333333334
 40
0.4583333333333334
 40
0.4583333333333334
 40
0.5
 40
0.5
 40
0.5
 40
0.5
 40
0.5416666666666666
 40
0.5416666666666666
 40
0.5416666666666666
 40
0.5416666666666666
 40
0.5833333333333333
 40
0.5833333333333333
 40
0.5833333333333333
 40
0.5833333333333333
 40
0.625
 40
0.625
 40
0.625
 40
0.625
 40
0.6666666666666666
 40
0.6666666666666666
 40
0.6666666666666666
 40
0.6666666666666666
 40
0.7083333333333332
 40
0.7083333333333332
 40
0.7083333333333332
 40
0.7083333333333332
 40
0.7499999999999999
 40
0.7499999999999999
 40
0.7499999999999999
 40
0.7499999999999999
 40
0.7916666666666665
 40
0.7916666666666665
 40
0.7916666666666665
 40
0.7916666666666665
 40
0.833333333333333
 40
0.833333333333333
 40
0.833333333333333
 40
0.833333333333333
 40
0.8749999999999996
 40
0.8749999999999996
 40
0.8749999999999996
 40
0.8749999999999996
 40
0.9166666666666662
 40
0.9166666666666662
 40
0.9166666666666662
 40
0.9166666666666662
 40
0.9583333333333328
 40
0.9583333333333328
 40
0.9583333333333328
 40
0.9583333333333328
 40
1.0
 40
1.0
 40
1.0
 40
1.0
 10
-97.37993800000001
 20
3.255387999999999
 30
0.0
 10
-96.61940200000001
 20
5.435439999999999
 30
0.0
 10
-96.086611
 20
8.488609
 30
0.0
 10
-97.413895
 20
11.390011
 30
0.0
 10
-97.413895
 20
11.390011
 30
0.0
 10
-98.947
 20
14.635645
 30
0.0
 10
-98.32040200000001
 20
16.47934
 30
0.0
 10
-98.33527000000001
 20
19.079665
 30
0.0
 10
-98.33527000000001
 20
19.079665
 30
0.0
 10
-98.33527000000001
 20
19.079665
 30
0.0
 10
-88.805575
 20
18.582721
 30
0.0
 10
-88.805575
 20
18.582721
 30
0.0
 10
-88.805575
 20
18.582721
 30
0.0
 10
-87.01026400000001
 20
18.595888
 30
0.0
 10
-86.95381600000002
 20
20.743747
 30
0.0
 10
-88.80570099999999
 20
20.71155400000001
 30
0.0
 10
-88.80570099999999
 20
20.71155400000001
 30
0.0
 10
-88.80570099999999
 20
20.71155400000001
 30
0.0
 10
-97.997905
 20
21.200434
 30
0.0
 10
-97.997905
 20
21.200434
 30
0.0
 10
-97.997905
 20
21.200434
 30
0.0
 10
-97.05454299999999
 20
25.523935
 30
0.0
 10
-93.486916
 20
27.035746
 30
0.0
 10
-86.38713100000002
 20
24.91113400000001
 30
0.0
 10
-86.38713100000002
 20
24.91113400000001
 30
0.0
 10
-79.04051200000001
 20
22.785325
 30
0.0
 10
-70.87067200000001
 20
21.355036
 30
0.0
 10
-62.24105800000001
 20
21.465412
 30
0.0
 10
-62.24105800000001
 20
21.465412
 30
0.0
 10
-51.83572600000001
 20
21.562117
 30
0.0
 10
-52.86136599999998
 20
20.888269
 30
0.0
 10
-52.27502500000001
 20
13.669792
 30
0.0
 10
-52.27502500000001
 20
13.669792
 30
0.0
 10
-52.27502500000001
 20
13.669792
 30
0.0
 10
-59.08475799999999
 20
14.03998
 30
0.0
 10
-59.08475799999999
 20
14.03998
 30
0.0
 10
-59.08475799999999
 20
14.03998
 30
0.0
 10
-60.63373900000001
 20
14.049556
 30
0.0
 10
-60.68539899999999
 20
12.05296
 30
0.0
 10
-59.239486
 20
11.923747
 30
0.0
 10
-59.239486
 20
11.923747
 30
0.0
 10
-59.239486
 20
11.923747
 30
0.0
 10
-52.12029700000001
 20
11.52817
 30
0.0
 10
-52.12029700000001
 20
11.52817
 30
0.0
 10
-52.12029700000001
 20
11.52817
 30
0.0
 10
-50.88631600000001
 20
9.046600000000001
 30
0.0
 10
-50.91170500000001
 20
6.364942000000002
 30
0.0
 10
-52.23413800000002
 20
3.871401999999999
 30
0.0
 10
-52.23413800000002
 20
3.871401999999999
 30
0.0
 10
-52.23413800000002
 20
3.871401999999999
 30
0.0
 10
-59.345011
 20
3.977368000000002
 30
0.0
 10
-59.345011
 20
3.977368000000002
 30
0.0
 10
-59.345011
 20
3.977368000000002
 30
0.0
 10
-60.888385
 20
3.91966
 30
0.0
 10
-60.727609
 20
1.900762
 30
0.0
 10
-59.42483200000001
 20
1.918023999999999
 30
0.0
 10
-59.42483200000001
 20
1.918023999999999
 30
0.0
 10
-59.42483200000001
 20
1.918023999999999
 30
0.0
 10
-52.23413800000002
 20
1.867623999999999
 30
0.0
 10
-52.23413800000002
 20
1.867623999999999
 30
0.0
 10
-52.23413800000002
 20
1.867623999999999
 30
0.0
 10
-52.08457600000001
 20
-0.8963749999999972
 30
0.0
 10
-52.78696300000001
 20
-2.288800999999999
 30
0.0
 10
-53.83572400000002
 20
-3.408562999999999
 30
0.0
 10
-53.83572400000002
 20
-3.408562999999999
 30
0.0
 10
-55.745632
 20
-5.448313999999999
 30
0.0
 10
-58.120732
 20
-5.190076999999998
 30
0.0
 10
-60.88397499999999
 20
-5.209039999999998
 30
0.0
 10
-60.88397499999999
 20
-5.209039999999998
 30
0.0
 10
-68.164255
 20
-5.074030999999999
 30
0.0
 10
-73.35677799999999
 20
-5.242744999999999
 30
0.0
 10
-80.485102
 20
-7.081714999999999
 30
0.0
 10
-80.485102
 20
-7.081714999999999
 30
0.0
 10
-85.05877599999999
 20
-8.339068999999998
 30
0.0
 10
-89.22811600000001
 20
-8.903738
 30
0.0
 10
-93.092725
 20
-8.946577999999998
 30
0.0
 10
-93.092725
 20
-8.946577999999998
 30
0.0
 10
-96.984676
 20
-8.803819999999999
 30
0.0
 10
-97.87795300000002
 20
-7.074785
 30
0.0
 10
-98.73305199999999
 20
-3.288043999999997
 30
0.0
 10
-98.73305199999999
 20
-3.288043999999997
 30
0.0
 10
-98.73305199999999
 20
-3.288043999999997
 30
0.0
 10
-89.24317300000002
 20
-3.286342999999998
 30
0.0
 10
-89.24317300000002
 20
-3.286342999999998
 30
0.0
 10
-89.24317300000002
 20
-3.286342999999998
 30
0.0
 10
-87.571279
 20
-3.238840999999997
 30
0.0
 10
-87.630058
 20
-1.114354999999997
 30
0.0
 10
-89.289163
 20
-1.207468999999999
 30
0.0
 10
-89.289163
 20
-1.207468999999999
 30
0.0
 10
-89.289163
 20
-1.207468999999999
 30
0.0
 10
-98.58519100000002
 20
-1.190269999999998
 30
0.0
 10
-98.58519100000002
 20
-1.190269999999998
 30
0.0
 10
-98.58519100000002
 20
-1.190269999999998
 30
0.0
 10
-98.49012400000001
 20
0.6904690000000003
 30
0.0
 10
-98.23365100000001
 20
1.716550000000001
 30
0.0
 10
-97.37993800000001
 20
3.255387999999999
 30
0.0
  0
SPLINE
  5
3D
330
1F
100
AcDbEntity
  8
Layer 1
 62
    22
370
     5
100
AcDbSpline
210
0.0
220
0.0
230
1.0
 70
    11
 71
     3
 72
    20
 73
    16
 74
     0
 42
0.0000000001
 43
0.0000000001
 40
0.0
 40
0.0
 40
0.0
 40
0.0
 40
0.25
 40
0.25
 40
0.25
 40
0.25
 40
0.5
 40
0.5
 40
0.5
 40
0.5
 40
0.75
 40
0.75
 40
0.75
 40
0.75
 40
1.0
 40
1.0
 40
1.0
 40
1.0
 10
-80.83229499999999
 20
13.618762
 30
0.0
 10
-80.83229499999999
 20
13.618762
 30
0.0
 10
-67.80295000000001
 20
13.618762
 30
0.0
 10
-67.80295000000001
 20
13.618762
 30
0.0
 10
-67.80295000000001
 20
13.618762
 30
0.0
 10
-66.44101600000002
 20
13.50763
 30
0.0
 10
-66.44101600000002
 20
11.618512
 30
0.0
 10
-67.80295000000001
 20
11.618512
 30
0.0
 10
-67.80295000000001
 20
11.618512
 30
0.0
 10
-67.80295000000001
 20
11.618512
 30
0.0
 10
-80.83229499999999
 20
11.618512
 30
0.0
 10
-80.83229499999999
 20
11.618512
 30
0.0
 10
-80.83229499999999
 20
11.618512
 30
0.0
 10
-81.96724000000001
 20
11.674456
 30
0.0
 10
-81.921691
 20
13.618762
 30
0.0
 10
-80.83229499999999
 20
13.618762
 30
0.0
  0
SPLINE
  5
3E
330
1F
100
AcDbEntity
  8
Layer 1
 62
    22
370
     5
100
AcDbSpline
210
0.0
220
0.0
230
1.0
 70
    11
 71
     3
 72
    64
 73
    60
 74
     0
 42
0.0000000001
 43
0.0000000001
 40
0.0
 40
0.0
 40
0.0
 40
0.0
 40
0.0666666666666667
 40
0.0666666666666667
 40
0.0666666666666667
 40
0.0666666666666667
 40
0.1333333333333333
 40
0.1333333333333333
 40
0.1333333333333333
 40
0.1333333333333333
 40
0.2
 40
0.2
 40
0.2
 40
0.2
 40
0.2666666666666666
 40
0.2666666666666666
 40
0.2666666666666666
 40
0.2666666666666666
 40
0.3333333333333333
 40
0.3333333333333333
 40
0.3333333333333333
 40
0.3333333333333333
 40
0.4
 40
0.4
 40
0.4
 40
0.4
 40
0.4666666666666666
 40
0.4666666666666666
 40
0.4666666666666666
 40
0.4666666666666666
 40
0.5333333333333333
 40
0.5333333333333333
 40
0.5333333333333333
 40
0.5333333333333333
 40
0.6
 40
0.6
 40
0.6
 40
0.6
 40
0.6666666666666666
 40
0.6666666666666666
 40
0.6666666666666666
 40
0.6666666666666666
 40
0.7333333333333333
 40
0.7333333333333333
 40
0.7333333333333333
 40
0.7333333333333333
 40
0.8
 40
0.8
 40
0.8
 40
0.8
 40
0.8666666666666666
 40
0.8666666666666666
 40
0.8666666666666666
 40
0.8666666666666666
 40
0.9333333333333332
 40
0.9333333333333332
 40
0.9333333333333332
 40
0.9333333333333332
 40
1.0
 40
1.0
 40
1.0
 40
1.0
 10
22.861358
 20
24.444556
 30
0.0
 10
21.725405
 20
24.042553
 30
0.0
 10
22.193684
 20
22.161751
 30
0.0
 10
23.366618
 20
22.402852
 30
0.0
 10
23.366618
 20
22.402852
 30
0.0
 10
23.366618
 20
22.402852
 30
0.0
 10
30.030884
 20
24.528409
 30
0.0
 10
30.030884
 20
24.528409
 30
0.0
 10
30.030884
 20
24.528409
 30
0.0
 10
29.766914
 20
20.260033
 30
0.0
 10
29.518064
 20
19.324294
 30
0.0
 10
24.739766
 20
19.173598
 30
0.0
 10
24.739766
 20
19.173598
 30
0.0
 10
20.15765
 20
19.299472
 30
0.0
 10
19.230164
 20
16.806184
 30
0.0
 10
18.03719599999999
 20
13.977484
 30
0.0
 10
18.03719599999999
 20
13.977484
 30
0.0
 10
15.900236
 20
7.054918
 30
0.0
 10
11.856455
 20
5.391151
 30
0.0
 10
7.77626
 20
10.574413
 30
0.0
 10
7.77626
 20
10.574413
 30
0.0
 10
6.868870999999998
 20
11.610574
 30
0.0
 10
7.461449000000001
 20
14.800705
 30
0.0
 10
4.179212000000006
 20
13.352587
 30
0.0
 10
4.179212000000006
 20
13.352587
 30
0.0
 10
4.179212000000006
 20
13.352587
 30
0.0
 10
-8.105977000000009
 20
9.028582000000003
 30
0.0
 10
-8.105977000000009
 20
9.028582000000003
 30
0.0
 10
-8.105977000000009
 20
9.028582000000003
 30
0.0
 10
-12.828079
 20
7.742563
 30
0.0
 10
-15.011218
 20
9.492829000000003
 30
0.0
 10
-17.90386300000001
 20
12.759001
 30
0.0
 10
-17.90386300000001
 20
12.759001
 30
0.0
 10
-22.199203
 20
19.135168
 30
0.0
 10
-18.46046799999999
 20
20.585743
 30
0.0
 10
-16.07365
 20
21.878818
 30
0.0
 10
-16.07365
 20
21.878818
 30
0.0
 10
-3.474973000000005
 20
27.432016
 30
0.0
 10
-2.849509000000011
 20
25.58643100000001
 30
0.0
 10
-1.087084000000004
 20
22.873651
 30
0.0
 10
-1.087084000000004
 20
22.873651
 30
0.0
 10
-1.087084000000004
 20
22.873651
 30
0.0
 10
-9.280108000000012
 20
20.042179
 30
0.0
 10
-9.280108000000012
 20
20.042179
 30
0.0
 10
-9.280108000000012
 20
20.042179
 30
0.0
 10
-10.57293099999999
 20
19.489102
 30
0.0
 10
-9.64966600000001
 20
17.644903
 30
0.0
 10
-8.849314000000006
 20
18.011185
 30
0.0
 10
-8.849314000000006
 20
18.011185
 30
0.0
 10
-8.849314000000006
 20
18.011185
 30
0.0
 10
23.239358
 20
29.04399700000001
 30
0.0
 10
23.239358
 20
29.04399700000001
 30
0.0
 10
23.239358
 20
29.04399700000001
 30
0.0
 10
27.708704
 20
30.757345
 30
0.0
 10
29.030444
 20
27.856573
 30
0.0
 10
29.215916
 20
26.48254300000001
 30
0.0
 10
29.215916
 20
26.48254300000001
 30
0.0
 10
29.215916
 20
26.48254300000001
 30
0.0
 10
22.861358
 20
24.444556
 30
0.0
 10
22.861358
 20
24.444556
 30
0.0
  0
SPLINE
  5
3F
330
1F
100
AcDbEntity
  8
Layer 1
 62
    22
370
     5
100
AcDbSpline
210
0.0
220
0.0
230
1.0
 70
    11
 71
     3
 72
    64
 73
    60
 74
     0
 42
0.0000000001
 43
0.0000000001
 40
0.0
 40
0.0
 40
0.0
 40
0.0
 40
0.0666666666666667
 40
0.0666666666666667
 40
0.0666666666666667
 40
0.0666666666666667
 40
0.1333333333333333
 40
0.1333333333333333
 40
0.1333333333333333
 40
0.1333333333333333
 40
0.2
 40
0.2
 40
0.2
 40
0.2
 40
0.2666666666666666
 40
0.2666666666666666
 40
0.2666666666666666
 40
0.2666666666666666
 40
0.3333333333333333
 40
0.3333333333333333
 40
0.3333333333333333
 40
0.3333333333333333
 40
0.4
 40
0.4
 40
0.4
 40
0.4
 40
0.4666666666666666
 40
0.4666666666666666
 40
0.4666666666666666
 40
0.4666666666666666
 40
0.5333333333333333
 40
0.5333333333333333
 40
0.5333333333333333
 40
0.5333333333333333
 40
0.6
 40
0.6
 40
0.6
 40
0.6
 40
0.6666666666666666
 40
0.6666666666666666
 40
0.6666666666666666
 40
0.6666666666666666
 40
0.7333333333333333
 40
0.7333333333333333
 40
0.7333333333333333
 40
0.7333333333333333
 40
0.8
 40
0.8
 40
0.8
 40
0.8
 40
0.8666666666666666
 40
0.8666666666666666
 40
0.8666666666666666
 40
0.8666666666666666
 40
0.9333333333333332
 40
0.9333333333333332
 40
0.9333333333333332
 40
0.9333333333333332
 40
1.0
 40
1.0
 40
1.0
 40
1.0
 10
-13.41568000000001
 20
3.026320000000001
 30
0.0
 10
-12.244951
 20
2.740930000000002
 30
0.0
 10
-12.52114299999999
 20
0.8225170000000012
 30
0.0
 10
-13.71240999999999
 20
0.9440440000000016
 30
0.0
 10
-13.71240999999999
 20
0.9440440000000016
 30
0.0
 10
-13.71240999999999
 20
0.9440440000000016
 30
0.0
 10
-20.557045
 20
2.386744
 30
0.0
 10
-20.557045
 20
2.386744
 30
0.0
 10
-20.557045
 20
2.386744
 30
0.0
 10
-19.864045
 20
-1.833247999999999
 30
0.0
 10
-19.522144
 20
-2.739124999999999
 30
0.0
 10
-14.75298099999999
 20
-2.407178
 30
0.0
 10
-14.75298099999999
 20
-2.407178
 30
0.0
 10
-10.206901
 20
-1.819891999999999
 30
0.0
 10
-9.032707000000002
 20
-4.206961999999998
 30
0.0
 10
-7.560586
 20
-6.900967999999998
 30
0.0
 10
-7.560586
 20
-6.900967999999998
 30
0.0
 10
-4.736485000000001
 20
-13.572731
 30
0.0
 10
-0.5455360000000127
 20
-14.820257
 30
0.0
 10
2.991220999999995
 20
-9.252002
 30
0.0
 10
2.991220999999995
 20
-9.252002
 30
0.0
 10
3.789430999999993
 20
-8.129593999999999
 30
0.0
 10
2.878198999999995
 20
-5.015503999999999
 30
0.0
 10
6.289774999999991
 20
-6.125249
 30
0.0
 10
6.289774999999991
 20
-6.125249
 30
0.0
 10
6.289774999999991
 20
-6.125249
 30
0.0
 10
18.948365
 20
-9.188434999999998
 30
0.0
 10
18.948365
 20
-9.188434999999998
 30
0.0
 10
18.948365
 20
-9.188434999999998
 30
0.0
 10
23.776118
 20
-9.991747999999999
 30
0.0
 10
25.77164300000001
 20
-8.030242999999998
 30
0.0
 10
28.320182
 20
-4.488949999999999
 30
0.0
 10
28.320182
 20
-4.488949999999999
 30
0.0
 10
31.95062
 20
2.287834
 30
0.0
 10
28.084688
 20
3.353982999999999
 30
0.0
 10
25.579619
 20
4.399782999999999
 30
0.0
 10
25.579619
 20
4.399782999999999
 30
0.0
 10
12.485195
 20
8.654236
 30
0.0
 10
12.049046
 20
6.755037999999998
 30
0.0
 10
10.569113
 20
3.878332
 30
0.0
 10
10.569113
 20
3.878332
 30
0.0
 10
10.569113
 20
3.878332
 30
0.0
 10
19.00588399999999
 20
1.887469000000002
 30
0.0
 10
19.00588399999999
 20
1.887469000000002
 30
0.0
 10
19.00588399999999
 20
1.887469000000002
 30
0.0
 10
20.34791
 20
1.467511000000001
 30
0.0
 10
19.615346
 20
-0.4602889999999995
 30
0.0
 10
18.782171
 20
-0.1766629999999996
 30
0.0
 10
18.782171
 20
-0.1766629999999996
 30
0.0
 10
18.782171
 20
-0.1766629999999996
 30
0.0
 10
-14.25547
 20
7.564210000000002
 30
0.0
 10
-14.25547
 20
7.564210000000002
 30
0.0
 10
-14.25547
 20
7.564210000000002
 30
0.0
 10
-18.874819
 20
8.818099
 30
0.0
 10
-19.897372
 20
5.798823999999999
 30
0.0
 10
-19.94329900000001
 20
4.413139000000001
 30
0.0
 10
-19.94329900000001
 20
4.413139000000001
 30
0.0
 10
-19.94329900000001
 20
4.413139000000001
 30
0.0
 10
-13.41568000000001
 20
3.026320000000001
 30
0.0
 10
-13.41568000000001
 20
3.026320000000001
 30
0.0
  0
SPLINE
  5
40
330
1F
100
AcDbEntity
  8
Layer 1
 62
    22
370
     5
100
AcDbSpline
210
0.0
220
0.0
230
1.0
 70
    11
 71
     3
 72
    80
 73
    76
 74
     0
 42
0.0000000001
 43
0.0000000001
 40
0.0
 40
0.0
 40
0.0
 40
0.0
 40
0.0526315789473684
 40
0.0526315789473684
 40
0.0526315789473684
 40
0.0526315789473684
 40
0.1052631578947368
 40
0.1052631578947368
 40
0.1052631578947368
 40
0.1052631578947368
 40
0.1578947368421053
 40
0.1578947368421053
 40
0.1578947368421053
 40
0.1578947368421053
 40
0.2105263157894737
 40
0.2105263157894737
 40
0.2105263157894737
 40
0.2105263157894737
 40
0.2631578947368421
 40
0.2631578947368421
 40
0.2631578947368421
 40
0.2631578947368421
 40
0.3157894736842105
 40
0.3157894736842105
 40
0.3157894736842105
 40
0.3157894736842105
 40
0.3684210526315789
 40
0.3684210526315789
 40
0.3684210526315789
 40
0.3684210526315789
 40
0.4210526315789474
 40
0.4210526315789474
 40
0.4210526315789474
 40
0.4210526315789474
 40
0.4736842105263158
 40
0.4736842105263158
 40
0.4736842105263158
 40
0.4736842105263158
 40
0.5263157894736842
 40
0.5263157894736842
 40
0.5263157894736842
 40
0.5263157894736842
 40
0.5789473684210527
 40
0.5789473684210527
 40
0.5789473684210527
 40
0.5789473684210527
 40
0.6315789473684211
 40
0.6315789473684211
 40
0.6315789473684211
 40
0.6315789473684211
 40
0.6842105263157894
 40
0.6842105263157894
 40
0.6842105263157894
 40
0.6842105263157894
 40
0.7368421052631577
 40
0.7368421052631577
 40
0.7368421052631577
 40
0.7368421052631577
 40
0.7894736842105261
 40
0.7894736842105261
 40
0.7894736842105261
 40
0.7894736842105261
 40
0.8421052631578945
 40
0.8421052631578945
 40
0.8421052631578945
 40
0.8421052631578945
 40
0.8947368421052628
 40
0.8947368421052628
 40
0.8947368421052628
 40
0.8947368421052628
 40
0.9473684210526311
 40
0.9473684210526311
 40
0.9473684210526311
 40
0.9473684210526311
 40
1.0
 40
1.0
 40
1.0
 40
1.0
 10
-45.341623
 20
22.518079
 30
0.0
 10
-45.03034000000001
 20
24.47838700000001
 30
0.0
 10
-43.376716
 20
25.85248000000001
 30
0.0
 10
-40.903084
 20
25.815877
 30
0.0
 10
-40.903084
 20
25.815877
 30
0.0
 10
-40.903084
 20
25.815877
 30
0.0
 10
-42.18532300000001
 20
20.44859200000001
 30
0.0
 10
-42.18532300000001
 20
20.44859200000001
 30
0.0
 10
-42.18532300000001
 20
20.44859200000001
 30
0.0
 10
-42.30433
 20
19.123702
 30
0.0
 10
-40.521934
 20
18.890161
 30
0.0
 10
-40.22892100000001
 20
19.966831
 30
0.0
 10
-40.22892100000001
 20
19.966831
 30
0.0
 10
-39.11142699999999
 20
22.75162
 30
0.0
 10
-39.47884300000001
 20
27.757852
 30
0.0
 10
-35.83290700000001
 20
27.84958
 30
0.0
 10
-35.83290700000001
 20
27.84958
 30
0.0
 10
-32.223637
 20
27.702916
 30
0.0
 10
-32.06040400000001
 20
23.482042
 30
0.0
 10
-31.26313900000001
 20
20.438386
 30
0.0
 10
-31.26313900000001
 20
20.438386
 30
0.0
 10
-30.915442
 20
19.264885
 30
0.0
 10
-29.016307
 20
19.654918
 30
0.0
 10
-29.295523
 20
20.99669200000001
 30
0.0
 10
-29.295523
 20
20.99669200000001
 30
0.0
 10
-29.295523
 20
20.99669200000001
 30
0.0
 10
-30.50474500000002
 20
26.328193
 30
0.0
 10
-30.50474500000002
 20
26.328193
 30
0.0
 10
-30.50474500000002
 20
26.328193
 30
0.0
 10
-24.51369700000001
 20
26.27319400000001
 30
0.0
 10
-25.444711
 20
20.53937500000001
 30
0.0
 10
-24.730228
 20
15.48268
 30
0.0
 10
-24.730228
 20
15.48268
 30
0.0
 10
-23.83972300000001
 20
8.622421000000002
 30
0.0
 10
-28.198819
 20
8.416978000000003
 30
0.0
 10
-31.06361800000001
 20
8.502343000000003
 30
0.0
 10
-31.06361800000001
 20
8.502343000000003
 30
0.0
 10
-31.06361800000001
 20
8.502343000000003
 30
0.0
 10
-31.66583500000001
 20
15.867484
 30
0.0
 10
-31.66583500000001
 20
15.867484
 30
0.0
 10
-31.66583500000001
 20
15.867484
 30
0.0
 10
-31.955383
 20
17.324737
 30
0.0
 10
-33.878332
 20
16.869247
 30
0.0
 10
-33.74987500000002
 20
15.733105
 30
0.0
 10
-33.74987500000002
 20
15.733105
 30
0.0
 10
-33.74987500000002
 20
15.733105
 30
0.0
 10
-33.25627000000002
 20
9.656566000000005
 30
0.0
 10
-33.25627000000002
 20
9.656566000000005
 30
0.0
 10
-33.25627000000002
 20
9.656566000000005
 30
0.0
 10
-33.219667
 20
8.942146000000001
 30
0.0
 10
-33.26798800000002
 20
8.520991000000002
 30
0.0
 10
-34.29388
 20
8.392407999999999
 30
0.0
 10
-34.29388
 20
8.392407999999999
 30
0.0
 10
-34.29388
 20
8.392407999999999
 30
0.0
 10
-36.68422600000001
 20
8.557279000000001
 30
0.0
 10
-36.68422600000001
 20
8.557279000000001
 30
0.0
 10
-36.68422600000001
 20
8.557279000000001
 30
0.0
 10
-36.68422600000001
 20
8.557279000000001
 30
0.0
 10
-36.82484200000001
 20
15.177382
 30
0.0
 10
-36.82484200000001
 20
15.177382
 30
0.0
 10
-36.82484200000001
 20
15.177382
 30
0.0
 10
-36.96665500000002
 20
17.014084
 30
0.0
 10
-38.987065
 20
16.75597299999999
 30
0.0
 10
-38.888533
 20
15.18343
 30
0.0
 10
-38.888533
 20
15.18343
 30
0.0
 10
-38.888533
 20
15.18343
 30
0.0
 10
-38.754154
 20
8.502343000000003
 30
0.0
 10
-38.754154
 20
8.502343000000003
 30
0.0
 10
-38.754154
 20
8.502343000000003
 30
0.0
 10
-44.43379300000001
 20
7.421389000000001
 30
0.0
 10
-45.488287
 20
9.803230000000002
 30
0.0
 10
-45.561493
 20
13.66891
 30
0.0
 10
-45.561493
 20
13.66891
 30
0.0
 10
-45.561493
 20
13.66891
 30
0.0
 10
-45.65290599999999
 20
20.557771
 30
0.0
 10
-45.341623
 20
22.518079
 30
0.0
  0
SPLINE
  5
41
330
1F
100
AcDbEntity
  8
Layer 1
 62
    22
370
     5
100
AcDbSpline
210
0.0
220
0.0
230
1.0
 70
    11
 71
     3
 72
    80
 73
    76
 74
     0
 42
0.0000000001
 43
0.0000000001
 40
0.0
 40
0.0
 40
0.0
 40
0.0
 40
0.0526315789473684
 40
0.0526315789473684
 40
0.0526315789473684
 40
0.0526315789473684
 40
0.1052631578947368
 40
0.1052631578947368
 40
0.1052631578947368
 40
0.1052631578947368
 40
0.1578947368421053
 40
0.1578947368421053
 40
0.1578947368421053
 40
0.1578947368421053
 40
0.2105263157894737
 40
0.2105263157894737
 40
0.2105263157894737
 40
0.2105263157894737
 40
0.2631578947368421
 40
0.2631578947368421
 40
0.2631578947368421
 40
0.2631578947368421
 40
0.3157894736842105
 40
0.3157894736842105
 40
0.3157894736842105
 40
0.3157894736842105
 40
0.3684210526315789
 40
0.3684210526315789
 40
0.3684210526315789
 40
0.3684210526315789
 40
0.4210526315789474
 40
0.4210526315789474
 40
0.4210526315789474
 40
0.4210526315789474
 40
0.4736842105263158
 40
0.4736842105263158
 40
0.4736842105263158
 40
0.4736842105263158
 40
0.5263157894736842
 40
0.5263157894736842
 40
0.5263157894736842
 40
0.5263157894736842
 40
0.5789473684210527
 40
0.5789473684210527
 40
0.5789473684210527
 40
0.5789473684210527
 40
0.6315789473684211
 40
0.6315789473684211
 40
0.6315789473684211
 40
0.6315789473684211
 40
0.6842105263157894
 40
0.6842105263157894
 40
0.6842105263157894
 40
0.6842105263157894
 40
0.7368421052631577
 40
0.7368421052631577
 40
0.7368421052631577
 40
0.7368421052631577
 40
0.7894736842105261
 40
0.7894736842105261
 40
0.7894736842105261
 40
0.7894736842105261
 40
0.8421052631578945
 40
0.8421052631578945
 40
0.8421052631578945
 40
0.8421052631578945
 40
0.8947368421052628
 40
0.8947368421052628
 40
0.8947368421052628
 40
0.8947368421052628
 40
0.9473684210526311
 40
0.9473684210526311
 40
0.9473684210526311
 40
0.9473684210526311
 40
1.0
 40
1.0
 40
1.0
 40
1.0
 10
-51.50396800000001
 20
-2.081341999999999
 30
0.0
 10
-51.51700900000001
 20
0.2921200000000006
 30
0.0
 10
-44.338663
 20
1.105954
 30
0.0
 10
-41.567104
 20
1.371814
 30
0.0
 10
-41.567104
 20
1.371814
 30
0.0
 10
-38.559106
 20
1.660291
 30
0.0
 10
-35.98524100000002
 20
1.559428
 30
0.0
 10
-32.96886400000001
 20
1.581352000000002
 30
0.0
 10
-32.96886400000001
 20
1.581352000000002
 30
0.0
 10
-31.73400100000001
 20
1.628665000000001
 30
0.0
 10
-31.518289
 20
3.405895000000001
 30
0.0
 10
-32.90101300000001
 20
3.660982
 30
0.0
 10
-32.90101300000001
 20
3.660982
 30
0.0
 10
-32.90101300000001
 20
3.660982
 30
0.0
 10
-40.066192
 20
3.634585000000001
 30
0.0
 10
-40.066192
 20
3.634585000000001
 30
0.0
 10
-40.066192
 20
3.634585000000001
 30
0.0
 10
-40.03903899999999
 20
5.06437
 30
0.0
 10
-39.725488
 20
6.149986000000001
 30
0.0
 10
-37.765621
 20
7.121131000000001
 30
0.0
 10
-37.765621
 20
7.121131000000001
 30
0.0
 10
-37.765621
 20
7.121131000000001
 30
0.0
 10
-25.75089100000001
 20
7.597285000000002
 30
0.0
 10
-25.75089100000001
 20
7.597285000000002
 30
0.0
 10
-25.75089100000001
 20
7.597285000000002
 30
0.0
 10
-23.31650800000002
 20
7.852687000000003
 30
0.0
 10
-22.470985
 20
7.249147
 30
0.0
 10
-21.92389300000001
 20
4.47343
 30
0.0
 10
-21.92389300000001
 20
4.47343
 30
0.0
 10
-21.92389300000001
 20
4.47343
 30
0.0
 10
-22.12083100000001
 20
-1.687654999999999
 30
0.0
 10
-22.12083100000001
 20
-1.687654999999999
 30
0.0
 10
-22.12083100000001
 20
-1.687654999999999
 30
0.0
 10
-22.12083100000001
 20
-1.687654999999999
 30
0.0
 10
-29.543995
 20
-1.535950999999998
 30
0.0
 10
-29.543995
 20
-1.535950999999998
 30
0.0
 10
-29.543995
 20
-1.535950999999998
 30
0.0
 10
-30.667096
 20
-1.612621999999998
 30
0.0
 10
-31.00660300000001
 20
-3.403081999999999
 30
0.0
 10
-29.548405
 20
-3.613060999999998
 30
0.0
 10
-29.548405
 20
-3.613060999999998
 30
0.0
 10
-29.548405
 20
-3.613060999999998
 30
0.0
 10
-22.21980400000001
 20
-3.828835999999999
 30
0.0
 10
-22.21980400000001
 20
-3.828835999999999
 30
0.0
 10
-22.21980400000001
 20
-3.828835999999999
 30
0.0
 10
-22.21980400000001
 20
-3.828835999999999
 30
0.0
 10
-22.244752
 20
-9.954703999999999
 30
0.0
 10
-22.244752
 20
-9.954703999999999
 30
0.0
 10
-22.244752
 20
-9.954703999999999
 30
0.0
 10
-22.915513
 20
-12.703016
 30
0.0
 10
-23.78737000000001
 20
-13.268
 30
0.0
 10
-26.207767
 20
-12.903923
 30
0.0
 10
-26.207767
 20
-12.903923
 30
0.0
 10
-26.207767
 20
-12.903923
 30
0.0
 10
-38.188918
 20
-11.890127
 30
0.0
 10
-38.188918
 20
-11.890127
 30
0.0
 10
-38.188918
 20
-11.890127
 30
0.0
 10
-40.103551
 20
-10.832168
 30
0.0
 10
-40.619962
 20
-9.811819999999999
 30
0.0
 10
-40.58304400000001
 20
-8.382160999999999
 30
0.0
 10
-40.58304400000001
 20
-8.382160999999999
 30
0.0
 10
-40.58304400000001
 20
-8.382160999999999
 30
0.0
 10
-33.058009
 20
-8.581177999999999
 30
0.0
 10
-33.058009
 20
-8.581177999999999
 30
0.0
 10
-33.058009
 20
-8.581177999999999
 30
0.0
 10
-31.815838
 20
-8.278273999999999
 30
0.0
 10
-32.05303300000001
 20
-6.624523999999999
 30
0.0
 10
-33.13972000000001
 20
-6.505328
 30
0.0
 10
-33.13972000000001
 20
-6.505328
 30
0.0
 10
-36.15174999999999
 20
-6.348331999999999
 30
0.0
 10
-39.220165
 20
-6.352615999999999
 30
0.0
 10
-42.27705100000001
 20
-6.069241999999999
 30
0.0
 10
-42.27705100000001
 20
-6.069241999999999
 30
0.0
 10
-46.997578
 20
-5.631517999999999
 30
0.0
 10
-51.39270999999999
 20
-4.554406999999999
 30
0.0
 10
-51.50396800000001
 20
-2.081341999999999
 30
0.0
  0
SPLINE
  5
42
330
1F
100
AcDbEntity
  8
Layer 1
 62
    22
370
     5
100
AcDbSpline
210
0.0
220
0.0
230
1.0
 70
    11
 71
     3
 72
    68
 73
    64
 74
     0
 42
0.0000000001
 43
0.0000000001
 40
0.0
 40
0.0
 40
0.0
 40
0.0
 40
0.0625
 40
0.0625
 40
0.0625
 40
0.0625
 40
0.125
 40
0.125
 40
0.125
 40
0.125
 40
0.1875
 40
0.1875
 40
0.1875
 40
0.1875
 40
0.25
 40
0.25
 40
0.25
 40
0.25
 40
0.3125
 40
0.3125
 40
0.3125
 40
0.3125
 40
0.375
 40
0.375
 40
0.375
 40
0.375
 40
0.4375
 40
0.4375
 40
0.4375
 40
0.4375
 40
0.5
 40
0.5
 40
0.5
 40
0.5
 40
0.5625
 40
0.5625
 40
0.5625
 40
0.5625
 40
0.625
 40
0.625
 40
0.625
 40
0.625
 40
0.6875
 40
0.6875
 40
0.6875
 40
0.6875
 40
0.75
 40
0.75
 40
0.75
 40
0.75
 40
0.8125
 40
0.8125
 40
0.8125
 40
0.8125
 40
0.875
 40
0.875
 40
0.875
 40
0.875
 40
0.9375
 40
0.9375
 40
0.9375
 40
0.9375
 40
1.0
 40
1.0
 40
1.0
 40
1.0
 10
43.923707
 20
37.003732
 30
0.0
 10
43.193222
 20
36.98823400000001
 30
0.0
 10
42.902162
 20
36.58648300000001
 30
0.0
 10
42.897311
 20
35.91937600000001
 30
0.0
 10
42.897311
 20
35.91937600000001
 30
0.0
 10
42.897311
 20
35.91937600000001
 30
0.0
 10
42.90947
 20
32.79722200000001
 30
0.0
 10
42.90947
 20
32.79722200000001
 30
0.0
 10
42.90947
 20
32.79722200000001
 30
0.0
 10
41.57134999999999
 20
32.855056
 30
0.0
 10
38.926106
 20
32.41701700000001
 30
0.0
 10
38.719907
 20
29.85361000000001
 30
0.0
 10
38.719907
 20
29.85361000000001
 30
0.0
 10
38.513771
 20
27.29020300000001
 30
0.0
 10
38.739815
 20
28.791367
 30
0.0
 10
38.47427
 20
24.188398
 30
0.0
 10
38.47427
 20
24.188398
 30
0.0
 10
38.12021
 20
21.975397
 30
0.0
 10
35.995724
 20
20.205034
 30
0.0
 10
33.428663
 20
23.3917
 30
0.0
 10
33.428663
 20
23.3917
 30
0.0
 10
33.428663
 20
23.3917
 30
0.0
 10
25.37342
 20
35.78436700000001
 30
0.0
 10
25.37342
 20
35.78436700000001
 30
0.0
 10
25.37342
 20
35.78436700000001
 30
0.0
 10
24.28175599999999
 20
37.259764
 30
0.0
 10
22.74751699999999
 20
40.948099
 30
0.0
 10
26.347148
 20
42.865882
 30
0.0
 10
26.347148
 20
42.865882
 30
0.0
 10
30.330512
 20
45.019978
 30
0.0
 10
34.490906
 20
47.88200500000001
 30
0.0
 10
43.923707
 20
47.73445900000001
 30
0.0
 10
43.923707
 20
47.73445900000001
 30
0.0
 10
53.356508
 20
47.88200500000001
 30
0.0
 10
57.516902
 20
45.019978
 30
0.0
 10
61.500266
 20
42.865882
 30
0.0
 10
61.500266
 20
42.865882
 30
0.0
 10
65.09996
 20
40.948099
 30
0.0
 10
63.565658
 20
37.259764
 30
0.0
 10
62.473994
 20
35.78436700000001
 30
0.0
 10
62.473994
 20
35.78436700000001
 30
0.0
 10
62.473994
 20
35.78436700000001
 30
0.0
 10
54.418751
 20
23.3917
 30
0.0
 10
54.418751
 20
23.3917
 30
0.0
 10
54.418751
 20
23.3917
 30
0.0
 10
51.85169000000001
 20
20.205034
 30
0.0
 10
49.72726699999999
 20
21.975397
 30
0.0
 10
49.373207
 20
24.188398
 30
0.0
 10
49.373207
 20
24.188398
 30
0.0
 10
49.107599
 20
28.791367
 30
0.0
 10
49.33370599999999
 20
27.29020300000001
 30
0.0
 10
49.127507
 20
29.85361000000001
 30
0.0
 10
49.127507
 20
29.85361000000001
 30
0.0
 10
48.921308
 20
32.41701700000001
 30
0.0
 10
46.298681
 20
32.832565
 30
0.0
 10
44.96062399999999
 20
32.774731
 30
0.0
 10
44.96062399999999
 20
32.774731
 30
0.0
 10
44.96062399999999
 20
32.774731
 30
0.0
 10
44.950292
 20
35.94180400000001
 30
0.0
 10
44.950292
 20
35.94180400000001
 30
0.0
 10
44.950292
 20
35.94180400000001
 30
0.0
 10
44.96805799999999
 20
36.451663
 30
0.0
 10
44.654192
 20
36.98823400000001
 30
0.0
 10
43.923707
 20
37.003732
 30
0.0
  0
SPLINE
  5
43
330
1F
100
AcDbEntity
  8
Layer 1
 62
    22
370
     5
100
AcDbSpline
210
0.0
220
0.0
230
1.0
 70
    11
 71
     3
 72
    64
 73
    60
 74
     0
 42
0.0000000001
 43
0.0000000001
 40
0.0
 40
0.0
 40
0.0
 40
0.0
 40
0.0666666666666667
 40
0.0666666666666667
 40
0.0666666666666667
 40
0.0666666666666667
 40
0.1333333333333333
 40
0.1333333333333333
 40
0.1333333333333333
 40
0.1333333333333333
 40
0.2
 40
0.2
 40
0.2
 40
0.2
 40
0.2666666666666666
 40
0.2666666666666666
 40
0.2666666666666666
 40
0.2666666666666666
 40
0.3333333333333333
 40
0.3333333333333333
 40
0.3333333333333333
 40
0.3333333333333333
 40
0.4
 40
0.4
 40
0.4
 40
0.4
 40
0.4666666666666666
 40
0.4666666666666666
 40
0.4666666666666666
 40
0.4666666666666666
 40
0.5333333333333333
 40
0.5333333333333333
 40
0.5333333333333333
 40
0.5333333333333333
 40
0.6
 40
0.6
 40
0.6
 40
0.6
 40
0.6666666666666666
 40
0.6666666666666666
 40
0.6666666666666666
 40
0.6666666666666666
 40
0.7333333333333333
 40
0.7333333333333333
 40
0.7333333333333333
 40
0.7333333333333333
 40
0.8
 40
0.8
 40
0.8
 40
0.8
 40
0.8666666666666666
 40
0.8666666666666666
 40
0.8666666666666666
 40
0.8666666666666666
 40
0.9333333333333332
 40
0.9333333333333332
 40
0.9333333333333332
 40
0.9333333333333332
 40
1.0
 40
1.0
 40
1.0
 40
1.0
 10
212.24654
 20
23.49010600000001
 30
0.0
 10
212.24654
 20
23.49010600000001
 30
0.0
 10
216.105164
 20
21.732532
 30
0.0
 10
216.105164
 20
21.732532
 30
0.0
 10
216.105164
 20
21.732532
 30
0.0
 10
215.739512
 20
20.47713100000001
 30
0.0
 10
214.751042
 20
18.6541
 30
0.0
 10
216.855368
 20
17.534653
 30
0.0
 10
216.855368
 20
17.534653
 30
0.0
 10
218.959631
 20
16.415206
 30
0.0
 10
219.759101
 20
16.424467
 30
0.0
 10
221.427908
 20
14.732791
 30
0.0
 10
221.427908
 20
14.732791
 30
0.0
 10
222.778376
 20
12.863455
 30
0.0
 10
221.515037
 20
10.477267
 30
0.0
 10
217.544147
 20
9.704635000000003
 30
0.0
 10
217.544147
 20
9.704635000000003
 30
0.0
 10
217.544147
 20
9.704635000000003
 30
0.0
 10
205.592858
 20
7.487161
 30
0.0
 10
205.592858
 20
7.487161
 30
0.0
 10
205.592858
 20
7.487161
 30
0.0
 10
203.831504
 20
6.971569000000002
 30
0.0
 10
200.597777
 20
8.091015999999999
 30
0.0
 10
199.927142
 20
11.986999
 30
0.0
 10
199.927142
 20
11.986999
 30
0.0
 10
199.433411
 20
16.488475
 30
0.0
 10
197.312327
 20
20.198167
 30
0.0
 10
201.004568
 20
28.87963000000001
 30
0.0
 10
201.004568
 20
28.87963000000001
 30
0.0
 10
204.260912
 20
36.37278700000001
 30
0.0
 10
209.206853
 20
39.22152100000001
 30
0.0
 10
210.196457
 20
39.89776300000001
 30
0.0
 10
210.196457
 20
39.89776300000001
 30
0.0
 10
214.926056
 20
42.735724
 30
0.0
 10
218.962529
 20
43.658485
 30
0.0
 10
220.76162
 20
41.38153900000001
 30
0.0
 10
220.76162
 20
41.38153900000001
 30
0.0
 10
222.444287
 20
38.98457800000001
 30
0.0
 10
225.532799
 20
34.90425700000001
 30
0.0
 10
227.58389
 20
31.29517600000001
 30
0.0
 10
227.58389
 20
31.29517600000001
 30
0.0
 10
229.604048
 20
27.01357
 30
0.0
 10
229.436657
 20
25.03114900000001
 30
0.0
 10
226.208663
 20
24.102781
 30
0.0
 10
226.208663
 20
24.102781
 30
0.0
 10
224.196821
 20
23.90779600000001
 30
0.0
 10
221.662142
 20
25.738765
 30
0.0
 10
220.502123
 20
26.093455
 30
0.0
 10
220.502123
 20
26.093455
 30
0.0
 10
218.448764
 20
26.76528700000001
 30
0.0
 10
217.253528
 20
24.62089300000001
 30
0.0
 10
216.878426
 20
23.744752
 30
0.0
 10
216.878426
 20
23.744752
 30
0.0
 10
216.878426
 20
23.744752
 30
0.0
 10
213.10586
 20
25.36032400000001
 30
0.0
 10
213.10586
 20
25.36032400000001
 30
0.0
 10
213.10586
 20
25.36032400000001
 30
0.0
 10
211.641299
 20
26.134027
 30
0.0
 10
210.888449
 20
24.061705
 30
0.0
 10
212.24654
 20
23.49010600000001
 30
0.0
  0
SPLINE
  5
44
330
1F
100
AcDbEntity
  8
Layer 1
 62
    22
370
     5
100
AcDbSpline
210
0.0
220
0.0
230
1.0
 70
    11
 71
     3
 72
    64
 73
    60
 74
     0
 42
0.0000000001
 43
0.0000000001
 40
0.0
 40
0.0
 40
0.0
 40
0.0
 40
0.0666666666666667
 40
0.0666666666666667
 40
0.0666666666666667
 40
0.0666666666666667
 40
0.1333333333333333
 40
0.1333333333333333
 40
0.1333333333333333
 40
0.1333333333333333
 40
0.2
 40
0.2
 40
0.2
 40
0.2
 40
0.2666666666666666
 40
0.2666666666666666
 40
0.2666666666666666
 40
0.2666666666666666
 40
0.3333333333333333
 40
0.3333333333333333
 40
0.3333333333333333
 40
0.3333333333333333
 40
0.4
 40
0.4
 40
0.4
 40
0.4
 40
0.4666666666666666
 40
0.4666666666666666
 40
0.4666666666666666
 40
0.4666666666666666
 40
0.5333333333333333
 40
0.5333333333333333
 40
0.5333333333333333
 40
0.5333333333333333
 40
0.6
 40
0.6
 40
0.6
 40
0.6
 40
0.6666666666666666
 40
0.6666666666666666
 40
0.6666666666666666
 40
0.6666666666666666
 40
0.7333333333333333
 40
0.7333333333333333
 40
0.7333333333333333
 40
0.7333333333333333
 40
0.8
 40
0.8
 40
0.8
 40
0.8
 40
0.8666666666666666
 40
0.8666666666666666
 40
0.8666666666666666
 40
0.8666666666666666
 40
0.9333333333333332
 40
0.9333333333333332
 40
0.9333333333333332
 40
0.9333333333333332
 40
1.0
 40
1.0
 40
1.0
 40
1.0
 10
48.96276199999999
 20
1.906621000000001
 30
0.0
 10
48.96276199999999
 20
1.906621000000001
 30
0.0
 10
51.717752
 20
-0.4508390000000003
 30
0.0
 10
51.717752
 20
-0.4508390000000003
 30
0.0
 10
51.717752
 20
-0.4508390000000003
 30
0.0
 10
50.93409499999999
 20
-1.328428999999999
 30
0.0
 10
49.393241
 20
-3.484225999999999
 30
0.0
 10
50.599628
 20
-4.862791999999998
 30
0.0
 10
50.599628
 20
-4.862791999999998
 30
0.0
 10
51.806015
 20
-6.241294999999999
 30
0.0
 10
52.098083
 20
-6.402574999999998
 30
0.0
 10
52.980083
 20
-8.256412999999998
 30
0.0
 10
52.980083
 20
-8.256412999999998
 30
0.0
 10
53.549666
 20
-10.174952
 30
0.0
 10
52.234163
 20
-12.062936
 30
0.0
 10
49.05379700000001
 20
-11.901278
 30
0.0
 10
49.05379700000001
 20
-11.901278
 30
0.0
 10
49.05379700000001
 20
-11.901278
 30
0.0
 10
38.480696
 20
-9.527752999999998
 30
0.0
 10
38.480696
 20
-9.527752999999998
 30
0.0
 10
38.480696
 20
-9.527752999999998
 30
0.0
 10
36.319166
 20
-8.849683999999999
 30
0.0
 10
34.020359
 20
-8.753734999999998
 30
0.0
 10
34.480133
 20
-4.348837999999998
 30
0.0
 10
34.480133
 20
-4.348837999999998
 30
0.0
 10
35.965736
 20
1.067965
 30
0.0
 10
36.92321
 20
4.124095
 30
0.0
 10
41.696279
 20
9.605221
 30
0.0
 10
41.696279
 20
9.605221
 30
0.0
 10
46.295279
 20
14.717482
 30
0.0
 10
50.88527
 20
16.29607300000001
 30
0.0
 10
52.041887
 20
16.789426
 30
0.0
 10
52.041887
 20
16.789426
 30
0.0
 10
54.927098
 20
17.882665
 30
0.0
 10
58.801661
 20
19.512223
 30
0.0
 10
61.263449
 20
14.659522
 30
0.0
 10
61.263449
 20
14.659522
 30
0.0
 10
61.953488
 20
12.212476
 30
0.0
 10
63.754028
 20
8.421955
 30
0.0
 10
64.254122
 20
4.683661000000004
 30
0.0
 10
64.254122
 20
4.683661000000004
 30
0.0
 10
64.926458
 20
1.257342999999998
 30
0.0
 10
62.643968
 20
0.0079270000000022
 30
0.0
 10
61.37117899999999
 20
0.054547000000003
 30
0.0
 10
61.37117899999999
 20
0.054547000000003
 30
0.0
 10
59.663816
 20
0.4214590000000023
 30
0.0
 10
58.658021
 20
1.621798000000001
 30
0.0
 10
57.808277
 20
2.223888999999999
 30
0.0
 10
57.808277
 20
2.223888999999999
 30
0.0
 10
56.195855
 20
3.323806000000001
 30
0.0
 10
54.043838
 20
2.141737000000002
 30
0.0
 10
53.10217699999999
 20
1.090708000000002
 30
0.0
 10
53.10217699999999
 20
1.090708000000002
 30
0.0
 10
53.10217699999999
 20
1.090708000000002
 30
0.0
 10
50.35405400000001
 20
3.40558
 30
0.0
 10
50.35405400000001
 20
3.40558
 30
0.0
 10
50.35405400000001
 20
3.40558
 30
0.0
 10
49.292315
 20
4.157547999999998
 30
0.0
 10
48.127508
 20
2.833099
 30
0.0
 10
48.96276199999999
 20
1.906621000000001
 30
0.0
  0
SPLINE
  5
45
330
1F
100
AcDbEntity
  8
Layer 1
 62
    22
370
     5
100
AcDbSpline
210
0.0
220
0.0
230
1.0
 70
    11
 71
     3
 72
    56
 73
    52
 74
     0
 42
0.0000000001
 43
0.0000000001
 40
0.0
 40
0.0
 40
0.0
 40
0.0
 40
0.0769230769230769
 40
0.0769230769230769
 40
0.0769230769230769
 40
0.0769230769230769
 40
0.1538461538461539
 40
0.1538461538461539
 40
0.1538461538461539
 40
0.1538461538461539
 40
0.2307692307692308
 40
0.2307692307692308
 40
0.2307692307692308
 40
0.2307692307692308
 40
0.3076923076923077
 40
0.3076923076923077
 40
0.3076923076923077
 40
0.3076923076923077
 40
0.3846153846153846
 40
0.3846153846153846
 40
0.3846153846153846
 40
0.3846153846153846
 40
0.4615384615384616
 40
0.4615384615384616
 40
0.4615384615384616
 40
0.4615384615384616
 40
0.5384615384615385
 40
0.5384615384615385
 40
0.5384615384615385
 40
0.5384615384615385
 40
0.6153846153846155
 40
0.6153846153846155
 40
0.6153846153846155
 40
0.6153846153846155
 40
0.6923076923076924
 40
0.6923076923076924
 40
0.6923076923076924
 40
0.6923076923076924
 40
0.7692307692307692
 40
0.7692307692307692
 40
0.7692307692307692
 40
0.7692307692307692
 40
0.8461538461538459
 40
0.8461538461538459
 40
0.8461538461538459
 40
0.8461538461538459
 40
0.9230769230769229
 40
0.9230769230769229
 40
0.9230769230769229
 40
0.9230769230769229
 40
1.0
 40
1.0
 40
1.0
 40
1.0
 10
139.546367
 20
36.087964
 30
0.0
 10
139.546367
 20
36.087964
 30
0.0
 10
139.001921
 20
33.378901
 30
0.0
 10
139.001921
 20
33.378901
 30
0.0
 10
139.001921
 20
33.378901
 30
0.0
 10
135.270494
 20
33.430561
 30
0.0
 10
134.958707
 20
32.321068
 30
0.0
 10
134.288576
 20
31.32151
 30
0.0
 10
134.288576
 20
31.32151
 30
0.0
 10
133.26218
 20
30.178564
 30
0.0
 10
131.709734
 20
29.739958
 30
0.0
 10
130.538438
 20
31.885612
 30
0.0
 10
130.538438
 20
31.885612
 30
0.0
 10
130.538438
 20
31.885612
 30
0.0
 10
129.090005
 20
38.16299500000001
 30
0.0
 10
129.090005
 20
38.16299500000001
 30
0.0
 10
129.090005
 20
38.16299500000001
 30
0.0
 10
128.320208
 20
41.44636600000001
 30
0.0
 10
127.894958
 20
42.050284
 30
0.0
 10
130.530374
 20
43.55774799999999
 30
0.0
 10
130.530374
 20
43.55774799999999
 30
0.0
 10
134.412938
 20
45.422296
 30
0.0
 10
136.722518
 20
47.102191
 30
0.0
 10
142.224938
 20
46.18037499999999
 30
0.0
 10
142.224938
 20
46.18037499999999
 30
0.0
 10
147.416138
 20
45.224287
 30
0.0
 10
149.957621
 20
43.002025
 30
0.0
 10
150.744806
 20
42.44340400000001
 30
0.0
 10
150.744806
 20
42.44340400000001
 30
0.0
 10
152.54144
 20
40.434271
 30
0.0
 10
155.794508
 20
36.729493
 30
0.0
 10
153.362771
 20
33.87490000000001
 30
0.0
 10
153.362771
 20
33.87490000000001
 30
0.0
 10
152.433017
 20
32.44498900000001
 30
0.0
 10
151.619687
 20
31.13068300000001
 30
0.0
 10
149.446565
 20
28.739077
 30
0.0
 10
149.446565
 20
28.739077
 30
0.0
 10
147.09194
 20
26.218069
 30
0.0
 10
145.684079
 20
28.29505300000001
 30
0.0
 10
145.283903
 20
28.706254
 30
0.0
 10
145.283903
 20
28.706254
 30
0.0
 10
144.009224
 20
30.790357
 30
0.0
 10
144.488339
 20
31.65257500000001
 30
0.0
 10
141.04961
 20
32.996302
 30
0.0
 10
141.04961
 20
32.996302
 30
0.0
 10
141.04961
 20
32.996302
 30
0.0
 10
141.578558
 20
35.81977300000001
 30
0.0
 10
141.578558
 20
35.81977300000001
 30
0.0
 10
141.578558
 20
35.81977300000001
 30
0.0
 10
141.539561
 20
37.02647500000001
 30
0.0
 10
139.885685
 20
37.249369
 30
0.0
 10
139.546367
 20
36.087964
 30
0.0
  0
SPLINE
  5
46
330
1F
100
AcDbEntity
  8
Layer 1
 62
    22
370
     5
100
AcDbSpline
210
0.0
220
0.0
230
1.0
 70
    11
 71
     3
 72
   132
 73
   128
 74
     0
 42
0.0000000001
 43
0.0000000001
 40
0.0
 40
0.0
 40
0.0
 40
0.0
 40
0.03125
 40
0.03125
 40
0.03125
 40
0.03125
 40
0.0625
 40
0.0625
 40
0.0625
 40
0.0625
 40
0.09375
 40
0.09375
 40
0.09375
 40
0.09375
 40
0.125
 40
0.125
 40
0.125
 40
0.125
 40
0.15625
 40
0.15625
 40
0.15625
 40
0.15625
 40
0.1875
 40
0.1875
 40
0.1875
 40
0.1875
 40
0.21875
 40
0.21875
 40
0.21875
 40
0.21875
 40
0.25
 40
0.25
 40
0.25
 40
0.25
 40
0.28125
 40
0.28125
 40
0.28125
 40
0.28125
 40
0.3125
 40
0.3125
 40
0.3125
 40
0.3125
 40
0.34375
 40
0.34375
 40
0.34375
 40
0.34375
 40
0.375
 40
0.375
 40
0.375
 40
0.375
 40
0.40625
 40
0.40625
 40
0.40625
 40
0.40625
 40
0.4375
 40
0.4375
 40
0.4375
 40
0.4375
 40
0.46875
 40
0.46875
 40
0.46875
 40
0.46875
 40
0.5
 40
0.5
 40
0.5
 40
0.5
 40
0.53125
 40
0.53125
 40
0.53125
 40
0.53125
 40
0.5625
 40
0.5625
 40
0.5625
 40
0.5625
 40
0.59375
 40
0.59375
 40
0.59375
 40
0.59375
 40
0.625
 40
0.625
 40
0.625
 40
0.625
 40
0.65625
 40
0.65625
 40
0.65625
 40
0.65625
 40
0.6875
 40
0.6875
 40
0.6875
 40
0.6875
 40
0.71875
 40
0.71875
 40
0.71875
 40
0.71875
 40
0.75
 40
0.75
 40
0.75
 40
0.75
 40
0.78125
 40
0.78125
 40
0.78125
 40
0.78125
 40
0.8125
 40
0.8125
 40
0.8125
 40
0.8125
 40
0.84375
 40
0.84375
 40
0.84375
 40
0.84375
 40
0.875
 40
0.875
 40
0.875
 40
0.875
 40
0.90625
 40
0.90625
 40
0.90625
 40
0.90625
 40
0.9375
 40
0.9375
 40
0.9375
 40
0.9375
 40
0.96875
 40
0.96875
 40
0.96875
 40
0.96875
 40
1.0
 40
1.0
 40
1.0
 40
1.0
 10
157.0661
 20
33.06031
 30
0.0
 10
157.0661
 20
33.06031
 30
0.0
 10
164.594348
 20
34.917613
 30
0.0
 10
164.594348
 20
34.917613
 30
0.0
 10
164.594348
 20
34.917613
 30
0.0
 10
165.88106
 20
35.209807
 30
0.0
 10
165.487121
 20
37.116376
 30
0.0
 10
164.268575
 20
37.00600000000001
 30
0.0
 10
164.268575
 20
37.00600000000001
 30
0.0
 10
164.268575
 20
37.00600000000001
 30
0.0
 10
157.173704
 20
35.28150100000001
 30
0.0
 10
157.173704
 20
35.28150100000001
 30
0.0
 10
157.173704
 20
35.28150100000001
 30
0.0
 10
156.439502
 20
38.456638
 30
0.0
 10
158.910551
 20
39.36106600000001
 30
0.0
 10
165.475151
 20
40.782283
 30
0.0
 10
165.475151
 20
40.782283
 30
0.0
 10
171.222326
 20
42.206335
 30
0.0
 10
172.649087
 20
42.928378
 30
0.0
 10
174.497255
 20
41.057971
 30
0.0
 10
174.497255
 20
41.057971
 30
0.0
 10
175.460084
 20
39.58572400000001
 30
0.0
 10
177.006167
 20
39.982057
 30
0.0
 10
178.496495
 20
40.41877300000001
 30
0.0
 10
178.496495
 20
40.41877300000001
 30
0.0
 10
181.904228
 20
41.124436
 30
0.0
 10
185.96546
 20
35.83281400000001
 30
0.0
 10
190.599992
 20
28.197025
 30
0.0
 10
190.599992
 20
28.197025
 30
0.0
 10
190.599992
 20
28.197025
 30
0.0
 10
196.555067
 20
14.053273
 30
0.0
 10
196.555067
 20
14.053273
 30
0.0
 10
196.555067
 20
14.053273
 30
0.0
 10
197.795915
 20
8.413702
 30
0.0
 10
192.27113
 20
13.582411
 30
0.0
 10
192.396059
 20
9.256012000000005
 30
0.0
 10
192.396059
 20
9.256012000000005
 30
0.0
 10
191.952602
 20
6.128565999999999
 30
0.0
 10
185.543675
 20
4.84009
 30
0.0
 10
179.405522
 20
5.221492000000001
 30
0.0
 10
179.405522
 20
5.221492000000001
 30
0.0
 10
179.405522
 20
5.221492000000001
 30
0.0
 10
169.586972
 20
6.464985999999999
 30
0.0
 10
169.586972
 20
6.464985999999999
 30
0.0
 10
169.586972
 20
6.464985999999999
 30
0.0
 10
167.032574
 20
6.765433000000001
 30
0.0
 10
165.562721
 20
4.334893
 30
0.0
 10
163.042028
 20
5.034949000000001
 30
0.0
 10
163.042028
 20
5.034949000000001
 30
0.0
 10
161.654264
 20
5.053030000000003
 30
0.0
 10
160.977644
 20
4.332562000000002
 30
0.0
 10
161.012168
 20
2.873356000000001
 30
0.0
 10
161.012168
 20
2.873356000000001
 30
0.0
 10
160.994276
 20
2.243608000000001
 30
0.0
 10
160.559765
 20
1.348693
 30
0.0
 10
159.70832
 20
0.1886740000000024
 30
0.0
 10
159.70832
 20
0.1886740000000024
 30
0.0
 10
159.079643
 20
-1.772452999999998
 30
0.0
 10
160.905131
 20
-1.856557999999997
 30
0.0
 10
161.795195
 20
-1.945009999999998
 30
0.0
 10
161.795195
 20
-1.945009999999998
 30
0.0
 10
169.435205
 20
-1.416376999999998
 30
0.0
 10
172.033514
 20
-3.730555999999998
 30
0.0
 10
170.975492
 20
-6.882949999999999
 30
0.0
 10
170.975492
 20
-6.882949999999999
 30
0.0
 10
170.975492
 20
-6.882949999999999
 30
0.0
 10
163.759283
 20
-5.276134999999998
 30
0.0
 10
163.759283
 20
-5.276134999999998
 30
0.0
 10
163.759283
 20
-5.276134999999998
 30
0.0
 10
162.226619
 20
-4.816297999999999
 30
0.0
 10
161.609471
 20
-6.926041999999998
 30
0.0
 10
163.352177
 20
-7.355701999999999
 30
0.0
 10
163.352177
 20
-7.355701999999999
 30
0.0
 10
163.352177
 20
-7.355701999999999
 30
0.0
 10
170.38997
 20
-8.927488999999997
 30
0.0
 10
170.38997
 20
-8.927488999999997
 30
0.0
 10
170.38997
 20
-8.927488999999997
 30
0.0
 10
170.069363
 20
-10.458011
 30
0.0
 10
168.719588
 20
-12.624707
 30
0.0
 10
165.42809
 20
-11.337365
 30
0.0
 10
165.42809
 20
-11.337365
 30
0.0
 10
161.504072
 20
-10.441694
 30
0.0
 10
157.850513
 20
-7.876081999999998
 30
0.0
 10
153.414494
 20
-8.985323000000001
 30
0.0
 10
153.414494
 20
-8.985323000000001
 30
0.0
 10
148.609799
 20
-9.193034
 30
0.0
 10
147.971924
 20
-5.167775
 30
0.0
 10
151.179254
 20
-3.120778999999998
 30
0.0
 10
151.179254
 20
-3.120778999999998
 30
0.0
 10
153.246536
 20
-1.802188999999998
 30
0.0
 10
154.036934
 20
0.0968830000000018
 30
0.0
 10
153.550385
 20
2.576500000000002
 30
0.0
 10
153.550385
 20
2.576500000000002
 30
0.0
 10
153.079397
 20
4.837255000000002
 30
0.0
 10
154.664603
 20
6.421768000000003
 30
0.0
 10
156.728042
 20
6.432352000000001
 30
0.0
 10
156.728042
 20
6.432352000000001
 30
0.0
 10
159.982307
 20
6.286507
 30
0.0
 10
157.861853
 20
11.623363
 30
0.0
 10
163.288421
 20
10.844872
 30
0.0
 10
163.288421
 20
10.844872
 30
0.0
 10
169.375607
 20
9.071233000000002
 30
0.0
 10
175.373522
 20
8.831266000000002
 30
0.0
 10
181.241279
 20
10.831831
 30
0.0
 10
181.241279
 20
10.831831
 30
0.0
 10
183.184136
 20
11.521492
 30
0.0
 10
185.295014
 20
12.694363
 30
0.0
 10
187.929989
 20
12.461389
 30
0.0
 10
187.929989
 20
12.461389
 30
0.0
 10
189.501965
 20
12.464098
 30
0.0
 10
190.180979
 20
13.110037
 30
0.0
 10
189.090008
 20
14.946487
 30
0.0
 10
189.090008
 20
14.946487
 30
0.0
 10
184.642964
 20
20.70991600000001
 30
0.0
 10
181.028087
 20
27.319057
 30
0.0
 10
178.529444
 20
34.844344
 30
0.0
 10
178.529444
 20
34.844344
 30
0.0
 10
178.009694
 20
36.606706
 30
0.0
 10
176.425559
 20
36.734407
 30
0.0
 10
175.960745
 20
35.434339
 30
0.0
 10
175.960745
 20
35.434339
 30
0.0
 10
175.5337309999999
 20
33.940294
 30
0.0
 10
174.544883
 20
33.12249100000001
 30
0.0
 10
173.038049
 20
32.800561
 30
0.0
 10
173.038049
 20
32.800561
 30
0.0
 10
169.470737
 20
32.12173600000001
 30
0.0
 10
158.571233
 20
28.194316
 30
0.0
 10
157.0661
 20
33.06031
 30
0.0
  0
SPLINE
  5
47
330
1F
100
AcDbEntity
  8
Layer 1
 62
    22
370
     5
100
AcDbSpline
210
0.0
220
0.0
230
1.0
 70
    11
 71
     3
 72
   104
 73
   100
 74
     0
 42
0.0000000001
 43
0.0000000001
 40
0.0
 40
0.0
 40
0.0
 40
0.0
 40
0.04
 40
0.04
 40
0.04
 40
0.04
 40
0.08
 40
0.08
 40
0.08
 40
0.08
 40
0.12
 40
0.12
 40
0.12
 40
0.12
 40
0.16
 40
0.16
 40
0.16
 40
0.16
 40
0.2
 40
0.2
 40
0.2
 40
0.2
 40
0.24
 40
0.24
 40
0.24
 40
0.24
 40
0.28
 40
0.28
 40
0.28
 40
0.28
 40
0.32
 40
0.32
 40
0.32
 40
0.32
 40
0.36
 40
0.36
 40
0.36
 40
0.36
 40
0.4
 40
0.4
 40
0.4
 40
0.4
 40
0.44
 40
0.44
 40
0.44
 40
0.44
 40
0.4799999999999999
 40
0.4799999999999999
 40
0.4799999999999999
 40
0.4799999999999999
 40
0.52
 40
0.52
 40
0.52
 40
0.52
 40
0.56
 40
0.56
 40
0.56
 40
0.56
 40
0.6
 40
0.6
 40
0.6
 40
0.6
 40
0.6400000000000001
 40
0.6400000000000001
 40
0.6400000000000001
 40
0.6400000000000001
 40
0.6800000000000001
 40
0.6800000000000001
 40
0.6800000000000001
 40
0.6800000000000001
 40
0.7200000000000001
 40
0.7200000000000001
 40
0.7200000000000001
 40
0.7200000000000001
 40
0.7600000000000002
 40
0.7600000000000002
 40
0.7600000000000002
 40
0.7600000000000002
 40
0.8000000000000001
 40
0.8000000000000001
 40
0.8000000000000001
 40
0.8000000000000001
 40
0.8400000000000002
 40
0.8400000000000002
 40
0.8400000000000002
 40
0.8400000000000002
 40
0.8800000000000002
 40
0.8800000000000002
 40
0.8800000000000002
 40
0.8800000000000002
 40
0.9200000000000002
 40
0.9200000000000002
 40
0.9200000000000002
 40
0.9200000000000002
 40
0.9600000000000003
 40
0.9600000000000003
 40
0.9600000000000003
 40
0.9600000000000003
 40
1.0
 40
1.0
 40
1.0
 40
1.0
 10
174.464432
 20
-5.935807999999999
 30
0.0
 10
174.464432
 20
-5.935807999999999
 30
0.0
 10
183.323114
 20
-5.206960999999999
 30
0.0
 10
183.323114
 20
-5.206960999999999
 30
0.0
 10
183.323114
 20
-5.206960999999999
 30
0.0
 10
184.932701
 20
-5.030371999999999
 30
0.0
 10
184.739039
 20
-2.971216999999999
 30
0.0
 10
183.088565
 20
-3.164438
 30
0.0
 10
183.088565
 20
-3.164438
 30
0.0
 10
183.088565
 20
-3.164438
 30
0.0
 10
174.236057
 20
-3.705670999999998
 30
0.0
 10
174.236057
 20
-3.705670999999998
 30
0.0
 10
174.236057
 20
-3.705670999999998
 30
0.0
 10
172.840796
 20
2.950783000000001
 30
0.0
 10
185.662178
 20
4.897924000000003
 30
0.0
 10
191.411747
 20
1.17727
 30
0.0
 10
191.411747
 20
1.17727
 30
0.0
 10
192.700664
 20
0.2840559999999996
 30
0.0
 10
193.892624
 20
0.3455440000000003
 30
0.0
 10
194.988131
 20
1.362364000000003
 30
0.0
 10
194.988131
 20
1.362364000000003
 30
0.0
 10
201.023468
 20
7.800712
 30
0.0
 10
229.153472
 20
4.588972000000001
 30
0.0
 10
230.509232
 20
0.4502500000000005
 30
0.0
 10
230.509232
 20
0.4502500000000005
 30
0.0
 10
230.994899
 20
-0.4243790000000001
 30
0.0
 10
230.185223
 20
-0.6736699999999996
 30
0.0
 10
228.080771
 20
-0.2971819999999994
 30
0.0
 10
228.080771
 20
-0.2971819999999994
 30
0.0
 10
226.488635
 20
-0.9153379999999984
 30
0.0
 10
225.151019
 20
-0.8249960000000005
 30
0.0
 10
224.06849
 20
-0.0256519999999974
 30
0.0
 10
224.06849
 20
-0.0256519999999974
 30
0.0
 10
222.981425
 20
-0.6852619999999999
 30
0.0
 10
221.78915
 20
-0.7471279999999983
 30
0.0
 10
220.492106
 20
-0.2107459999999985
 30
0.0
 10
220.492106
 20
-0.2107459999999985
 30
0.0
 10
219.106169
 20
-0.922960999999999
 30
0.0
 10
217.736738
 20
-0.9211340000000003
 30
0.0
 10
216.384317
 20
-0.2048869999999994
 30
0.0
 10
216.384317
 20
-0.2048869999999994
 30
0.0
 10
215.477873
 20
-0.7793839999999986
 30
0.0
 10
214.582391
 20
-0.8778529999999999
 30
0.0
 10
213.698438
 20
-0.4998529999999981
 30
0.0
 10
213.698438
 20
-0.4998529999999981
 30
0.0
 10
213.096788
 20
-0.8445259999999983
 30
0.0
 10
212.315084
 20
-0.8314219999999998
 30
0.0
 10
210.56696
 20
-0.6361849999999994
 30
0.0
 10
210.56696
 20
-0.6361849999999994
 30
0.0
 10
208.98629
 20
-0.5690269999999984
 30
0.0
 10
208.911635
 20
-2.731186999999998
 30
0.0
 10
210.522293
 20
-2.787634999999999
 30
0.0
 10
210.522293
 20
-2.787634999999999
 30
0.0
 10
212.218001
 20
-2.827073
 30
0.0
 10
213.786953
 20
-3.091987999999998
 30
0.0
 10
215.228519
 20
-3.839482999999999
 30
0.0
 10
215.228519
 20
-3.839482999999999
 30
0.0
 10
216.394208
 20
-3.628495999999998
 30
0.0
 10
217.308086
 20
-4.006999999999999
 30
0.0
 10
217.970594
 20
-4.974616999999998
 30
0.0
 10
217.970594
 20
-4.974616999999998
 30
0.0
 10
219.013811
 20
-4.909663999999999
 30
0.0
 10
219.929768
 20
-5.198896999999998
 30
0.0
 10
220.718843
 20
-5.842000999999999
 30
0.0
 10
220.718843
 20
-5.842000999999999
 30
0.0
 10
221.852717
 20
-5.719591999999998
 30
0.0
 10
222.737489
 20
-6.067666999999998
 30
0.0
 10
223.373726
 20
-6.885847999999999
 30
0.0
 10
223.373726
 20
-6.885847999999999
 30
0.0
 10
224.479943
 20
-6.673285999999999
 30
0.0
 10
225.218051
 20
-6.928246999999998
 30
0.0
 10
225.588554
 20
-7.65155
 30
0.0
 10
225.588554
 20
-7.65155
 30
0.0
 10
226.537712
 20
-7.792481
 30
0.0
 10
227.124305
 20
-8.163109999999999
 30
0.0
 10
227.348837
 20
-8.763940999999999
 30
0.0
 10
227.348837
 20
-8.763940999999999
 30
0.0
 10
227.758337
 20
-9.07094
 30
0.0
 10
228.167963
 20
-9.378128
 30
0.0
 10
228.577715
 20
-9.685442
 30
0.0
 10
228.577715
 20
-9.685442
 30
0.0
 10
229.417631
 20
-10.687079
 30
0.0
 10
229.351229
 20
-12.263024
 30
0.0
 10
226.311227
 20
-11.151074
 30
0.0
 10
226.311227
 20
-11.151074
 30
0.0
 10
218.247038
 20
-7.812451999999998
 30
0.0
 10
211.805036
 20
-8.340391999999999
 30
0.0
 10
203.146505
 20
-8.828452999999999
 30
0.0
 10
203.146505
 20
-8.828452999999999
 30
0.0
 10
201.445694
 20
-8.997292999999999
 30
0.0
 10
199.171898
 20
-8.200279999999999
 30
0.0
 10
196.325558
 20
-6.437917999999998
 30
0.0
 10
196.325558
 20
-6.437917999999998
 30
0.0
 10
193.559795
 20
-5.034151999999998
 30
0.0
 10
193.133789
 20
-6.721039999999998
 30
0.0
 10
192.195089
 20
-7.413850999999999
 30
0.0
 10
192.195089
 20
-7.413850999999999
 30
0.0
 10
187.027829
 20
-13.44125
 30
0.0
 10
174.815342
 20
-12.448244
 30
0.0
 10
174.464432
 20
-5.935807999999999
 30
0.0
  0
SPLINE
  5
48
330
1F
100
AcDbEntity
  8
Layer 1
 62
    22
370
     5
100
AcDbSpline
210
0.0
220
0.0
230
1.0
 70
    11
 71
     3
 72
    96
 73
    92
 74
     0
 42
0.0000000001
 43
0.0000000001
 40
0.0
 40
0.0
 40
0.0
 40
0.0
 40
0.0434782608695652
 40
0.0434782608695652
 40
0.0434782608695652
 40
0.0434782608695652
 40
0.0869565217391305
 40
0.0869565217391305
 40
0.0869565217391305
 40
0.0869565217391305
 40
0.1304347826086956
 40
0.1304347826086956
 40
0.1304347826086956
 40
0.1304347826086956
 40
0.1739130434782609
 40
0.1739130434782609
 40
0.1739130434782609
 40
0.1739130434782609
 40
0.2173913043478261
 40
0.2173913043478261
 40
0.2173913043478261
 40
0.2173913043478261
 40
0.2608695652173913
 40
0.2608695652173913
 40
0.2608695652173913
 40
0.2608695652173913
 40
0.3043478260869565
 40
0.3043478260869565
 40
0.3043478260869565
 40
0.3043478260869565
 40
0.3478260869565217
 40
0.3478260869565217
 40
0.3478260869565217
 40
0.3478260869565217
 40
0.3913043478260869
 40
0.3913043478260869
 40
0.3913043478260869
 40
0.3913043478260869
 40
0.4347826086956522
 40
0.4347826086956522
 40
0.4347826086956522
 40
0.4347826086956522
 40
0.4782608695652173
 40
0.4782608695652173
 40
0.4782608695652173
 40
0.4782608695652173
 40
0.5217391304347825
 40
0.5217391304347825
 40
0.5217391304347825
 40
0.5217391304347825
 40
0.5652173913043477
 40
0.5652173913043477
 40
0.5652173913043477
 40
0.5652173913043477
 40
0.6086956521739129
 40
0.6086956521739129
 40
0.6086956521739129
 40
0.6086956521739129
 40
0.6521739130434781
 40
0.6521739130434781
 40
0.6521739130434781
 40
0.6521739130434781
 40
0.6956521739130432
 40
0.6956521739130432
 40
0.6956521739130432
 40
0.6956521739130432
 40
0.7391304347826085
 40
0.7391304347826085
 40
0.7391304347826085
 40
0.7391304347826085
 40
0.7826086956521737
 40
0.7826086956521737
 40
0.7826086956521737
 40
0.7826086956521737
 40
0.8260869565217387
 40
0.8260869565217387
 40
0.8260869565217387
 40
0.8260869565217387
 40
0.8695652173913039
 40
0.8695652173913039
 40
0.8695652173913039
 40
0.8695652173913039
 40
0.9130434782608691
 40
0.9130434782608691
 40
0.9130434782608691
 40
0.9130434782608691
 40
0.9565217391304344
 40
0.9565217391304344
 40
0.9565217391304344
 40
0.9565217391304344
 40
1.0
 40
1.0
 40
1.0
 40
1.0
 10
74.907611
 20
44.48806900000001
 30
0.0
 10
71.175932
 20
43.608526
 30
0.0
 10
70.087796
 20
46.66522300000001
 30
0.0
 10
74.955365
 20
46.691683
 30
0.0
 10
74.955365
 20
46.691683
 30
0.0
 10
77.424587
 20
46.904875
 30
0.0
 10
78.902
 20
46.474522
 30
0.0
 10
79.554113
 20
44.397727
 30
0.0
 10
79.554113
 20
44.397727
 30
0.0
 10
79.554113
 20
44.397727
 30
0.0
 10
81.680048
 20
36.926557
 30
0.0
 10
81.680048
 20
36.926557
 30
0.0
 10
81.680048
 20
36.926557
 30
0.0
 10
82.870559
 20
34.287109
 30
0.0
 10
83.84069600000001
 20
32.98345000000001
 30
0.0
 10
85.489343
 20
31.31149300000001
 30
0.0
 10
85.489343
 20
31.31149300000001
 30
0.0
 10
86.57584099999999
 20
29.386969
 30
0.0
 10
87.55706600000001
 20
28.436488
 30
0.0
 10
88.93550600000001
 20
24.778834
 30
0.0
 10
88.93550600000001
 20
24.778834
 30
0.0
 10
89.763011
 20
22.674193
 30
0.0
 10
90.966941
 20
22.609744
 30
0.0
 10
92.46930199999999
 20
24.73322200000001
 30
0.0
 10
92.46930199999999
 20
24.73322200000001
 30
0.0
 10
93.415814
 20
26.724463
 30
0.0
 10
94.028678
 20
28.70423800000001
 30
0.0
 10
97.29944900000001
 20
30.259645
 30
0.0
 10
97.29944900000001
 20
30.259645
 30
0.0
 10
98.468666
 20
30.79596400000001
 30
0.0
 10
98.73534499999999
 20
31.05678400000001
 30
0.0
 10
98.78820200000001
 20
32.255296
 30
0.0
 10
98.78820200000001
 20
32.255296
 30
0.0
 10
98.29428200000002
 20
34.08387100000001
 30
0.0
 10
101.911301
 20
38.41896400000001
 30
0.0
 10
104.841116
 20
40.93568799999999
 30
0.0
 10
104.841116
 20
40.93568799999999
 30
0.0
 10
106.959806
 20
42.423118
 30
0.0
 10
108.383543
 20
40.66409500000001
 30
0.0
 10
110.601017
 20
42.76993299999999
 30
0.0
 10
110.601017
 20
42.76993299999999
 30
0.0
 10
112.300064
 20
43.700569
 30
0.0
 10
114.577136
 20
43.751788
 30
0.0
 10
116.378684
 20
43.71323199999999
 30
0.0
 10
116.378684
 20
43.71323199999999
 30
0.0
 10
118.837826
 20
43.694836
 30
0.0
 10
121.354739
 20
44.653696
 30
0.0
 10
122.337602
 20
41.25976
 30
0.0
 10
122.337602
 20
41.25976
 30
0.0
 10
122.337602
 20
41.25976
 30
0.0
 10
117.033506
 20
40.793056
 30
0.0
 10
117.033506
 20
40.793056
 30
0.0
 10
117.033506
 20
40.793056
 30
0.0
 10
115.489628
 20
40.689169
 30
0.0
 10
115.952993
 20
38.685139
 30
0.0
 10
117.044216
 20
38.717458
 30
0.0
 10
117.044216
 20
38.717458
 30
0.0
 10
117.044216
 20
38.717458
 30
0.0
 10
121.94549
 20
39.096088
 30
0.0
 10
121.94549
 20
39.096088
 30
0.0
 10
121.94549
 20
39.096088
 30
0.0
 10
123.496865
 20
36.001717
 30
0.0
 10
112.194224
 20
34.830232
 30
0.0
 10
109.633211
 20
37.391812
 30
0.0
 10
109.633211
 20
37.391812
 30
0.0
 10
108.598814
 20
37.97588500000001
 30
0.0
 10
107.780003
 20
37.46325400000001
 30
0.0
 10
107.879102
 20
36.587491
 30
0.0
 10
107.879102
 20
36.587491
 30
0.0
 10
107.477603
 20
33.754066
 30
0.0
 10
104.609717
 20
31.313257
 30
0.0
 10
100.233296
 20
29.286484
 30
0.0
 10
100.233296
 20
29.286484
 30
0.0
 10
99.201104
 20
26.119915
 30
0.0
 10
96.41373200000002
 20
22.914979
 30
0.0
 10
92.82903199999999
 20
19.69234
 30
0.0
 10
92.82903199999999
 20
19.69234
 30
0.0
 10
91.627874
 20
19.139578
 30
0.0
 10
91.07397800000001
 20
19.654225
 30
0.0
 10
89.99699300000001
 20
20.013703
 30
0.0
 10
89.99699300000001
 20
20.013703
 30
0.0
 10
87.043238
 20
18.900304
 30
0.0
 10
85.32781099999999
 20
22.55758
 30
0.0
 10
82.780847
 20
27.371914
 30
0.0
 10
82.780847
 20
27.371914
 30
0.0
 10
80.462699
 20
31.753942
 30
0.0
 10
78.65220500000001
 20
35.63858500000001
 30
0.0
 10
77.89689800000001
 20
41.34506199999999
 30
0.0
 10
77.89689800000001
 20
41.34506199999999
 30
0.0
 10
77.391071
 20
43.29736900000001
 30
0.0
 10
76.39466300000001
 20
44.34499600000001
 30
0.0
 10
74.907611
 20
44.48806900000001
 30
0.0
  0
SPLINE
  5
49
330
1F
100
AcDbEntity
  8
Layer 1
 62
    22
370
     5
100
AcDbSpline
210
0.0
220
0.0
230
1.0
 70
    11
 71
     3
 72
   100
 73
    96
 74
     0
 42
0.0000000001
 43
0.0000000001
 40
0.0
 40
0.0
 40
0.0
 40
0.0
 40
0.0416666666666667
 40
0.0416666666666667
 40
0.0416666666666667
 40
0.0416666666666667
 40
0.0833333333333333
 40
0.0833333333333333
 40
0.0833333333333333
 40
0.0833333333333333
 40
0.125
 40
0.125
 40
0.125
 40
0.125
 40
0.1666666666666666
 40
0.1666666666666666
 40
0.1666666666666666
 40
0.1666666666666666
 40
0.2083333333333333
 40
0.2083333333333333
 40
0.2083333333333333
 40
0.2083333333333333
 40
0.25
 40
0.25
 40
0.25
 40
0.25
 40
0.2916666666666666
 40
0.2916666666666666
 40
0.2916666666666666
 40
0.2916666666666666
 40
0.3333333333333333
 40
0.3333333333333333
 40
0.3333333333333333
 40
0.3333333333333333
 40
0.375
 40
0.375
 40
0.375
 40
0.375
 40
0.4166666666666667
 40
0.4166666666666667
 40
0.4166666666666667
 40
0.4166666666666667
 40
0.4583333333333334
 40
0.4583333333333334
 40
0.4583333333333334
 40
0.4583333333333334
 40
0.5
 40
0.5
 40
0.5
 40
0.5
 40
0.5416666666666666
 40
0.5416666666666666
 40
0.5416666666666666
 40
0.5416666666666666
 40
0.5833333333333333
 40
0.5833333333333333
 40
0.5833333333333333
 40
0.5833333333333333
 40
0.625
 40
0.625
 40
0.625
 40
0.625
 40
0.6666666666666666
 40
0.6666666666666666
 40
0.6666666666666666
 40
0.6666666666666666
 40
0.7083333333333332
 40
0.7083333333333332
 40
0.7083333333333332
 40
0.7083333333333332
 40
0.7499999999999999
 40
0.7499999999999999
 40
0.7499999999999999
 40
0.7499999999999999
 40
0.7916666666666665
 40
0.7916666666666665
 40
0.7916666666666665
 40
0.7916666666666665
 40
0.833333333333333
 40
0.833333333333333
 40
0.833333333333333
 40
0.833333333333333
 40
0.8749999999999996
 40
0.8749999999999996
 40
0.8749999999999996
 40
0.8749999999999996
 40
0.9166666666666662
 40
0.9166666666666662
 40
0.9166666666666662
 40
0.9166666666666662
 40
0.9583333333333328
 40
0.9583333333333328
 40
0.9583333333333328
 40
0.9583333333333328
 40
1.0
 40
1.0
 40
1.0
 40
1.0
 10
69.12944
 20
35.791234
 30
0.0
 10
67.73455699999999
 20
36.1429
 30
0.0
 10
68.376086
 20
37.50855100000001
 30
0.0
 10
69.74425700000001
 20
37.528396
 30
0.0
 10
69.74425700000001
 20
37.528396
 30
0.0
 10
69.74425700000001
 20
37.528396
 30
0.0
 10
74.09365100000001
 20
37.734532
 30
0.0
 10
74.09365100000001
 20
37.734532
 30
0.0
 10
74.09365100000001
 20
37.734532
 30
0.0
 10
75.227903
 20
37.68860500000001
 30
0.0
 10
76.067
 20
37.135087
 30
0.0
 10
76.661153
 20
35.044558
 30
0.0
 10
76.661153
 20
35.044558
 30
0.0
 10
77.47007299999999
 20
32.64463600000001
 30
0.0
 10
78.29644400000001
 20
29.75526700000001
 30
0.0
 10
78.643511
 20
26.852983
 30
0.0
 10
78.643511
 20
26.852983
 30
0.0
 10
79.25700500000001
 20
25.291024
 30
0.0
 10
80.14303700000001
 20
24.013447
 30
0.0
 10
81.582839
 20
22.88707
 30
0.0
 10
81.582839
 20
22.88707
 30
0.0
 10
84.441275
 20
20.564827
 30
0.0
 10
86.083118
 20
17.436247
 30
0.0
 10
87.760745
 20
13.528735
 30
0.0
 10
87.760745
 20
13.528735
 30
0.0
 10
88.215731
 20
12.439528
 30
0.0
 10
89.10245600000001
 20
12.00004
 30
0.0
 10
89.974439
 20
12.256324
 30
0.0
 10
89.974439
 20
12.256324
 30
0.0
 10
93.15701
 20
15.55261
 30
0.0
 10
94.29214400000001
 20
19.528288
 30
0.0
 10
99.52271899999999
 20
22.145119
 30
0.0
 10
99.52271899999999
 20
22.145119
 30
0.0
 10
101.195306
 20
27.544282
 30
0.0
 10
110.422349
 20
34.05930100000001
 30
0.0
 10
113.170094
 20
32.48026900000001
 30
0.0
 10
113.170094
 20
32.48026900000001
 30
0.0
 10
115.760843
 20
34.220896
 30
0.0
 10
117.827936
 20
35.01091600000001
 30
0.0
 10
120.606236
 20
34.840564
 30
0.0
 10
120.606236
 20
34.840564
 30
0.0
 10
122.448608
 20
34.92019600000001
 30
0.0
 10
126.111365
 20
36.19204
 30
0.0
 10
126.643337
 20
32.591653
 30
0.0
 10
126.643337
 20
32.591653
 30
0.0
 10
126.643337
 20
32.591653
 30
0.0
 10
121.483826
 20
32.22385900000001
 30
0.0
 10
121.483826
 20
32.22385900000001
 30
0.0
 10
121.483826
 20
32.22385900000001
 30
0.0
 10
120.007547
 20
32.167789
 30
0.0
 10
120.109922
 20
30.234445
 30
0.0
 10
121.2758
 20
30.143095
 30
0.0
 10
121.2758
 20
30.143095
 30
0.0
 10
121.2758
 20
30.143095
 30
0.0
 10
126.597977
 20
30.56437600000001
 30
0.0
 10
126.597977
 20
30.56437600000001
 30
0.0
 10
126.597977
 20
30.56437600000001
 30
0.0
 10
126.527417
 20
28.83193900000001
 30
0.0
 10
125.255258
 20
28.398058
 30
0.0
 10
124.035074
 20
28.120732
 30
0.0
 10
124.035074
 20
28.120732
 30
0.0
 10
119.801537
 20
27.364102
 30
0.0
 10
115.303337
 20
27.446128
 30
0.0
 10
113.69438
 20
29.00512600000001
 30
0.0
 10
113.69438
 20
29.00512600000001
 30
0.0
 10
111.758138
 20
28.634497
 30
0.0
 10
112.286267
 20
26.091943
 30
0.0
 10
106.888427
 20
22.620391
 30
0.0
 10
106.888427
 20
22.620391
 30
0.0
 10
105.084737
 20
21.581395
 30
0.0
 10
103.433003
 20
20.754142
 30
0.0
 10
101.151206
 20
20.12187400000001
 30
0.0
 10
101.151206
 20
20.12187400000001
 30
0.0
 10
99.628811
 20
16.626382
 30
0.0
 10
96.297686
 20
13.229737
 30
0.0
 10
92.508992
 20
10.204666
 30
0.0
 10
92.508992
 20
10.204666
 30
0.0
 10
91.831805
 20
9.245049999999999
 30
0.0
 10
90.24804800000001
 20
8.581408000000003
 30
0.0
 10
88.50767299999999
 20
9.594196000000003
 30
0.0
 10
88.50767299999999
 20
9.594196000000003
 30
0.0
 10
85.094144
 20
9.079612
 30
0.0
 10
84.61591099999999
 20
10.606102
 30
0.0
 10
83.61326599999999
 20
11.926204
 30
0.0
 10
83.61326599999999
 20
11.926204
 30
0.0
 10
81.82318399999999
 20
14.417224
 30
0.0
 10
79.967078
 20
17.17486
 30
0.0
 10
78.93412999999999
 20
20.107888
 30
0.0
 10
78.93412999999999
 20
20.107888
 30
0.0
 10
76.32372499999999
 20
24.165907
 30
0.0
 10
76.31648
 20
28.89323800000001
 30
0.0
 10
75.00797
 20
33.285787
 30
0.0
 10
75.00797
 20
33.285787
 30
0.0
 10
74.652965
 20
35.44845100000001
 30
0.0
 10
71.971811
 20
35.316529
 30
0.0
 10
69.12944
 20
35.791234
 30
0.0
  0
SPLINE
  5
4A
330
1F
100
AcDbEntity
  8
Layer 1
 62
    22
370
     5
100
AcDbSpline
210
0.0
220
0.0
230
1.0
 70
    11
 71
     3
 72
   100
 73
    96
 74
     0
 42
0.0000000001
 43
0.0000000001
 40
0.0
 40
0.0
 40
0.0
 40
0.0
 40
0.0416666666666667
 40
0.0416666666666667
 40
0.0416666666666667
 40
0.0416666666666667
 40
0.0833333333333333
 40
0.0833333333333333
 40
0.0833333333333333
 40
0.0833333333333333
 40
0.125
 40
0.125
 40
0.125
 40
0.125
 40
0.1666666666666666
 40
0.1666666666666666
 40
0.1666666666666666
 40
0.1666666666666666
 40
0.2083333333333333
 40
0.2083333333333333
 40
0.2083333333333333
 40
0.2083333333333333
 40
0.25
 40
0.25
 40
0.25
 40
0.25
 40
0.2916666666666666
 40
0.2916666666666666
 40
0.2916666666666666
 40
0.2916666666666666
 40
0.3333333333333333
 40
0.3333333333333333
 40
0.3333333333333333
 40
0.3333333333333333
 40
0.375
 40
0.375
 40
0.375
 40
0.375
 40
0.4166666666666667
 40
0.4166666666666667
 40
0.4166666666666667
 40
0.4166666666666667
 40
0.4583333333333334
 40
0.4583333333333334
 40
0.4583333333333334
 40
0.4583333333333334
 40
0.5
 40
0.5
 40
0.5
 40
0.5
 40
0.5416666666666666
 40
0.5416666666666666
 40
0.5416666666666666
 40
0.5416666666666666
 40
0.5833333333333333
 40
0.5833333333333333
 40
0.5833333333333333
 40
0.5833333333333333
 40
0.625
 40
0.625
 40
0.625
 40
0.625
 40
0.6666666666666666
 40
0.6666666666666666
 40
0.6666666666666666
 40
0.6666666666666666
 40
0.7083333333333332
 40
0.7083333333333332
 40
0.7083333333333332
 40
0.7083333333333332
 40
0.7499999999999999
 40
0.7499999999999999
 40
0.7499999999999999
 40
0.7499999999999999
 40
0.7916666666666665
 40
0.7916666666666665
 40
0.7916666666666665
 40
0.7916666666666665
 40
0.833333333333333
 40
0.833333333333333
 40
0.833333333333333
 40
0.833333333333333
 40
0.8749999999999996
 40
0.8749999999999996
 40
0.8749999999999996
 40
0.8749999999999996
 40
0.9166666666666662
 40
0.9166666666666662
 40
0.9166666666666662
 40
0.9166666666666662
 40
0.9583333333333328
 40
0.9583333333333328
 40
0.9583333333333328
 40
0.9583333333333328
 40
1.0
 40
1.0
 40
1.0
 40
1.0
 10
65.690144
 20
26.320003
 30
0.0
 10
64.295261
 20
26.67160600000001
 30
0.0
 10
64.72819699999999
 20
28.186819
 30
0.0
 10
66.096368
 20
28.206601
 30
0.0
 10
66.096368
 20
28.206601
 30
0.0
 10
66.096368
 20
28.206601
 30
0.0
 10
70.445762
 20
28.41273700000001
 30
0.0
 10
70.445762
 20
28.41273700000001
 30
0.0
 10
70.445762
 20
28.41273700000001
 30
0.0
 10
71.580014
 20
28.36681
 30
0.0
 10
73.718927
 20
27.071404
 30
0.0
 10
74.31308
 20
24.980875
 30
0.0
 10
74.31308
 20
24.980875
 30
0.0
 10
75.12199999999999
 20
22.580953
 30
0.0
 10
75.87485
 20
18.354976
 30
0.0
 10
77.09320700000001
 20
15.523063
 30
0.0
 10
77.09320700000001
 20
15.523063
 30
0.0
 10
77.70670100000001
 20
13.961104
 30
0.0
 10
79.731836
 20
12.246244
 30
0.0
 10
81.171638
 20
11.119867
 30
0.0
 10
81.171638
 20
11.119867
 30
0.0
 10
84.030137
 20
8.797623999999999
 30
0.0
 10
85.59045799999999
 20
7.053595000000001
 30
0.0
 10
87.268085
 20
3.146083
 30
0.0
 10
87.268085
 20
3.146083
 30
0.0
 10
87.723071
 20
2.056875999999999
 30
0.0
 10
88.45468999999999
 20
1.665394000000002
 30
0.0
 10
89.326673
 20
1.921615000000002
 30
0.0
 10
89.326673
 20
1.921615000000002
 30
0.0
 10
90.464327
 20
2.452075
 30
0.0
 10
95.517494
 20
12.777271
 30
0.0
 10
101.19329
 20
13.812046
 30
0.0
 10
101.19329
 20
13.812046
 30
0.0
 10
102.95036
 20
17.629279
 30
0.0
 10
108.645749
 20
21.342562
 30
0.0
 10
112.542929
 20
23.244154
 30
0.0
 10
112.542929
 20
23.244154
 30
0.0
 10
114.367535
 20
24.26210800000001
 30
0.0
 10
116.069795
 20
24.054082
 30
0.0
 10
117.471482
 20
23.58844900000001
 30
0.0
 10
117.471482
 20
23.58844900000001
 30
0.0
 10
120.062231
 20
25.32901300000001
 30
0.0
 10
122.600186
 20
25.71854200000001
 30
0.0
 10
125.110673
 20
26.05584400000001
 30
0.0
 10
125.110673
 20
26.05584400000001
 30
0.0
 10
126.953045
 20
26.135413
 30
0.0
 10
130.178834
 20
26.95183
 30
0.0
 10
130.806755
 20
23.66165500000001
 30
0.0
 10
130.806755
 20
23.66165500000001
 30
0.0
 10
130.806755
 20
23.66165500000001
 30
0.0
 10
125.630171
 20
23.235775
 30
0.0
 10
125.630171
 20
23.235775
 30
0.0
 10
125.630171
 20
23.235775
 30
0.0
 10
124.173044
 20
23.21593000000001
 30
0.0
 10
124.299548
 20
21.139198
 30
0.0
 10
125.684351
 20
21.144112
 30
0.0
 10
125.684351
 20
21.144112
 30
0.0
 10
125.684351
 20
21.144112
 30
0.0
 10
131.17751
 20
21.63022
 30
0.0
 10
131.17751
 20
21.63022
 30
0.0
 10
131.17751
 20
21.63022
 30
0.0
 10
131.21405
 20
19.694734
 30
0.0
 10
129.973958
 20
19.20724
 30
0.0
 10
128.342069
 20
18.97225
 30
0.0
 10
128.342069
 20
18.97225
 30
0.0
 10
124.108532
 20
18.21562
 30
0.0
 10
119.08592
 20
18.799693
 30
0.0
 10
117.381014
 20
20.048542
 30
0.0
 10
117.381014
 20
20.048542
 30
0.0
 10
116.616131
 20
17.986552
 30
0.0
 10
109.455299
 20
12.448726
 30
0.0
 10
103.174325
 20
12.10462
 30
0.0
 10
103.174325
 20
12.10462
 30
0.0
 10
101.39741
 20
7.717992999999999
 30
0.0
 10
94.624217
 20
0.4723000000000006
 30
0.0
 10
92.487194
 20
-0.5784769999999995
 30
0.0
 10
92.487194
 20
-0.5784769999999995
 30
0.0
 10
91.542194
 20
-1.030501999999998
 30
0.0
 10
91.091996
 20
-1.874765
 30
0.0
 10
89.35162099999999
 20
-0.8620399999999985
 30
0.0
 10
89.35162099999999
 20
-0.8620399999999985
 30
0.0
 10
86.83181000000001
 20
-2.332711999999999
 30
0.0
 10
85.070519
 20
-0.8341939999999983
 30
0.0
 10
84.067874
 20
0.485908000000002
 30
0.0
 10
84.067874
 20
0.485908000000002
 30
0.0
 10
81.56708900000001
 20
2.602015000000001
 30
0.0
 10
77.74286299999999
 20
6.138331
 30
0.0
 10
74.18714300000001
 20
14.099704
 30
0.0
 10
74.18714300000001
 20
14.099704
 30
0.0
 10
72.59752699999999
 20
18.436687
 30
0.0
 10
73.272131
 20
20.149405
 30
0.0
 10
71.766179
 20
24.178255
 30
0.0
 10
71.766179
 20
24.178255
 30
0.0
 10
71.411237
 20
26.340919
 30
0.0
 10
68.532578
 20
25.845298
 30
0.0
 10
65.690144
 20
26.320003
 30
0.0
  0
SPLINE
  5
4B
330
1F
100
AcDbEntity
  8
Layer 1
 62
    22
370
     5
100
AcDbSpline
210
0.0
220
0.0
230
1.0
 70
    11
 71
     3
 72
    96
 73
    92
 74
     0
 42
0.0000000001
 43
0.0000000001
 40
0.0
 40
0.0
 40
0.0
 40
0.0
 40
0.0434782608695652
 40
0.0434782608695652
 40
0.0434782608695652
 40
0.0434782608695652
 40
0.0869565217391305
 40
0.0869565217391305
 40
0.0869565217391305
 40
0.0869565217391305
 40
0.1304347826086956
 40
0.1304347826086956
 40
0.1304347826086956
 40
0.1304347826086956
 40
0.1739130434782609
 40
0.1739130434782609
 40
0.1739130434782609
 40
0.1739130434782609
 40
0.2173913043478261
 40
0.2173913043478261
 40
0.2173913043478261
 40
0.2173913043478261
 40
0.2608695652173913
 40
0.2608695652173913
 40
0.2608695652173913
 40
0.2608695652173913
 40
0.3043478260869565
 40
0.3043478260869565
 40
0.3043478260869565
 40
0.3043478260869565
 40
0.3478260869565217
 40
0.3478260869565217
 40
0.3478260869565217
 40
0.3478260869565217
 40
0.3913043478260869
 40
0.3913043478260869
 40
0.3913043478260869
 40
0.3913043478260869
 40
0.4347826086956522
 40
0.4347826086956522
 40
0.4347826086956522
 40
0.4347826086956522
 40
0.4782608695652173
 40
0.4782608695652173
 40
0.4782608695652173
 40
0.4782608695652173
 40
0.5217391304347825
 40
0.5217391304347825
 40
0.5217391304347825
 40
0.5217391304347825
 40
0.5652173913043477
 40
0.5652173913043477
 40
0.5652173913043477
 40
0.5652173913043477
 40
0.6086956521739129
 40
0.6086956521739129
 40
0.6086956521739129
 40
0.6086956521739129
 40
0.6521739130434781
 40
0.6521739130434781
 40
0.6521739130434781
 40
0.6521739130434781
 40
0.6956521739130432
 40
0.6956521739130432
 40
0.6956521739130432
 40
0.6956521739130432
 40
0.7391304347826085
 40
0.7391304347826085
 40
0.7391304347826085
 40
0.7391304347826085
 40
0.7826086956521737
 40
0.7826086956521737
 40
0.7826086956521737
 40
0.7826086956521737
 40
0.8260869565217387
 40
0.8260869565217387
 40
0.8260869565217387
 40
0.8260869565217387
 40
0.8695652173913039
 40
0.8695652173913039
 40
0.8695652173913039
 40
0.8695652173913039
 40
0.9130434782608691
 40
0.9130434782608691
 40
0.9130434782608691
 40
0.9130434782608691
 40
0.9565217391304344
 40
0.9565217391304344
 40
0.9565217391304344
 40
0.9565217391304344
 40
1.0
 40
1.0
 40
1.0
 40
1.0
 10
62.967221
 20
16.967023
 30
0.0
 10
61.57227500000001
 20
17.318626
 30
0.0
 10
62.005211
 20
18.833839
 30
0.0
 10
63.373382
 20
18.853684
 30
0.0
 10
63.373382
 20
18.853684
 30
0.0
 10
63.373382
 20
18.853684
 30
0.0
 10
67.72277599999999
 20
19.05982
 30
0.0
 10
67.72277599999999
 20
19.05982
 30
0.0
 10
67.72277599999999
 20
19.05982
 30
0.0
 10
69.60527899999999
 20
19.235527
 30
0.0
 10
71.07607699999999
 20
17.97685
 30
0.0
 10
71.59009400000001
 20
15.627895
 30
0.0
 10
71.59009400000001
 20
15.627895
 30
0.0
 10
72.238364
 20
13.143238
 30
0.0
 10
72.520289
 20
8.539260999999999
 30
0.0
 10
73.611575
 20
5.640127000000003
 30
0.0
 10
73.611575
 20
5.640127000000003
 30
0.0
 10
74.211146
 20
4.114077999999999
 30
0.0
 10
74.790557
 20
2.656762000000004
 30
0.0
 10
75.92096600000001
 20
1.908699999999999
 30
0.0
 10
75.92096600000001
 20
1.908699999999999
 30
0.0
 10
80.552285
 20
-1.155619999999997
 30
0.0
 10
86.539175
 20
-2.709262999999999
 30
0.0
 10
90.36799999999999
 20
-7.158322999999999
 30
0.0
 10
90.36799999999999
 20
-7.158322999999999
 30
0.0
 10
90.90337400000001
 20
-7.987402999999998
 30
0.0
 10
92.473901
 20
-8.412715999999999
 30
0.0
 10
93.297878
 20
-8.312419999999999
 30
0.0
 10
93.297878
 20
-8.312419999999999
 30
0.0
 10
94.537025
 20
-7.728472999999999
 30
0.0
 10
98.448758
 20
5.498629000000001
 30
0.0
 10
104.124554
 20
6.533404
 30
0.0
 10
104.124554
 20
6.533404
 30
0.0
 10
105.711524
 20
10.836493
 30
0.0
 10
112.859063
 20
13.519411
 30
0.0
 10
116.726066
 20
15.068581
 30
0.0
 10
116.726066
 20
15.068581
 30
0.0
 10
119.058263
 20
16.354348
 30
0.0
 10
121.039487
 20
15.12547
 30
0.0
 10
122.441174
 20
14.659774
 30
0.0
 10
122.441174
 20
14.659774
 30
0.0
 10
124.758566
 20
17.164591
 30
0.0
 10
127.008674
 20
16.62361
 30
0.0
 10
129.519161
 20
16.960912
 30
0.0
 10
129.519161
 20
16.960912
 30
0.0
 10
131.361533
 20
17.040481
 30
0.0
 10
134.52218
 20
17.835289
 30
0.0
 10
135.150164
 20
14.545051
 30
0.0
 10
135.150164
 20
14.545051
 30
0.0
 10
135.150164
 20
14.545051
 30
0.0
 10
129.937103
 20
14.103232
 30
0.0
 10
129.937103
 20
14.103232
 30
0.0
 10
129.937103
 20
14.103232
 30
0.0
 10
128.502404
 20
14.047162
 30
0.0
 10
128.7539
 20
11.997394
 30
0.0
 10
129.991472
 20
12.028201
 30
0.0
 10
129.991472
 20
12.028201
 30
0.0
 10
129.991472
 20
12.028201
 30
0.0
 10
135.484631
 20
12.514246
 30
0.0
 10
135.484631
 20
12.514246
 30
0.0
 10
135.484631
 20
12.514246
 30
0.0
 10
135.521171
 20
10.57876
 30
0.0
 10
134.44721
 20
9.497554000000004
 30
0.0
 10
132.815321
 20
9.262626999999998
 30
0.0
 10
132.815321
 20
9.262626999999998
 30
0.0
 10
128.784833
 20
8.613034000000002
 30
0.0
 10
123.922934
 20
8.892565000000001
 30
0.0
 10
121.998158
 20
10.804111
 30
0.0
 10
121.998158
 20
10.804111
 30
0.0
 10
121.233338
 20
8.742184000000001
 30
0.0
 10
112.750262
 20
4.972642
 30
0.0
 10
106.469288
 20
4.628536000000003
 30
0.0
 10
106.469288
 20
4.628536000000003
 30
0.0
 10
105.46784
 20
0.0020680000000013
 30
0.0
 10
99.56272400000001
 20
-9.381215
 30
0.0
 10
96.667055
 20
-10.962011
 30
0.0
 10
96.667055
 20
-10.962011
 30
0.0
 10
94.32395900000001
 20
-12.039815
 30
0.0
 10
92.832875
 20
-12.908585
 30
0.0
 10
85.59127700000001
 20
-10.520318
 30
0.0
 10
85.59127700000001
 20
-10.520318
 30
0.0
 10
81.968147
 20
-8.736724999999999
 30
0.0
 10
73.956689
 20
-3.905254999999998
 30
0.0
 10
70.400906
 20
4.056055
 30
0.0
 10
70.400906
 20
4.056055
 30
0.0
 10
69.68831300000001
 20
8.206747
 30
0.0
 10
70.805807
 20
10.802032
 30
0.0
 10
69.299792
 20
14.830882
 30
0.0
 10
69.299792
 20
14.830882
 30
0.0
 10
68.94485
 20
16.993483
 30
0.0
 10
66.012641
 20
16.599418
 30
0.0
 10
62.967221
 20
16.967023
 30
0.0
  0
SPLINE
  5
4C
330
1F
100
AcDbEntity
  8
Layer 1
 62
    22
370
     5
100
AcDbSpline
210
0.0
220
0.0
230
1.0
 70
    11
 71
     3
 72
    72
 73
    68
 74
     0
 42
0.0000000001
 43
0.0000000001
 40
0.0
 40
0.0
 40
0.0
 40
0.0
 40
0.0588235294117647
 40
0.0588235294117647
 40
0.0588235294117647
 40
0.0588235294117647
 40
0.1176470588235294
 40
0.1176470588235294
 40
0.1176470588235294
 40
0.1176470588235294
 40
0.1764705882352941
 40
0.1764705882352941
 40
0.1764705882352941
 40
0.1764705882352941
 40
0.2352941176470588
 40
0.2352941176470588
 40
0.2352941176470588
 40
0.2352941176470588
 40
0.2941176470588235
 40
0.2941176470588235
 40
0.2941176470588235
 40
0.2941176470588235
 40
0.3529411764705883
 40
0.3529411764705883
 40
0.3529411764705883
 40
0.3529411764705883
 40
0.411764705882353
 40
0.411764705882353
 40
0.411764705882353
 40
0.411764705882353
 40
0.4705882352941177
 40
0.4705882352941177
 40
0.4705882352941177
 40
0.4705882352941177
 40
0.5294117647058824
 40
0.5294117647058824
 40
0.5294117647058824
 40
0.5294117647058824
 40
0.5882352941176471
 40
0.5882352941176471
 40
0.5882352941176471
 40
0.5882352941176471
 40
0.6470588235294118
 40
0.6470588235294118
 40
0.6470588235294118
 40
0.6470588235294118
 40
0.7058823529411766
 40
0.7058823529411766
 40
0.7058823529411766
 40
0.7058823529411766
 40
0.7647058823529413
 40
0.7647058823529413
 40
0.7647058823529413
 40
0.7647058823529413
 40
0.8235294117647059
 40
0.8235294117647059
 40
0.8235294117647059
 40
0.8235294117647059
 40
0.8823529411764706
 40
0.8823529411764706
 40
0.8823529411764706
 40
0.8823529411764706
 40
0.9411764705882353
 40
0.9411764705882353
 40
0.9411764705882353
 40
0.9411764705882353
 40
1.0
 40
1.0
 40
1.0
 40
1.0
 10
129.340178
 20
-0.8912719999999971
 30
0.0
 10
128.061152
 20
-0.0068779999999968
 30
0.0
 10
129.229172
 20
1.341826000000001
 30
0.0
 10
129.938552
 20
1.137012999999999
 30
0.0
 10
129.938552
 20
1.137012999999999
 30
0.0
 10
129.938552
 20
1.137012999999999
 30
0.0
 10
142.871507
 20
-3.183652999999999
 30
0.0
 10
142.871507
 20
-3.183652999999999
 30
0.0
 10
142.871507
 20
-3.183652999999999
 30
0.0
 10
146.339594
 20
0.7650609999999994
 30
0.0
 10
145.152107
 20
6.530128000000001
 30
0.0
 10
139.631921
 20
6.385039000000002
 30
0.0
 10
139.631921
 20
6.385039000000002
 30
0.0
 10
137.861117
 20
6.066133
 30
0.0
 10
136.380869
 20
5.058825999999999
 30
0.0
 10
135.191492
 20
3.363496000000001
 30
0.0
 10
135.191492
 20
3.363496000000001
 30
0.0
 10
132.772166
 20
1.363120000000002
 30
0.0
 10
132.206615
 20
2.612598999999999
 30
0.0
 10
130.877063
 20
3.769342000000001
 30
0.0
 10
130.877063
 20
3.769342000000001
 30
0.0
 10
128.838446
 20
6.080308000000002
 30
0.0
 10
126.304964
 20
6.082387
 30
0.0
 10
123.602012
 20
6.839458000000004
 30
0.0
 10
123.602012
 20
6.839458000000004
 30
0.0
 10
122.203286
 20
7.289593000000003
 30
0.0
 10
121.156478
 20
7.394929000000001
 30
0.0
 10
120.170465
 20
5.724168999999999
 30
0.0
 10
120.170465
 20
5.724168999999999
 30
0.0
 10
119.209589
 20
3.849478000000001
 30
0.0
 10
117.626903
 20
4.535800000000001
 30
0.0
 10
116.354807
 20
3.941836000000002
 30
0.0
 10
116.354807
 20
3.941836000000002
 30
0.0
 10
108.354059
 20
1.319209
 30
0.0
 10
108.133937
 20
-9.263152999999999
 30
0.0
 10
114.381395
 20
-12.350342
 30
0.0
 10
114.381395
 20
-12.350342
 30
0.0
 10
114.941213
 20
-12.488942
 30
0.0
 10
116.151506
 20
-12.238328
 30
0.0
 10
115.865297
 20
-11.161784
 30
0.0
 10
115.865297
 20
-11.161784
 30
0.0
 10
112.583564
 20
-6.287096
 30
0.0
 10
113.905682
 20
-3.127834999999997
 30
0.0
 10
117.236681
 20
-0.7587829999999994
 30
0.0
 10
117.236681
 20
-0.7587829999999994
 30
0.0
 10
118.345229
 20
-0.5207689999999996
 30
0.0
 10
118.812374
 20
-0.7482619999999987
 30
0.0
 10
119.344346
 20
-1.510561999999998
 30
0.0
 10
119.344346
 20
-1.510561999999998
 30
0.0
 10
119.861135
 20
-4.058344999999999
 30
0.0
 10
121.502411
 20
-4.375675999999998
 30
0.0
 10
123.132095
 20
-5.237452999999998
 30
0.0
 10
123.132095
 20
-5.237452999999998
 30
0.0
 10
125.437832
 20
-6.766336999999998
 30
0.0
 10
126.632249
 20
-9.361055
 30
0.0
 10
129.896027
 20
-9.843130999999999
 30
0.0
 10
129.896027
 20
-9.843130999999999
 30
0.0
 10
129.896027
 20
-9.843130999999999
 30
0.0
 10
137.272256
 20
-11.194859
 30
0.0
 10
137.272256
 20
-11.194859
 30
0.0
 10
137.272256
 20
-11.194859
 30
0.0
 10
141.325613
 20
-11.580608
 30
0.0
 10
141.513605
 20
-7.682230999999999
 30
0.0
 10
142.092449
 20
-5.001265999999999
 30
0.0
 10
142.092449
 20
-5.001265999999999
 30
0.0
 10
142.092449
 20
-5.001265999999999
 30
0.0
 10
129.340178
 20
-0.8912719999999971
 30
0.0
 10
129.340178
 20
-0.8912719999999971
 30
0.0
  0
SPLINE
  5
4D
330
1F
100
AcDbEntity
  8
Layer 1
 62
    22
370
     5
100
AcDbSpline
210
0.0
220
0.0
230
1.0
 70
    11
 71
     3
 72
    72
 73
    68
 74
     0
 42
0.0000000001
 43
0.0000000001
 40
0.0
 40
0.0
 40
0.0
 40
0.0
 40
0.0588235294117647
 40
0.0588235294117647
 40
0.0588235294117647
 40
0.0588235294117647
 40
0.1176470588235294
 40
0.1176470588235294
 40
0.1176470588235294
 40
0.1176470588235294
 40
0.1764705882352941
 40
0.1764705882352941
 40
0.1764705882352941
 40
0.1764705882352941
 40
0.2352941176470588
 40
0.2352941176470588
 40
0.2352941176470588
 40
0.2352941176470588
 40
0.2941176470588235
 40
0.2941176470588235
 40
0.2941176470588235
 40
0.2941176470588235
 40
0.3529411764705883
 40
0.3529411764705883
 40
0.3529411764705883
 40
0.3529411764705883
 40
0.411764705882353
 40
0.411764705882353
 40
0.411764705882353
 40
0.411764705882353
 40
0.4705882352941177
 40
0.4705882352941177
 40
0.4705882352941177
 40
0.4705882352941177
 40
0.5294117647058824
 40
0.5294117647058824
 40
0.5294117647058824
 40
0.5294117647058824
 40
0.5882352941176471
 40
0.5882352941176471
 40
0.5882352941176471
 40
0.5882352941176471
 40
0.6470588235294118
 40
0.6470588235294118
 40
0.6470588235294118
 40
0.6470588235294118
 40
0.7058823529411766
 40
0.7058823529411766
 40
0.7058823529411766
 40
0.7058823529411766
 40
0.7647058823529413
 40
0.7647058823529413
 40
0.7647058823529413
 40
0.7647058823529413
 40
0.8235294117647059
 40
0.8235294117647059
 40
0.8235294117647059
 40
0.8235294117647059
 40
0.8823529411764706
 40
0.8823529411764706
 40
0.8823529411764706
 40
0.8823529411764706
 40
0.9411764705882353
 40
0.9411764705882353
 40
0.9411764705882353
 40
0.9411764705882353
 40
1.0
 40
1.0
 40
1.0
 40
1.0
 10
155.275577
 20
18.747529
 30
0.0
 10
154.066229
 20
17.770021
 30
0.0
 10
155.331836
 20
16.512415
 30
0.0
 10
156.023891
 20
16.76964400000001
 30
0.0
 10
156.023891
 20
16.76964400000001
 30
0.0
 10
156.023891
 20
16.76964400000001
 30
0.0
 10
168.597746
 20
22.04488600000001
 30
0.0
 10
168.597746
 20
22.04488600000001
 30
0.0
 10
168.597746
 20
22.04488600000001
 30
0.0
 10
172.351286
 20
18.366442
 30
0.0
 10
171.597995
 20
12.528799
 30
0.0
 10
166.082408
 20
12.260797
 30
0.0
 10
166.082408
 20
12.260797
 30
0.0
 10
164.292767
 20
12.446458
 30
0.0
 10
162.741329
 20
13.340365
 30
0.0
 10
161.428598
 20
14.942014
 30
0.0
 10
161.428598
 20
14.942014
 30
0.0
 10
158.866514
 20
16.75597299999999
 30
0.0
 10
158.395967
 20
15.467686
 30
0.0
 10
157.156568
 20
14.214805
 30
0.0
 10
157.156568
 20
14.214805
 30
0.0
 10
155.296367
 20
11.757931
 30
0.0
 10
152.77013
 20
11.566537
 30
0.0
 10
150.131312
 20
10.609504
 30
0.0
 10
150.131312
 20
10.609504
 30
0.0
 10
148.770134
 20
10.056112
 30
0.0
 10
147.734162
 20
9.872845000000001
 30
0.0
 10
146.626055
 20
11.46517
 30
0.0
 10
146.626055
 20
11.46517
 30
0.0
 10
145.527713
 20
13.262812
 30
0.0
 10
144.000719
 20
12.460066
 30
0.0
 10
142.687799
 20
12.957325
 30
0.0
 10
142.687799
 20
12.957325
 30
0.0
 10
134.513423
 20
14.974585
 30
0.0
 10
133.502903
 20
25.51089400000001
 30
0.0
 10
139.502141
 20
29.056471
 30
0.0
 10
139.502141
 20
29.056471
 30
0.0
 10
140.050052
 20
29.236462
 30
0.0
 10
141.275654
 20
29.077072
 30
0.0
 10
141.070715
 20
27.982132
 30
0.0
 10
141.070715
 20
27.982132
 30
0.0
 10
138.162509
 20
22.875793
 30
0.0
 10
139.717097
 20
19.824199
 30
0.0
 10
143.215865
 20
17.710738
 30
0.0
 10
143.215865
 20
17.710738
 30
0.0
 10
144.339092
 20
17.556199
 30
0.0
 10
144.787904
 20
17.818027
 30
0.0
 10
145.261412
 20
18.617938
 30
0.0
 10
145.261412
 20
18.617938
 30
0.0
 10
145.586366
 20
21.19722100000001
 30
0.0
 10
147.199292
 20
21.636394
 30
0.0
 10
148.760054
 20
22.617493
 30
0.0
 10
148.760054
 20
22.617493
 30
0.0
 10
150.94502
 20
24.314461
 30
0.0
 10
151.942184
 20
26.991205
 30
0.0
 10
155.160728
 20
27.715894
 30
0.0
 10
155.160728
 20
27.715894
 30
0.0
 10
155.160728
 20
27.715894
 30
0.0
 10
162.415367
 20
29.615218
 30
0.0
 10
162.415367
 20
29.615218
 30
0.0
 10
162.415367
 20
29.615218
 30
0.0
 10
166.42853
 20
30.302863
 30
0.0
 10
166.907393
 20
26.429434
 30
0.0
 10
167.685002
 20
23.79918400000001
 30
0.0
 10
167.685002
 20
23.79918400000001
 30
0.0
 10
167.685002
 20
23.79918400000001
 30
0.0
 10
155.275577
 20
18.747529
 30
0.0
 10
155.275577
 20
18.747529
 30
0.0
  0
SPLINE
  5
4E
330
1F
100
AcDbEntity
  8
Layer 1
 62
    22
370
     5
100
AcDbSpline
210
0.0
220
0.0
230
1.0
 70
    11
 71
     3
 72
    20
 73
    16
 74
     0
 42
0.0000000001
 43
0.0000000001
 40
0.0
 40
0.0
 40
0.0
 40
0.0
 40
0.25
 40
0.25
 40
0.25
 40
0.25
 40
0.5
 40
0.5
 40
0.5
 40
0.5
 40
0.75
 40
0.75
 40
0.75
 40
0.75
 40
1.0
 40
1.0
 40
1.0
 40
1.0
 10
139.963364
 20
2.702815000000001
 30
0.0
 10
140.743997
 20
2.797755999999999
 30
0.0
 10
141.454133
 20
2.241592
 30
0.0
 10
141.549074
 20
1.460959000000002
 30
0.0
 10
141.549074
 20
1.460959000000002
 30
0.0
 10
141.644015
 20
0.6803260000000009
 30
0.0
 10
141.087914
 20
-0.0298100000000012
 30
0.0
 10
140.307218
 20
-0.1247509999999981
 30
0.0
 10
140.307218
 20
-0.1247509999999981
 30
0.0
 10
139.526585
 20
-0.2196919999999984
 30
0.0
 10
138.816449
 20
0.3364720000000005
 30
0.0
 10
138.721508
 20
1.117105000000002
 30
0.0
 10
138.721508
 20
1.117105000000002
 30
0.0
 10
138.626567
 20
1.897738
 30
0.0
 10
139.182731
 20
2.607874000000002
 30
0.0
 10
139.963364
 20
2.702815000000001
 30
0.0
  0
SPLINE
  5
4F
330
1F
100
AcDbEntity
  8
Layer 1
 62
    22
370
     5
100
AcDbSpline
210
0.0
220
0.0
230
1.0
 70
    11
 71
     3
 72
    20
 73
    16
 74
     0
 42
0.0000000001
 43
0.0000000001
 40
0.0
 40
0.0
 40
0.0
 40
0.0
 40
0.25
 40
0.25
 40
0.25
 40
0.25
 40
0.5
 40
0.5
 40
0.5
 40
0.5
 40
0.75
 40
0.75
 40
0.75
 40
0.75
 40
1.0
 40
1.0
 40
1.0
 40
1.0
 10
166.137722
 20
15.957511
 30
0.0
 10
166.923269
 20
15.921223
 30
0.0
 10
167.589872
 20
16.52885800000001
 30
0.0
 10
167.62616
 20
17.314405
 30
0.0
 10
167.62616
 20
17.314405
 30
0.0
 10
167.662511
 20
18.099952
 30
0.0
 10
167.054813
 20
18.766555
 30
0.0
 10
166.269266
 20
18.802906
 30
0.0
 10
166.269266
 20
18.802906
 30
0.0
 10
165.483719
 20
18.839194
 30
0.0
 10
164.817116
 20
18.231559
 30
0.0
 10
164.780828
 20
17.446012
 30
0.0
 10
164.780828
 20
17.446012
 30
0.0
 10
164.744477
 20
16.660465
 30
0.0
 10
165.352175
 20
15.993862
 30
0.0
 10
166.137722
 20
15.957511
 30
0.0
  0
ENDSEC
  0
SECTION
  2
OBJECTS
  0
DICTIONARY
  5
C
330
0
100
AcDbDictionary
281
     1
  3
ACAD_COLOR
350
52
  3
ACAD_GROUP
350
D
  3
ACAD_LAYOUT
350
1A
  3
ACAD_MATERIAL
350
51
  3
ACAD_MLINESTYLE
350
17
  3
ACAD_PLOTSETTINGS
350
19
  3
ACAD_PLOTSTYLENAME
350
E
  3
ACAD_TABLESTYLE
350
53
  3
ACDBHEADERROUNDTRIPXREC
350
62
  3
AcDbVariableDictionary
350
5C
  3
ASE_INDEX_DICTIONARY
350
59
  0
DICTIONARY
  5
52
102
{ACAD_REACTORS
330
C
102
}
330
C
100
AcDbDictionary
281
     1
  0
DICTIONARY
  5
D
102
{ACAD_REACTORS
330
C
102
}
330
C
100
AcDbDictionary
281
     1
  0
DICTIONARY
  5
1A
102
{ACAD_REACTORS
330
C
102
}
330
C
100
AcDbDictionary
281
     1
  3
Layout1
350
1E
  3
Layout2
350
26
  3
Model
350
22
  0
DICTIONARY
  5
51
102
{ACAD_REACTORS
330
C
102
}
330
C
100
AcDbDictionary
281
     1
  0
DICTIONARY
  5
17
102
{ACAD_REACTORS
330
C
102
}
330
C
100
AcDbDictionary
281
     1
  3
Standard
350
18
  0
DICTIONARY
  5
19
102
{ACAD_REACTORS
330
C
102
}
330
C
100
AcDbDictionary
281
     1
  0
ACDBDICTIONARYWDFLT
  5
E
102
{ACAD_REACTORS
330
C
102
}
330
C
100
AcDbDictionary
281
     1
  3
Normal
350
F
100
AcDbDictionaryWithDefault
340
F
  0
DICTIONARY
  5
53
102
{ACAD_REACTORS
330
C
102
}
330
C
100
AcDbDictionary
281
     1
  3
Standard
350
54
  0
DICTIONARY
  5
62
102
{ACAD_REACTORS
330
C
102
}
330
C
100
AcDbDictionary
281
     1
  0
DICTIONARY
  5
5C
102
{ACAD_REACTORS
330
C
102
}
330
C
100
AcDbDictionary
281
     1
  3
CTABLESTYLE
350
5D
  3
DIMASSOC
350
5F
  3
HIDETEXT
350
5E
  3
PROJECTNAME
350
60
  0
DICTIONARY
  5
59
102
{ACAD_REACTORS
330
C
102
}
330
C
100
AcDbDictionary
281
     1
  3
ASEBlockHierarchyIndexRecord
350
5B
1001
DCO15
1040
1622097077.859
  0
LAYOUT
  5
1E
102
{ACAD_XDICTIONARY
360
63
102
}
102
{ACAD_REACTORS
330
1A
102
}
330
1A
100
AcDbPlotSettings
  1

  2

  4

  6

 40
0.0
 41
0.0
 42
0.0
 43
0.0
 44
0.0
 45
0.0
 46
0.0
 47
0.0
 48
0.0
 49
0.0
140
0.0
141
0.0
142
1.0
143
1.0
 70
   688
 72
     0
 73
     0
 74
     5
  7

 75
    16
147
1.0
148
0.0
149
0.0
100
AcDbLayout
  1
Layout1
 70
     1
 71
     1
 10
0.0
 20
0.0
 11
12.0
 21
9.0
 12
0.0
 22
0.0
 32
0.0
 14
1.000000000000000E+20
 24
1.000000000000000E+20
 34
1.000000000000000E+20
 15
-1.000000000000000E+20
 25
-1.000000000000000E+20
 35
-1.000000000000000E+20
146
0.0
 13
0.0
 23
0.0
 33
0.0
 16
1.0
 26
0.0
 36
0.0
 17
0.0
 27
1.0
 37
0.0
 76
     0
330
1B
  0
LAYOUT
  5
26
102
{ACAD_XDICTIONARY
360
67
102
}
102
{ACAD_REACTORS
330
1A
102
}
330
1A
100
AcDbPlotSettings
  1

  2

  4

  6

 40
0.0
 41
0.0
 42
0.0
 43
0.0
 44
0.0
 45
0.0
 46
0.0
 47
0.0
 48
0.0
 49
0.0
140
0.0
141
0.0
142
1.0
143
1.0
 70
   688
 72
     0
 73
     0
 74
     5
  7

 75
    16
147
1.0
148
0.0
149
0.0
100
AcDbLayout
  1
Layout2
 70
     1
 71
     2
 10
0.0
 20
0.0
 11
0.0
 21
0.0
 12
0.0
 22
0.0
 32
0.0
 14
0.0
 24
0.0
 34
0.0
 15
0.0
 25
0.0
 35
0.0
146
0.0
 13
0.0
 23
0.0
 33
0.0
 16
1.0
 26
0.0
 36
0.0
 17
0.0
 27
1.0
 37
0.0
 76
     0
330
23
  0
LAYOUT
  5
22
102
{ACAD_XDICTIONARY
360
65
102
}
102
{ACAD_REACTORS
330
1A
102
}
330
1A
100
AcDbPlotSettings
  1

  2

  4

  6

 40
0.0
 41
0.0
 42
0.0
 43
0.0
 44
0.0
 45
0.0
 46
0.0
 47
0.0
 48
0.0
 49
0.0
140
0.0
141
0.0
142
1.0
143
1.0
 70
  1712
 72
     0
 73
     0
 74
     0
  7

 75
     0
147
1.0
148
0.0
149
0.0
100
AcDbLayout
  1
Model
 70
     1
 71
     0
 10
0.0
 20
0.0
 11
0.0
 21
0.0
 12
0.0
 22
0.0
 32
0.0
 14
-26.95819
 24
-9.763709999999999
 34
0.0
 15
26.64582
 25
10.15467
 35
0.0
146
0.0
 13
0.0
 23
0.0
 33
0.0
 16
1.0
 26
0.0
 36
0.0
 17
0.0
 27
1.0
 37
0.0
 76
     0
330
1F
  0
MLINESTYLE
  5
18
102
{ACAD_REACTORS
330
17
102
}
330
17
100
AcDbMlineStyle
  2
STANDARD
 70
     0
  3

 62
   256
 51
90.0
 52
90.0
 71
     2
 49
0.5
 62
   256
  6
BYLAYER
 49
-0.5
 62
   256
  6
BYLAYER
  0
ACDBPLACEHOLDER
  5
F
102
{ACAD_REACTORS
330
E
102
}
330
E
  0
TABLESTYLE
  5
54
102
{ACAD_REACTORS
330
53
102
}
330
53
100
AcDbTableStyle
  3
Standard
 70
     0
 71
     0
 40
0.06
 41
0.06
280
     0
281
     0
  7
Standard
140
0.18
170
     2
 62
     0
 63
     7
283
     0
274
    -2
284
     1
 64
     0
275
    -2
285
     1
 65
     0
276
    -2
286
     1
 66
     0
277
    -2
287
     1
 67
     0
278
    -2
288
     1
 68
     0
279
    -2
289
     1
 69
     0
  7
Standard
140
0.25
170
     5
 62
     0
 63
     7
283
     0
274
    -2
284
     1
 64
     0
275
    -2
285
     1
 65
     0
276
    -2
286
     1
 66
     0
277
    -2
287
     1
 67
     0
278
    -2
288
     1
 68
     0
279
    -2
289
     1
 69
     0
  7
Standard
140
0.18
170
     5
 62
     0
 63
     7
283
     0
274
    -2
284
     1
 64
     0
275
    -2
285
     1
 65
     0
276
    -2
286
     1
 66
     0
277
    -2
287
     1
 67
     0
278
    -2
288
     1
 68
     0
279
    -2
289
     1
 69
     0
  0
DICTIONARYVAR
  5
5D
102
{ACAD_REACTORS
330
5C
102
}
330
5C
100
DictionaryVariables
280
     0
  1
STANDARD
  0
DICTIONARYVAR
  5
5F
102
{ACAD_REACTORS
330
5C
102
}
330
5C
100
DictionaryVariables
280
     0
  1
2
  0
DICTIONARYVAR
  5
5E
102
{ACAD_REACTORS
330
5C
102
}
330
5C
100
DictionaryVariables
280
     0
  1
1
  0
DICTIONARYVAR
  5
60
102
{ACAD_REACTORS
330
5C
102
}
330
5C
100
DictionaryVariables
280
     0
  1

  0
XRECORD
  5
5B
102
{ACAD_REACTORS
330
59
102
}
330
59
100
AcDbXrecord
280
     1
  0
DICTIONARY
  5
63
330
1E
100
AcDbDictionary
280
     1
281
     1
  3
ACAD_XREC_ROUNDTRIP
360
64
  0
DICTIONARY
  5
67
330
26
100
AcDbDictionary
280
     1
281
     1
  3
ACAD_XREC_ROUNDTRIP
360
68
  0
DICTIONARY
  5
65
330
22
100
AcDbDictionary
280
     1
281
     1
  3
ACAD_XREC_ROUNDTRIP
360
66
  0
XRECORD
  5
64
102
{ACAD_REACTORS
330
63
102
}
330
63
100
AcDbXrecord
280
     1
102
SHADEPLOT
 70
     0
102
SHADEPLOTRESLEVEL
 70
     2
102
SHADEPLOTCUSTOMDPI
 70
   300
  0
XRECORD
  5
68
102
{ACAD_REACTORS
330
67
102
}
330
67
100
AcDbXrecord
280
     1
102
SHADEPLOT
 70
     0
102
SHADEPLOTRESLEVEL
 70
     2
102
SHADEPLOTCUSTOMDPI
 70
   300
  0
XRECORD
  5
66
102
{ACAD_REACTORS
330
65
102
}
330
65
100
AcDbXrecord
280
     1
102
SHADEPLOT
 70
     0
102
SHADEPLOTRESLEVEL
 70
     2
102
SHADEPLOTCUSTOMDPI
 70
   300
  0
ENDSEC
  0
EOF
