  0
SECTION
  2
HEADER
  9
$ACADVER
  1
AC1006
  9
$INSBASE
 10
0.0
 20
0.0
 30
0.0
  9
$EXTMIN
 10
1.000000E+20
 20
1.000000E+20
  9
$EXTMAX
 10
-1.000000E+20
 20
-1.000000E+20
  9
$LIMMIN
 10
0.0
 20
0.0
  9
$LIMMAX
 10
0.0
 20
0.0
  9
$VIEWCTR
 10
6.591288
 20
4.579184
  9
$VIEWSIZE
 40
9.158369
  9
$SNAPMODE
 70
     0
  9
$SNAPUNIT
 10
1.0
 20
1.0
  9
$SNAPBASE
 10
0.0
 20
0.0
  9
$SNAPANG
 50
0.0
  9
$SNAPSTYLE
 70
     0
  9
$SNAPISOPAIR
 70
     0
  9
$GRIDMODE
 70
     0
  9
$GRIDUNIT
 10
0.0
 20
0.0
  9
$ORTHOMODE
 70
     0
  9
$REGENMODE
 70
     1
  9
$FILLMODE
 70
     1
  9
$QTEXTMODE
 70
     0
  9
$MIRRTEXT
 70
     1
  9
$DRAGMODE
 70
     2
  9
$LTSCALE
 40
1.0
  9
$OSMODE
 70
     0
  9
$ATTMODE
 70
     1
  9
$TEXTSIZE
 40
0.2
  9
$TRACEWID
 40
0.05
  9
$TEXTSTYLE
  7
STANDARD
  9
$CLAYER
  8
0
  9
$CELTYPE
  6
CONTINUOUS
  9
$CECOLOR
 62
   256
  9
$DIMSCALE
 40
1.0
  9
$DIMASZ
 40
0.18
  9
$DIMEXO
 40
0.0625
  9
$DIMDLI
 40
0.38
  9
$DIMRND
 40
0.0
  9
$DIMDLE
 40
0.0
  9
$DIMEXE
 40
0.18
  9
$DIMTP
 40
0.0
  9
$DIMTM
 40
0.0
  9
$DIMTXT
 40
0.18
  9
$DIMCEN
 40
0.09
  9
$DIMTSZ
 40
0.0
  9
$DIMTOL
 70
     0
  9
$DIMLIM
 70
     0
  9
$DIMTIH
 70
     1
  9
$DIMTOH
 70
     1
  9
$DIMSE1
 70
     0
  9
$DIMSE2
 70
     0
  9
$DIMTAD
 70
     0
  9
$DIMZIN
 70
     0
  9
$DIMBLK
  1

  9
$DIMASO
 70
     1
  9
$DIMSHO
 70
     1
  9
$DIMPOST
  1

  9
$DIMAPOST
  1

  9
$DIMALT
 70
     0
  9
$DIMALTD
 70
     2
  9
$DIMALTF
 40
25.4
  9
$DIMLFAC
 40
1.0
  9
$DIMTOFL
 70
     0
  9
$DIMTVP
 40
0.0
  9
$DIMTIX
 70
     0
  9
$DIMSOXD
 70
     0
  9
$DIMSAH
 70
     0
  9
$DIMBLK1
  1

  9
$DIMBLK2
  1

  9
$LUNITS
 70
     2
  9
$LUPREC
 70
     4
  9
$AXISMODE
 70
     0
  9
$AXISUNIT
 10
0.0
 20
0.0
  9
$SKETCHINC
 40
0.1
  9
$FILLETRAD
 40
0.0
  9
$AUNITS
 70
     0
  9
$AUPREC
 70
     0
  9
$MENU
  1
acad
  9
$ELEVATION
 40
0.0
  9
$THICKNESS
 40
0.0
  9
$LIMCHECK
 70
     0
  9
$BLIPMODE
 70
     1
  9
$CHAMFERA
 40
0.0
  9
$CHAMFERB
 40
0.0
  9
$SKPOLY
 70
     0
  9
$TDCREATE
 40
0.000000000
  9
$TDUPDATE
 40
0.000000000
  9
$TDINDWG
 40
0.0000000000
  9
$TDUSRTIMER
 40
0.0000000000
  9
$USRTIMER
 70
     1
  9
$ANGBASE
 50
0.0
  9
$ANGDIR
 70
     0
  9
$PDMODE
 70
     0
  9
$PDSIZE
 40
0.0
  9
$PLINEWID
 40
0.0
  9
$COORDS
 70
     0
  9
$SPLFRAME
 70
     0
  9
$SPLINETYPE
 70
     6
  9
$SPLINESEGS
 70
     8
  9
$ATTDIA
 70
     0
  9
$ATTREQ
 70
     1
  9
$HANDLING
 70
     1
  9
$HANDSEED
  5
380
  9
$SURFTAB1
 70
     6
  9
$SURFTAB2
 70
     6
  9
$SURFTYPE
 70
     6
  9
$SURFU
 70
     6
  9
$SURFV
 70
     6
  9
$FLATLAND
 70
     0
  9
$UCSNAME
  2

  9
$UCSORG
 10
0.0
 20
0.0
 30
0.0
  9
$UCSXDIR
 10
1.0
 20
0.0
 30
0.0
  9
$UCSYDIR
 10
0.0
 20
1.0
 30
0.0
  9
$USERI1
 70
     0
  9
$USERI2
 70
     0
  9
$USERI3
 70
     0
  9
$USERI4
 70
     0
  9
$USERI5
 70
     0
  9
$USERR1
 40
0.0
  9
$USERR2
 40
0.0
  9
$USERR3
 40
0.0
  9
$USERR4
 40
0.0
  9
$USERR5
 40
0.0
  9
$WORLDVIEW
 70
     1
  0
ENDSEC
  0
SECTION
  2
TABLES
  0
TABLE
  2
VPORT
 70
     1
  0
VPORT
  2
*ACTIVE
 70
     0
 10
0.0
 20
0.0
 11
1.0
 21
1.0
 12
6.591288
 22
4.579184
 13
0.0
 23
0.0
 14
1.0
 24
1.0
 15
0.0
 25
0.0
 16
0.0
 26
0.0
 36
1.0
 17
0.0
 27
0.0
 37
0.0
 40
9.158369
 41
0.688564
 42
50.0
 43
0.0
 44
0.0
 50
0.0
 51
0.0
 71
     0
 72
   100
 73
     1
 74
     1
 75
     0
 76
     0
 77
     0
 78
     0
  0
ENDTAB
  0
TABLE
  2
LTYPE
 70
    25
  0
LTYPE
  2
CONTINUOUS
 70
     0
  3
Solid line
 72
    65
 73
     0
 40
0.0
  0
LTYPE
  2
BORDER
 70
     0
  3
Border __ __ . __ __ . __ __ . __ __ . __ __ .
 72
    65
 73
     6
 40
1.75
 49
0.5
 49
-0.25
 49
0.5
 49
-0.25
 49
0.0
 49
-0.25
  0
LTYPE
  2
BORDER2
 70
     0
  3
Border (.5x) __.__.__.__.__.__.__.__.__.__.__.
 72
    65
 73
     6
 40
0.875
 49
0.25
 49
-0.125
 49
0.25
 49
-0.125
 49
0.0
 49
-0.125
  0
LTYPE
  2
BORDERX2
 70
     0
  3
Border (2x) ____  ____  .  ____  ____  .  ___
 72
    65
 73
     6
 40
3.5
 49
1.0
 49
-0.5
 49
1.0
 49
-0.5
 49
0.0
 49
-0.5
  0
LTYPE
  2
CENTER
 70
     0
  3
Center ____ _ ____ _ ____ _ ____ _ ____ _ ____
 72
    65
 73
     4
 40
2.0
 49
1.25
 49
-0.25
 49
0.25
 49
-0.25
  0
LTYPE
  2
CENTER2
 70
     0
  3
Center (.5x) ___ _ ___ _ ___ _ ___ _ ___ _ ___
 72
    65
 73
     4
 40
1.125
 49
0.75
 49
-0.125
 49
0.125
 49
-0.125
  0
LTYPE
  2
CENTERX2
 70
     0
  3
Center (2x) ________  __  ________  __  _____
 72
    65
 73
     4
 40
4.0
 49
2.5
 49
-0.5
 49
0.5
 49
-0.5
  0
LTYPE
  2
DASHDOT
 70
     0
  3
Dash dot __ . __ . __ . __ . __ . __ . __ . __
 72
    65
 73
     4
 40
1.0
 49
0.5
 49
-0.25
 49
0.0
 49
-0.25
  0
LTYPE
  2
DASHDOT2
 70
     0
  3
Dash dot (.5x) _._._._._._._._._._._._._._._.
 72
    65
 73
     4
 40
0.5
 49
0.25
 49
-0.125
 49
0.0
 49
-0.125
  0
LTYPE
  2
DASHDOTX2
 70
     0
  3
Dash dot (2x) ____  .  ____  .  ____  .  ___
 72
    65
 73
     4
 40
2.0
 49
1.0
 49
-0.5
 49
0.0
 49
-0.5
  0
LTYPE
  2
DASHED
 70
     0
  3
Dashed __ __ __ __ __ __ __ __ __ __ __ __ __ _
 72
    65
 73
     2
 40
0.75
 49
0.5
 49
-0.25
  0
LTYPE
  2
DASHED2
 70
     0
  3
Dashed (.5x) _ _ _ _ _ _ _ _ _ _ _ _ _ _ _ _ _
 72
    65
 73
     2
 40
0.375
 49
0.25
 49
-0.125
  0
LTYPE
  2
DASHEDX2
 70
     0
  3
Dashed (2x) ____  ____  ____  ____  ____  ___
 72
    65
 73
     2
 40
1.5
 49
1.0
 49
-0.5
  0
LTYPE
  2
DIVIDE
 70
     0
  3
Divide ____ . . ____ . . ____ . . ____ . . ____
 72
    65
 73
     6
 40
1.25
 49
0.5
 49
-0.25
 49
0.0
 49
-0.25
 49
0.0
 49
-0.25
  0
LTYPE
  2
DIVIDE2
 70
     0
  3
Divide (.5x) __..__..__..__..__..__..__..__.._
 72
    65
 73
     6
 40
0.625
 49
0.25
 49
-0.125
 49
0.0
 49
-0.125
 49
0.0
 49
-0.125
  0
LTYPE
  2
DIVIDEX2
 70
     0
  3
Divide (2x) ________  .  .  ________  .  .  _
 72
    65
 73
     6
 40
2.5
 49
1.0
 49
-0.5
 49
0.0
 49
-0.5
 49
0.0
 49
-0.5
  0
LTYPE
  2
DOT
 70
     0
  3
Dot . . . . . . . . . . . . . . . . . . . . . .
 72
    65
 73
     2
 40
0.25
 49
0.0
 49
-0.25
  0
LTYPE
  2
DOT2
 70
     0
  3
Dot (.5x) .....................................
 72
    65
 73
     2
 40
0.125
 49
0.0
 49
-0.125
  0
LTYPE
  2
DOTX2
 70
     0
  3
Dot (2x) .  .  .  .  .  .  .  .  .  .  .  .  . 
 72
    65
 73
     2
 40
0.5
 49
0.0
 49
-0.5
  0
LTYPE
  2
HIDDEN
 70
     0
  3
Hidden __ __ __ __ __ __ __ __ __ __ __ __ __ _
 72
    65
 73
     2
 40
0.375
 49
0.25
 49
-0.125
  0
LTYPE
  2
HIDDEN2
 70
     0
  3
Hidden (.5x) _ _ _ _ _ _ _ _ _ _ _ _ _ _ _ _ _
 72
    65
 73
     2
 40
0.1875
 49
0.125
 49
-0.0625
  0
LTYPE
  2
HIDDENX2
 70
     0
  3
Hidden (2x) ____ ____ ____ ____ ____ ____ ____
 72
    65
 73
     2
 40
0.75
 49
0.5
 49
-0.25
  0
LTYPE
  2
PHANTOM
 70
     0
  3
Phantom ______  __  __  ______  __  __  ______
 72
    65
 73
     6
 40
2.5
 49
1.25
 49
-0.25
 49
0.25
 49
-0.25
 49
0.25
 49
-0.25
  0
LTYPE
  2
PHANTOM2
 70
     0
  3
Phantom (.5x) ___ _ _ ___ _ _ ___ _ _ ___ _ _
 72
    65
 73
     6
 40
1.25
 49
0.625
 49
-0.125
 49
0.125
 49
-0.125
 49
0.125
 49
-0.125
  0
LTYPE
  2
PHANTOMX2
 70
     0
  3
Phantom (2x) ____________    ____    ____   _
 72
    65
 73
     6
 40
5.0
 49
2.5
 49
-0.5
 49
0.5
 49
-0.5
 49
0.5
 49
-0.5
  0
ENDTAB
  0
TABLE
  2
LAYER
 70
    19
  0
LAYER
  2
0
 70
     0
 62
     7
  6
CONTINUOUS
  0
LAYER
  2
0
 70
     0
 62
     7
  6
CONTINUOUS
  0
LAYER
  2
OBJ
 70
     4
 62
     2
  6
CONTINUOUS
  0
LAYER
  2
DADO
 70
     4
 62
     2
  6
DOT
  0
LAYER
  2
T0000
 70
     0
 62
     2
  6
DOT
  0
LAYER
  2
JUNK
 70
     0
 62
     2
  6
DOT
  0
LAYER
  2
LUR
 70
     0
 62
     2
  6
DOT
  0
LAYER
  2
DROP_DOOR
 70
     4
 62
     2
  6
DOT
  0
LAYER
  2
COMMONLINE
 70
     4
 62
     7
  6
CONTINUOUS
  0
LAYER
  2
COMMONCROSS
 70
     4
 62
     8
  6
CONTINUOUS
  0
LAYER
  2
SLUG_AND_UNTOOLED
 70
     0
 62
     2
  6
DOT
  0
LAYER
  2
BLACK
 70
     0
 62
    -1
  6
CONTINUOUS
  0
LAYER
  2
WHITE
 70
     0
 62
     7
  6
CONTINUOUS
  0
LAYER
  2
RED
 70
     0
 62
     1
  6
CONTINUOUS
  0
LAYER
  2
YELLOW
 70
     0
 62
     2
  6
CONTINUOUS
  0
LAYER
  2
GREEN
 70
     0
 62
     3
  6
CONTINUOUS
  0
LAYER
  2
CYAN
 70
     0
 62
     4
  6
CONTINUOUS
  0
LAYER
  2
BLUE
 70
     0
 62
     5
  6
CONTINUOUS
  0
LAYER
  2
MAGENTA
 70
     0
 62
     6
  6
CONTINUOUS
  0
ENDTAB
  0
TABLE
  2
STYLE
 70
     1
  0
STYLE
  2
STANDARD
 70
     0
 40
0.0
 41
1.0
 50
0.0
 71
     0
 42
0.0
  3
txt
  4

  0
ENDTAB
  0
TABLE
  2
VIEW
 70
     0
  0
ENDTAB
  0
TABLE
  2
UCS
 70
     0
  0
ENDTAB
  0
ENDSEC
  0
SECTION
  2
BLOCKS
  0
ENDSEC
  0
SECTION
  2
ENTITIES
  0
POINT
  8
0
  6
CONTINUOUS
  5
47
 10
42.880761
 20
236.616516
 30
0.0
  0
ARC
  8
WHITE
  6
CONTINUOUS
  5
48
 10
64.758226
 20
144.584855
 30
0.0
 40
49.092599
 50
-111.730085
 51
-95.520056
  0
LINE
  8
WHITE
  6
CONTINUOUS
  5
49
 10
60.035804
 20
95.719918
 30
0.0
 11
61.231933
 21
94.034528
 31
0.0
  0
ARC
  8
WHITE
  6
CONTINUOUS
  5
4A
 10
61.08911
 20
77.602858
 30
0.0
 40
16.432291
 50
89.502002
 51
139.770463
  0
ARC
  8
WHITE
  6
CONTINUOUS
  5
4B
 10
52.001037
 20
84.59545
 30
0.0
 40
5.005944
 50
133.681905
 51
-113.561437
  0
LINE
  8
WHITE
  6
CONTINUOUS
  5
4C
 10
50.0
 20
80.006841
 30
0.0
 11
3.143043
 21
61.264054
 31
0.0
  0
ARC
  8
WHITE
  6
CONTINUOUS
  5
4D
 10
5.000004
 20
56.621665
 30
0.0
 40
5.000008
 50
111.801467
 51
-180.0
  0
LINE
  8
WHITE
  6
CONTINUOUS
  5
4E
 10
0.0
 20
56.621665
 30
0.0
 11
0.000004
 21
5.006598
 31
0.0
  0
ARC
  8
WHITE
  6
CONTINUOUS
  5
4F
 10
5.000004
 20
5.006598
 30
0.0
 40
5.0
 50
-179.999997
 51
-90.003197
  0
LINE
  8
WHITE
  6
CONTINUOUS
  5
50
 10
4.999725
 20
0.006601
 30
0.0
 11
130.352436
 21
0.0
 31
0.0
  0
ARC
  8
WHITE
  6
CONTINUOUS
  5
51
 10
130.352702
 20
4.999998
 30
0.0
 40
4.999998
 50
-90.003048
 51
0.0
  0
LINE
  8
WHITE
  6
CONTINUOUS
  5
52
 10
135.3527
 20
4.999998
 30
0.0
 11
135.3527
 21
56.614531
 31
0.0
  0
ARC
  8
WHITE
  6
CONTINUOUS
  5
53
 10
130.352702
 20
56.614531
 30
0.0
 40
4.999998
 50
0.0
 51
68.198592
  0
LINE
  8
WHITE
  6
CONTINUOUS
  5
54
 10
132.209655
 20
61.256915
 30
0.0
 11
85.3527
 21
79.999695
 31
0.0
  0
ARC
  8
WHITE
  6
CONTINUOUS
  5
55
 10
82.287153
 20
84.477898
 30
0.0
 40
5.426959
 50
-55.606469
 51
1.512972
  0
ARC
  8
WHITE
  6
CONTINUOUS
  5
56
 10
95.369191
 20
86.2862
 30
0.0
 40
7.835914
 50
104.742502
 51
-167.731992
  0
ARC
  8
WHITE
  6
CONTINUOUS
  5
57
 10
85.823428
 20
100.989734
 30
0.0
 40
10.38279
 50
-43.33697
 51
9.498646
  0
ARC
  8
WHITE
  6
CONTINUOUS
  5
58
 10
95.566133
 20
139.685321
 30
0.0
 40
36.985524
 50
-96.284136
 51
-89.228921
  0
ARC
  8
WHITE
  6
CONTINUOUS
  5
59
 10
91.456851
 20
103.824101
 30
0.0
 40
0.904122
 50
85.981272
 51
-86.139007
  0
ARC
  8
WHITE
  6
CONTINUOUS
  5
5A
 10
95.566133
 20
139.685321
 30
0.0
 40
35.192662
 50
-96.601597
 51
-6.24921
  0
LINE
  8
WHITE
  6
CONTINUOUS
  5
5B
 10
130.549675
 20
135.854488
 30
0.0
 11
129.829018
 21
136.034381
 31
0.0
  0
ARC
  8
WHITE
  6
CONTINUOUS
  5
5C
 10
131.275066
 20
141.652594
 30
0.0
 40
5.801325
 50
-151.031487
 51
-104.433826
  0
ARC
  8
WHITE
  6
CONTINUOUS
  5
5D
 10
126.741828
 20
139.12908
 30
0.0
 40
0.61317
 50
37.070821
 51
-152.172385
  0
ARC
  8
WHITE
  6
CONTINUOUS
  5
5E
 10
132.389922
 20
142.968313
 30
0.0
 40
6.21707
 50
-146.076982
 51
-106.194024
  0
ARC
  8
WHITE
  6
CONTINUOUS
  5
5F
 10
136.695823
 20
154.880445
 30
0.0
 40
18.87495
 50
-108.66229
 51
-31.425506
  0
LINE
  8
WHITE
  6
CONTINUOUS
  5
60
 10
152.802172
 20
145.039243
 30
0.0
 11
152.765591
 21
153.304996
 31
0.0
  0
LINE
  8
WHITE
  6
CONTINUOUS
  5
61
 10
152.765591
 20
153.304996
 30
0.0
 11
150.331279
 21
150.455073
 31
0.0
  0
LINE
  8
WHITE
  6
CONTINUOUS
  5
62
 10
150.331279
 20
150.455073
 30
0.0
 11
149.789616
 21
145.930617
 31
0.0
  0
ARC
  8
WHITE
  6
CONTINUOUS
  5
63
 10
149.689616
 20
145.930337
 30
0.0
 40
0.1
 50
-161.192206
 51
0.160537
  0
LINE
  8
WHITE
  6
CONTINUOUS
  5
64
 10
149.594955
 20
145.898098
 30
0.0
 11
148.042017
 21
150.45781
 31
0.0
  0
LINE
  8
WHITE
  6
CONTINUOUS
  5
65
 10
148.042017
 20
150.45781
 30
0.0
 11
146.229083
 21
153.429867
 31
0.0
  0
LINE
  8
WHITE
  6
CONTINUOUS
  5
66
 10
146.229083
 20
153.429867
 30
0.0
 11
144.981691
 21
154.787173
 31
0.0
  0
ARC
  8
WHITE
  6
CONTINUOUS
  5
67
 10
145.055368
 20
154.854797
 30
0.0
 40
0.100007
 50
54.696461
 51
-137.452915
  0
LINE
  8
WHITE
  6
CONTINUOUS
  5
68
 10
145.113163
 20
154.936413
 30
0.0
 11
149.403191
 21
151.89319
 31
0.0
  0
ARC
  8
WHITE
  6
CONTINUOUS
  5
69
 10
106.060907
 20
191.631508
 30
0.0
 40
58.802104
 50
-42.516115
 51
17.065395
  0
ARC
  8
WHITE
  6
CONTINUOUS
  5
6A
 10
-43.452394
 20
148.170297
 30
0.0
 40
214.499301
 50
16.443277
 51
36.803481
  0
ARC
  8
WHITE
  6
CONTINUOUS
  5
6B
 10
824.874516
 20
786.613553
 30
0.0
 40
863.286163
 50
-146.083385
 51
-143.79334
  0
ARC
  8
WHITE
  6
CONTINUOUS
  5
6C
 10
46.162244
 20
267.378132
 30
0.0
 40
72.744851
 50
31.062188
 51
55.76695
  0
ARC
  8
WHITE
  6
CONTINUOUS
  5
6D
 10
-47.324183
 20
189.027694
 30
0.0
 40
192.992798
 50
45.857139
 51
55.752868
  0
ARC
  8
WHITE
  6
CONTINUOUS
  5
6E
 10
54.198585
 20
342.999125
 30
0.0
 40
9.007292
 50
38.116589
 51
174.02016
  0
ARC
  8
WHITE
  6
CONTINUOUS
  5
6F
 10
131.298436
 20
337.585055
 30
0.0
 40
86.292267
 50
175.778332
 51
-162.465645
  0
ARC
  8
WHITE
  6
CONTINUOUS
  5
70
 10
194.570911
 20
303.057492
 30
0.0
 40
145.805006
 50
176.646266
 51
-165.923856
  0
ARC
  8
WHITE
  6
CONTINUOUS
  5
71
 10
160.484681
 20
275.506197
 30
0.0
 40
107.631802
 50
-175.785401
 51
-161.434849
  0
LINE
  8
WHITE
  6
CONTINUOUS
  5
72
 10
58.453802
 20
241.238085
 30
0.0
 11
59.094994
 21
240.470787
 31
0.0
  0
ARC
  8
WHITE
  6
CONTINUOUS
  5
73
 10
62.789603
 20
236.690543
 30
0.0
 40
5.285866
 50
3.665301
 51
134.34362
  0
ARC
  8
WHITE
  6
CONTINUOUS
  5
74
 10
67.852775
 20
237.014409
 30
0.0
 40
0.212347
 50
178.03444
 51
3.793282
  0
ARC
  8
WHITE
  6
CONTINUOUS
  5
75
 10
62.775056
 20
236.599609
 30
0.0
 40
4.883771
 50
4.958012
 51
133.893612
  0
LINE
  8
WHITE
  6
CONTINUOUS
  5
76
 10
59.389033
 20
240.118993
 30
0.0
 11
59.394994
 21
238.751415
 31
0.0
  0
LINE
  8
WHITE
  6
CONTINUOUS
  5
77
 10
59.394994
 20
238.751415
 30
0.0
 11
65.391539
 21
235.295715
 31
0.0
  0
LINE
  8
WHITE
  6
CONTINUOUS
  5
78
 10
65.391539
 20
235.295715
 30
0.0
 11
66.594502
 21
236.027962
 31
0.0
  0
ARC
  8
WHITE
  6
CONTINUOUS
  5
79
 10
66.617216
 20
235.751213
 30
0.0
 40
0.27768
 50
-30.685847
 51
94.692
  0
LINE
  8
WHITE
  6
CONTINUOUS
  5
7A
 10
66.856015
 20
235.609504
 30
0.0
 11
65.443843
 21
234.668089
 31
0.0
  0
LINE
  8
WHITE
  6
CONTINUOUS
  5
7B
 10
65.443843
 20
234.668089
 30
0.0
 11
59.397586
 21
238.156999
 31
0.0
  0
ARC
  8
WHITE
  6
CONTINUOUS
  5
7C
 10
52.906852
 20
219.4406
 30
0.0
 40
19.809928
 50
70.873763
 51
108.77437
  0
LINE
  8
WHITE
  6
CONTINUOUS
  5
7D
 10
46.531181
 20
238.196507
 30
0.0
 11
46.531179
 21
239.601385
 31
0.0
  0
ARC
  8
WHITE
  6
CONTINUOUS
  5
7E
 10
45.52653
 20
239.688584
 30
0.0
 40
1.008426
 50
-4.960541
 51
-176.856802
  0
LINE
  8
WHITE
  6
CONTINUOUS
  5
7F
 10
44.519621
 20
239.63329
 30
0.0
 11
44.519621
 21
237.877195
 31
0.0
  0
LINE
  8
WHITE
  6
CONTINUOUS
  5
80
 10
44.519621
 20
237.877195
 30
0.0
 11
43.20219
 21
237.502412
 31
0.0
  0
LINE
  8
WHITE
  6
CONTINUOUS
  5
81
 10
43.20219
 20
237.502412
 30
0.0
 11
41.936936
 21
240.210895
 31
0.0
  0
ARC
  8
WHITE
  6
CONTINUOUS
  5
82
 10
35.123241
 20
238.244009
 30
0.0
 40
7.091902
 50
16.101661
 51
111.720101
  0
ARC
  8
WHITE
  6
CONTINUOUS
  5
83
 10
36.297108
 20
243.093474
 30
0.0
 40
4.177516
 50
155.401281
 51
174.184188
  0
LINE
  8
WHITE
  6
CONTINUOUS
  5
84
 10
32.141094
 20
243.516785
 30
0.0
 11
32.820974
 21
243.202973
 31
0.0
  0
ARC
  8
WHITE
  6
CONTINUOUS
  5
85
 10
35.003611
 20
236.147307
 30
0.0
 40
7.385548
 50
9.542366
 51
107.189201
  0
ARC
  8
WHITE
  6
CONTINUOUS
  5
86
 10
42.06121
 20
237.306397
 30
0.0
 40
0.235001
 50
-137.234402
 51
16.123795
  0
ARC
  8
WHITE
  6
CONTINUOUS
  5
87
 10
34.935732
 20
232.246645
 30
0.0
 40
8.506198
 50
35.174766
 51
113.531097
  0
LINE
  8
WHITE
  6
CONTINUOUS
  5
88
 10
31.53966
 20
240.045498
 30
0.0
 11
31.513511
 21
239.077994
 31
0.0
  0
LINE
  8
WHITE
  6
CONTINUOUS
  5
89
 10
31.513511
 20
239.077994
 30
0.0
 11
30.415249
 21
238.110418
 31
0.0
  0
LINE
  8
WHITE
  6
CONTINUOUS
  5
8A
 10
30.415249
 20
238.110418
 30
0.0
 11
30.624442
 21
237.63971
 31
0.0
  0
ARC
  8
WHITE
  6
CONTINUOUS
  5
8B
 10
31.254618
 20
239.053523
 30
0.0
 40
1.547898
 50
-114.023889
 51
-52.664386
  0
ARC
  8
WHITE
  6
CONTINUOUS
  5
8C
 10
36.237639
 20
233.773504
 30
0.0
 40
5.722996
 50
24.01983
 51
134.964301
  0
ARC
  8
WHITE
  6
CONTINUOUS
  5
8D
 10
50.094853
 20
223.998004
 30
0.0
 40
14.866271
 50
125.485398
 51
137.934006
  0
ARC
  8
WHITE
  6
CONTINUOUS
  5
8E
 10
38.110259
 20
232.617626
 30
0.0
 40
1.642055
 50
5.958008
 51
54.725974
  0
ARC
  8
WHITE
  6
CONTINUOUS
  5
8F
 10
37.391025
 20
230.964266
 30
0.0
 40
2.976599
 50
37.786034
 51
-148.117321
  0
ARC
  8
WHITE
  6
CONTINUOUS
  5
90
 10
39.705224
 20
219.079811
 30
0.0
 40
11.39233
 50
115.150569
 51
151.998205
  0
LINE
  8
WHITE
  6
CONTINUOUS
  5
91
 10
29.646561
 20
224.428501
 30
0.0
 11
33.324801
 21
222.983482
 31
0.0
  0
ARC
  8
WHITE
  6
CONTINUOUS
  5
92
 10
33.284585
 20
222.609
 30
0.0
 40
0.376635
 50
-116.856184
 51
83.870405
  0
LINE
  8
WHITE
  6
CONTINUOUS
  5
93
 10
33.114439
 20
222.272988
 30
0.0
 11
25.787252
 21
225.010684
 31
0.0
  0
ARC
  8
WHITE
  6
CONTINUOUS
  5
94
 10
23.673597
 20
217.531592
 30
0.0
 40
7.772024
 50
74.219255
 51
160.080225
  0
ARC
  8
WHITE
  6
CONTINUOUS
  5
95
 10
28.364339
 20
214.805905
 30
0.0
 40
13.1462
 50
155.873005
 51
-118.374796
  0
ARC
  8
WHITE
  6
CONTINUOUS
  5
96
 10
27.779595
 20
216.5709
 30
0.0
 40
14.484609
 50
-113.01389
 51
-23.30342
  0
ARC
  8
WHITE
  6
CONTINUOUS
  5
97
 10
41.510976
 20
210.689046
 30
0.0
 40
0.454466
 50
-19.504618
 51
160.495382
  0
ARC
  8
WHITE
  6
CONTINUOUS
  5
98
 10
27.779611
 20
216.570937
 30
0.0
 40
15.391661
 50
-112.043898
 51
-23.079402
  0
LINE
  8
WHITE
  6
CONTINUOUS
  5
99
 10
22.002861
 20
202.304459
 30
0.0
 11
18.759623
 21
199.844439
 31
0.0
  0
LINE
  8
WHITE
  6
CONTINUOUS
  5
9A
 10
18.759623
 20
199.844439
 30
0.0
 11
18.184665
 21
199.35665
 31
0.0
  0
ARC
  8
WHITE
  6
CONTINUOUS
  5
9B
 10
25.69749
 20
207.869141
 30
0.0
 40
11.353635
 50
-149.521305
 51
-131.430494
  0
ARC
  8
WHITE
  6
CONTINUOUS
  5
9C
 10
19.084169
 20
201.316718
 30
0.0
 40
3.269243
 50
165.950256
 51
-130.249736
  0
ARC
  8
WHITE
  6
CONTINUOUS
  5
9D
 10
17.577679
 20
202.098408
 30
0.0
 40
3.332425
 50
-154.649279
 51
-100.474614
  0
ARC
  8
WHITE
  6
CONTINUOUS
  5
9E
 10
19.211418
 20
200.570582
 30
0.0
 40
4.646366
 50
178.754194
 51
-103.970309
  0
ARC
  8
WHITE
  6
CONTINUOUS
  5
9F
 10
15.107641
 20
196.144956
 30
0.0
 40
2.983219
 50
-63.17779
 51
-1.600165
  0
ARC
  8
WHITE
  6
CONTINUOUS
  5
A0
 10
18.926128
 20
191.92375
 30
0.0
 40
2.922844
 50
147.7668
 51
-100.507198
  0
ARC
  8
WHITE
  6
CONTINUOUS
  5
A1
 10
18.275294
 20
188.819968
 30
0.0
 40
0.258378
 50
-81.520504
 51
62.869175
  0
ARC
  8
WHITE
  6
CONTINUOUS
  5
A2
 10
18.611969
 20
191.716408
 30
0.0
 40
3.166103
 50
170.642466
 51
-95.411245
  0
ARC
  8
WHITE
  6
CONTINUOUS
  5
A3
 10
28.726898
 20
183.014871
 30
0.0
 40
16.131001
 50
145.156097
 51
169.484497
  0
ARC
  8
WHITE
  6
CONTINUOUS
  5
A4
 10
10.447867
 20
179.317752
 30
0.0
 40
7.067874
 50
69.986323
 51
99.283486
  0
ARC
  8
WHITE
  6
CONTINUOUS
  5
A5
 10
11.619108
 20
177.185794
 30
0.0
 40
9.396003
 50
104.240998
 51
126.609389
  0
LINE
  8
WHITE
  6
CONTINUOUS
  5
A6
 10
6.015742
 20
184.72815
 30
0.0
 11
2.433784
 21
182.050806
 31
0.0
  0
ARC
  8
WHITE
  6
CONTINUOUS
  5
A7
 10
4.632035
 20
179.647332
 30
0.0
 40
3.257145
 50
132.446466
 51
-72.714848
  0
LINE
  8
WHITE
  6
CONTINUOUS
  5
A8
 10
5.599822
 20
176.537286
 30
0.0
 11
10.813402
 21
179.125004
 31
0.0
  0
LINE
  8
WHITE
  6
CONTINUOUS
  5
A9
 10
10.813402
 20
179.125004
 30
0.0
 11
7.652113
 21
172.12181
 31
0.0
  0
ARC
  8
WHITE
  6
CONTINUOUS
  5
AA
 10
10.157023
 20
171.251708
 30
0.0
 40
2.651726
 50
160.84489
 51
-74.996708
  0
ARC
  8
WHITE
  6
CONTINUOUS
  5
AB
 10
5.105042
 20
183.821604
 30
0.0
 40
16.182825
 50
-69.231009
 51
-31.256523
  0
ARC
  8
WHITE
  6
CONTINUOUS
  5
AC
 10
16.22668
 20
176.733314
 30
0.0
 40
3.011431
 50
-25.754212
 51
27.768743
  0
ARC
  8
WHITE
  6
CONTINUOUS
  5
AD
 10
13.686089
 20
174.193631
 30
0.0
 40
6.529874
 50
37.142344
 51
98.877002
  0
LINE
  8
WHITE
  6
CONTINUOUS
  5
AE
 10
12.678439
 20
180.645289
 30
0.0
 11
17.569203
 21
185.317284
 31
0.0
  0
ARC
  8
WHITE
  6
CONTINUOUS
  5
AF
 10
16.729529
 20
187.456336
 30
0.0
 40
2.297954
 50
171.883048
 51
-68.567763
  0
ARC
  8
WHITE
  6
CONTINUOUS
  5
B0
 10
14.651119
 20
187.793406
 30
0.0
 40
0.196927
 50
-13.199311
 51
-176.327808
  0
ARC
  8
WHITE
  6
CONTINUOUS
  5
B1
 10
16.897865
 20
187.661847
 30
0.0
 40
2.056845
 50
177.587152
 51
-62.369886
  0
LINE
  8
WHITE
  6
CONTINUOUS
  5
B2
 10
17.851751
 20
185.839565
 30
0.0
 11
19.285221
 21
186.807202
 31
0.0
  0
ARC
  8
WHITE
  6
CONTINUOUS
  5
B3
 10
20.099106
 20
187.57745
 30
0.0
 40
1.120576
 50
136.577912
 51
-136.577912
  0
LINE
  8
WHITE
  6
CONTINUOUS
  5
B4
 10
19.285221
 20
188.347697
 30
0.0
 11
22.588641
 21
190.915212
 31
0.0
  0
ARC
  8
WHITE
  6
CONTINUOUS
  5
B5
 10
21.749378
 20
194.000162
 30
0.0
 40
3.197073
 50
-130.580395
 51
-74.780965
  0
LINE
  8
WHITE
  6
CONTINUOUS
  5
B6
 10
19.669637
 20
191.572005
 30
0.0
 11
18.93794
 21
190.453733
 31
0.0
  0
ARC
  8
WHITE
  6
CONTINUOUS
  5
B7
 10
18.787545
 20
190.557279
 30
0.0
 40
0.182594
 50
159.252128
 51
-34.547198
  0
LINE
  8
WHITE
  6
CONTINUOUS
  5
B8
 10
18.616793
 20
190.621964
 30
0.0
 11
19.40542
 21
191.825852
 31
0.0
  0
ARC
  8
WHITE
  6
CONTINUOUS
  5
B9
 10
21.74945
 20
194.000085
 30
0.0
 40
3.197149
 50
174.03047
 51
-137.15217
  0
ARC
  8
WHITE
  6
CONTINUOUS
  5
BA
 10
18.786671
 20
194.292065
 30
0.0
 40
0.220784
 50
9.047414
 51
169.424189
  0
ARC
  8
WHITE
  6
CONTINUOUS
  5
BB
 10
21.294971
 20
193.920635
 30
0.0
 40
2.325994
 50
169.943862
 51
-43.788309
  0
LINE
  8
WHITE
  6
CONTINUOUS
  5
BC
 10
22.974109
 20
192.311057
 30
0.0
 11
25.892043
 21
196.050195
 31
0.0
  0
ARC
  8
WHITE
  6
CONTINUOUS
  5
BD
 10
29.37982
 20
195.900215
 30
0.0
 40
3.491
 50
94.206628
 51
177.53771
  0
ARC
  8
WHITE
  6
CONTINUOUS
  5
BE
 10
30.860011
 20
195.729049
 30
0.0
 40
4.044415
 50
115.423163
 51
169.890513
  0
LINE
  8
WHITE
  6
CONTINUOUS
  5
BF
 10
26.878389
 20
196.438964
 30
0.0
 11
27.84282
 21
196.435527
 31
0.0
  0
ARC
  8
WHITE
  6
CONTINUOUS
  5
C0
 10
33.972534
 20
193.605317
 30
0.0
 40
6.751554
 50
119.62167
 51
155.216293
  0
ARC
  8
WHITE
  6
CONTINUOUS
  5
C1
 10
51.796804
 20
183.490954
 30
0.0
 40
26.519371
 50
142.935622
 51
-162.331593
  0
ARC
  8
WHITE
  6
CONTINUOUS
  5
C2
 10
34.957252
 20
171.377717
 30
0.0
 40
9.357633
 50
136.540668
 51
154.256628
  0
ARC
  8
WHITE
  6
CONTINUOUS
  5
C3
 10
28.659809
 20
177.390577
 30
0.0
 40
0.6515
 50
-38.026981
 51
139.433593
  0
ARC
  8
WHITE
  6
CONTINUOUS
  5
C4
 10
34.957241
 20
171.377693
 30
0.0
 40
8.058951
 50
135.868201
 51
-116.523913
  0
ARC
  8
WHITE
  6
CONTINUOUS
  5
C5
 10
31.118301
 20
163.591056
 30
0.0
 40
0.623929
 50
-99.07588
 51
67.373116
  0
ARC
  8
WHITE
  6
CONTINUOUS
  5
C6
 10
34.145172
 20
170.403213
 30
0.0
 40
8.058951
 50
-144.391489
 51
-112.817907
  0
ARC
  8
WHITE
  6
CONTINUOUS
  5
C7
 10
39.008809
 20
162.194513
 30
0.0
 40
11.945
 50
162.879359
 51
-137.704803
  0
ARC
  8
WHITE
  6
CONTINUOUS
  5
C8
 10
66.076308
 20
148.584753
 30
0.0
 40
36.332772
 50
163.017046
 51
171.179308
  0
ARC
  8
WHITE
  6
CONTINUOUS
  5
C9
 10
32.018401
 20
159.175325
 30
0.0
 40
0.6908
 50
-33.695799
 51
178.194402
  0
ARC
  8
WHITE
  6
CONTINUOUS
  5
CA
 10
72.516898
 20
147.262357
 30
0.0
 40
41.555273
 50
163.891623
 51
-131.356196
  0
ARC
  8
WHITE
  6
CONTINUOUS
  5
CB
 10
82.00957
 20
102.833596
 30
0.0
 40
39.2492
 50
160.290743
 51
177.714743
  0
ARC
  8
WHITE
  6
CONTINUOUS
  5
CC
 10
48.447421
 20
104.320934
 30
0.0
 40
5.65637
 50
179.2128
 51
-109.251295
  0
ARC
  8
WHITE
  6
CONTINUOUS
  5
CD
 10
49.449719
 20
131.696528
 30
0.0
 40
6.196346
 50
41.887341
 51
147.639994
  0
ARC
  8
WHITE
  6
CONTINUOUS
  5
CE
 10
44.647241
 20
134.768676
 30
0.0
 40
0.495966
 50
150.481122
 51
-32.876707
  0
ARC
  8
WHITE
  6
CONTINUOUS
  5
CF
 10
49.307123
 20
131.014052
 30
0.0
 40
5.491268
 50
39.410283
 51
140.601044
  0
ARC
  8
WHITE
  6
CONTINUOUS
  5
D0
 10
14.915336
 20
89.331972
 30
0.0
 40
59.437341
 50
-1.698126
 51
49.458173
  0
ARC
  8
WHITE
  6
CONTINUOUS
  5
D1
 10
74.994132
 20
87.718749
 30
0.0
 40
0.683793
 50
-167.490013
 51
-12.525792
  0
ARC
  8
WHITE
  6
CONTINUOUS
  5
D2
 10
15.660421
 20
89.683012
 30
0.0
 40
60.038408
 50
-2.016475
 51
50.235942
  0
ARC
  8
WHITE
  6
CONTINUOUS
  5
D3
 10
61.24243
 20
275.876897
 30
0.0
 40
3.817974
 50
34.699116
 51
167.852937
  0
ARC
  8
WHITE
  6
CONTINUOUS
  5
D4
 10
57.829846
 20
276.48201
 30
0.0
 40
0.376368
 50
148.210407
 51
-6.017206
  0
ARC
  8
WHITE
  6
CONTINUOUS
  5
D5
 10
61.228246
 20
275.784595
 30
0.0
 40
3.094855
 50
34.785724
 51
167.725329
  0
ARC
  8
WHITE
  6
CONTINUOUS
  5
D6
 10
53.922357
 20
271.742909
 30
0.0
 40
11.43248
 50
-30.752107
 51
30.528542
  0
ARC
  8
WHITE
  6
CONTINUOUS
  5
D7
 10
64.269872
 20
265.553015
 30
0.0
 40
0.625744
 50
146.630231
 51
-88.133731
  0
LINE
  8
WHITE
  6
CONTINUOUS
  5
D8
 10
64.29025
 20
264.927603
 30
0.0
 11
65.697928
 21
265.855381
 31
0.0
  0
ARC
  8
WHITE
  6
CONTINUOUS
  5
D9
 10
65.808006
 20
265.688422
 30
0.0
 40
0.199981
 50
1.786519
 51
123.397367
  0
LINE
  8
WHITE
  6
CONTINUOUS
  5
DA
 10
66.007889
 20
265.694657
 30
0.0
 11
66.229412
 21
258.606017
 31
0.0
  0
ARC
  8
WHITE
  6
CONTINUOUS
  5
DB
 10
67.112897
 20
258.467193
 30
0.0
 40
0.894325
 50
171.070002
 51
3.411546
  0
LINE
  8
WHITE
  6
CONTINUOUS
  5
DC
 10
68.005636
 20
258.520412
 30
0.0
 11
70.318467
 21
271.8192
 31
0.0
  0
ARC
  8
WHITE
  6
CONTINUOUS
  5
DD
 10
70.607572
 20
271.852689
 30
0.0
 40
0.291038
 50
-6.607514
 51
-173.392498
  0
ARC
  8
WHITE
  6
CONTINUOUS
  5
DE
 10
-32.278838
 20
256.465456
 30
0.0
 40
104.311669
 50
-1.809341
 51
8.464179
  0
ARC
  8
WHITE
  6
CONTINUOUS
  5
DF
 10
72.344803
 20
253.206298
 30
0.0
 40
0.365596
 50
-174.608996
 51
-6.8422
  0
ARC
  8
WHITE
  6
CONTINUOUS
  5
E0
 10
-29.100083
 20
259.9274
 30
0.0
 40
102.032371
 50
-3.801449
 51
6.778433
  0
ARC
  8
WHITE
  6
CONTINUOUS
  5
E1
 10
70.690834
 20
271.811329
 30
0.0
 40
1.536491
 50
5.938661
 51
88.850958
  0
LINE
  8
WHITE
  6
CONTINUOUS
  5
E2
 10
70.721646
 20
273.347511
 30
0.0
 11
73.064959
 21
286.924892
 31
0.0
  0
ARC
  8
WHITE
  6
CONTINUOUS
  5
E3
 10
72.668699
 20
287.00409
 30
0.0
 40
0.404097
 50
-11.30249
 51
170.693612
  0
LINE
  8
WHITE
  6
CONTINUOUS
  5
E4
 10
72.269921
 20
287.069438
 30
0.0
 11
69.641673
 21
272.933704
 31
0.0
  0
ARC
  8
WHITE
  6
CONTINUOUS
  5
E5
 10
70.690832
 20
271.811354
 30
0.0
 40
1.536361
 50
133.069562
 51
174.306255
  0
LINE
  8
WHITE
  6
CONTINUOUS
  5
E6
 10
69.162051
 20
271.963778
 30
0.0
 11
67.315344
 21
260.777808
 31
0.0
  0
LINE
  8
WHITE
  6
CONTINUOUS
  5
E7
 10
67.315344
 20
260.777808
 30
0.0
 11
66.968367
 21
267.54534
 31
0.0
  0
ARC
  8
WHITE
  6
CONTINUOUS
  5
E8
 10
66.768629
 20
267.535099
 30
0.0
 40
0.2
 50
2.935033
 51
129.218798
  0
LINE
  8
WHITE
  6
CONTINUOUS
  5
E9
 10
66.642172
 20
267.690046
 30
0.0
 11
65.060539
 21
266.399292
 31
0.0
  0
ARC
  8
WHITE
  6
CONTINUOUS
  5
EA
 10
54.266669
 20
271.615426
 30
0.0
 40
11.988148
 50
-25.792142
 51
32.464244
  0
ARC
  8
WHITE
  6
CONTINUOUS
  5
EB
 10
90.195621
 20
260.557691
 30
0.0
 40
0.499997
 50
4.044909
 51
148.475606
  0
ARC
  8
WHITE
  6
CONTINUOUS
  5
EC
 10
127.454006
 20
237.703902
 30
0.0
 40
44.209071
 50
148.475611
 51
-164.472989
  0
ARC
  8
WHITE
  6
CONTINUOUS
  5
ED
 10
84.222148
 20
225.676801
 30
0.0
 40
0.664753
 50
-156.228107
 51
16.847085
  0
ARC
  8
WHITE
  6
CONTINUOUS
  5
EE
 10
126.264498
 20
237.043211
 30
0.0
 40
44.209061
 50
145.085869
 51
-164.741931
  0
ARC
  8
WHITE
  6
CONTINUOUS
  5
EF
 10
120.371795
 20
265.664404
 30
0.0
 40
30.540002
 50
137.968197
 51
-173.762409
  0
ARC
  8
WHITE
  6
CONTINUOUS
  5
F0
 10
99.585017
 20
283.6862
 30
0.0
 40
3.079982
 50
5.976034
 51
128.03054
  0
ARC
  8
WHITE
  6
CONTINUOUS
  5
F1
 10
102.299618
 20
283.981988
 30
0.0
 40
0.349529
 50
-175.877459
 51
4.081354
  0
ARC
  8
WHITE
  6
CONTINUOUS
  5
F2
 10
99.690972
 20
283.518499
 30
0.0
 40
2.299257
 50
10.985622
 51
126.773708
  0
ARC
  8
WHITE
  6
CONTINUOUS
  5
F3
 10
118.198325
 20
266.725474
 30
0.0
 40
27.251052
 50
136.857326
 51
-172.157402
  0
LINE
  8
WHITE
  6
CONTINUOUS
  5
F4
 10
91.20216
 20
263.00701
 30
0.0
 11
92.331428
 21
248.40819
 31
0.0
  0
ARC
  8
WHITE
  6
CONTINUOUS
  5
F5
 10
91.946313
 20
248.378658
 30
0.0
 40
0.386246
 50
-175.614969
 51
4.385031
  0
LINE
  8
WHITE
  6
CONTINUOUS
  5
F6
 10
91.561198
 20
248.349126
 30
0.0
 11
90.694373
 21
260.59296
 31
0.0
  0
ARC
  8
WHITE
  6
CONTINUOUS
  5
F7
 10
60.409373
 20
204.177553
 30
0.0
 40
65.668194
 50
-79.710492
 51
-40.844115
  0
ARC
  8
WHITE
  6
CONTINUOUS
  5
F8
 10
109.640644
 20
161.631895
 30
0.0
 40
0.600265
 50
-41.98703
 51
138.01297
  0
ARC
  8
WHITE
  6
CONTINUOUS
  5
F9
 10
62.045444
 20
201.383493
 30
0.0
 40
61.412185
 50
-80.602998
 51
-39.847994
  0
ARC
  8
WHITE
  6
CONTINUOUS
  5
FA
 10
74.516994
 20
155.040859
 30
0.0
 40
14.45366
 50
-142.175965
 51
-99.737113
  0
ARC
  8
WHITE
  6
CONTINUOUS
  5
FB
 10
62.340641
 20
146.10202
 30
0.0
 40
0.763162
 50
5.662372
 51
172.641005
  0
ARC
  8
WHITE
  6
CONTINUOUS
  5
FC
 10
53.613031
 20
148.195872
 30
0.0
 40
8.216874
 50
-54.736006
 51
-14.059367
  0
ARC
  8
WHITE
  6
CONTINUOUS
  5
FD
 10
58.806549
 20
141.129649
 30
0.0
 40
0.574148
 50
141.534916
 51
-49.714291
  0
ARC
  8
WHITE
  6
CONTINUOUS
  5
FE
 10
55.800264
 20
146.715705
 30
0.0
 40
6.906278
 50
-60.721711
 51
-13.314607
  0
ARC
  8
WHITE
  6
CONTINUOUS
  5
FF
 10
74.114629
 20
154.08254
 30
0.0
 40
14.650883
 50
-142.310256
 51
-97.74915
  0
ARC
  8
WHITE
  6
CONTINUOUS
  5
100
 10
120.10351
 20
229.441398
 30
0.0
 40
14.547869
 50
28.292887
 51
-175.204602
  0
ARC
  8
WHITE
  6
CONTINUOUS
  5
101
 10
105.202825
 20
228.276271
 30
0.0
 40
0.406954
 50
-174.211272
 51
-7.205359
  0
ARC
  8
WHITE
  6
CONTINUOUS
  5
102
 10
101.774032
 20
227.723406
 30
0.0
 40
3.066923
 50
9.60668
 51
173.341637
  0
ARC
  8
WHITE
  6
CONTINUOUS
  5
103
 10
98.323419
 20
228.101387
 30
0.0
 40
0.404995
 50
-176.384996
 51
-3.166998
  0
ARC
  8
WHITE
  6
CONTINUOUS
  5
104
 10
85.575924
 20
227.130395
 30
0.0
 40
12.379462
 50
4.380114
 51
33.807544
  0
ARC
  8
WHITE
  6
CONTINUOUS
  5
105
 10
95.446706
 20
233.74019
 30
0.0
 40
0.5
 50
33.807521
 51
121.697399
  0
ARC
  8
WHITE
  6
CONTINUOUS
  5
106
 10
103.786722
 20
220.235184
 30
0.0
 40
16.372651
 50
121.697403
 51
-171.749845
  0
ARC
  8
WHITE
  6
CONTINUOUS
  5
107
 10
87.110393
 20
217.849397
 30
0.0
 40
0.474516
 50
175.601392
 51
4.398127
  0
ARC
  8
WHITE
  6
CONTINUOUS
  5
108
 10
105.050018
 20
219.752905
 30
0.0
 40
18.507164
 50
122.682829
 51
-174.209802
  0
ARC
  8
WHITE
  6
CONTINUOUS
  5
109
 10
95.596339
 20
234.488195
 30
0.0
 40
1.0
 50
35.963381
 51
122.681605
  0
ARC
  8
WHITE
  6
CONTINUOUS
  5
10A
 10
86.970282
 20
228.229105
 30
0.0
 40
11.65763
 50
5.900895
 51
35.964621
  0
ARC
  8
WHITE
  6
CONTINUOUS
  5
10B
 10
101.754085
 20
228.244208
 30
0.0
 40
3.400502
 50
29.934032
 51
159.634599
  0
ARC
  8
WHITE
  6
CONTINUOUS
  5
10C
 10
120.103518
 20
229.441651
 30
0.0
 40
15.410651
 50
28.660334
 51
178.142878
  0
ARC
  8
WHITE
  6
CONTINUOUS
  5
10D
 10
133.181394
 20
236.711714
 30
0.0
 40
0.460843
 50
-125.552798
 51
15.239395
  0
ARC
  8
WHITE
  6
CONTINUOUS
  5
10E
 10
51.850219
 20
131.252885
 30
0.0
 40
10.67623
 50
49.657155
 51
-178.263145
  0
ARC
  8
WHITE
  6
CONTINUOUS
  5
10F
 10
90.686398
 20
139.181415
 30
0.0
 40
50.190541
 50
-170.536701
 51
-141.419697
  0
ARC
  8
WHITE
  6
CONTINUOUS
  5
110
 10
51.932929
 20
108.228161
 30
0.0
 40
0.593582
 50
-144.331501
 51
29.745081
  0
ARC
  8
WHITE
  6
CONTINUOUS
  5
111
 10
87.312822
 20
137.637681
 30
0.0
 40
45.422672
 50
-171.675583
 51
-140.135075
  0
ARC
  8
WHITE
  6
CONTINUOUS
  5
112
 10
51.620456
 20
131.713315
 30
0.0
 40
9.274675
 50
47.918827
 51
-175.969882
  0
ARC
  8
WHITE
  6
CONTINUOUS
  5
113
 10
21.482552
 20
96.037288
 30
0.0
 40
55.972407
 50
40.611421
 51
49.49669
  0
ARC
  8
WHITE
  6
CONTINUOUS
  5
114
 10
64.408199
 20
132.863717
 30
0.0
 40
0.585694
 50
-137.913927
 51
24.400021
  0
ARC
  8
WHITE
  6
CONTINUOUS
  5
115
 10
21.137754
 20
96.210925
 30
0.0
 40
57.27126
 50
40.106504
 51
48.933022
  0
ARC
  8
WHITE
  6
CONTINUOUS
  5
116
 10
95.141055
 20
161.366813
 30
0.0
 40
17.60767
 50
26.955283
 51
101.975728
  0
ARC
  8
WHITE
  6
CONTINUOUS
  5
117
 10
91.570285
 20
178.130011
 30
0.0
 40
0.46862
 50
100.173751
 51
-73.376054
  0
ARC
  8
WHITE
  6
CONTINUOUS
  5
118
 10
95.198416
 20
161.884002
 30
0.0
 40
16.17878
 50
24.41739
 51
102.472199
  0
ARC
  8
WHITE
  6
CONTINUOUS
  5
119
 10
197.382029
 20
197.573042
 30
0.0
 40
92.135193
 50
-161.653301
 51
-143.494397
  0
ARC
  8
WHITE
  6
CONTINUOUS
  5
11A
 10
123.856345
 20
143.035843
 30
0.0
 40
0.5989
 50
-152.75685
 51
36.447269
  0
ARC
  8
WHITE
  6
CONTINUOUS
  5
11B
 10
198.287744
 20
198.349304
 30
0.0
 40
92.135201
 50
-161.653316
 51
-143.381122
  0
ARC
  8
WHITE
  6
CONTINUOUS
  5
11C
 10
100.475475
 20
134.314115
 30
0.0
 40
24.207936
 50
-111.794713
 51
3.587237
  0
ARC
  8
WHITE
  6
CONTINUOUS
  5
11D
 10
124.119108
 20
135.7206
 30
0.0
 40
0.528068
 50
11.81936
 51
169.093401
  0
ARC
  8
WHITE
  6
CONTINUOUS
  5
11E
 10
100.692243
 20
133.930875
 30
0.0
 40
22.986139
 50
-111.396338
 51
4.715481
  0
LINE
  8
WHITE
  6
CONTINUOUS
  5
11F
 10
92.306502
 20
112.52896
 30
0.0
 11
91.83915
 21
118.555409
 31
0.0
  0
LINE
  8
WHITE
  6
CONTINUOUS
  5
120
 10
91.83915
 20
118.555409
 30
0.0
 11
90.102482
 21
114.70453
 31
0.0
  0
LINE
  8
WHITE
  6
CONTINUOUS
  5
121
 10
90.102482
 20
114.70453
 30
0.0
 11
87.98827
 21
119.813859
 31
0.0
  0
LINE
  8
WHITE
  6
CONTINUOUS
  5
122
 10
87.98827
 20
119.813859
 30
0.0
 11
87.070671
 21
112.944236
 31
0.0
  0
ARC
  8
WHITE
  6
CONTINUOUS
  5
123
 10
87.401824
 20
112.986417
 30
0.0
 40
0.333829
 50
-172.740912
 51
-21.596351
  0
LINE
  8
WHITE
  6
CONTINUOUS
  5
124
 10
87.712221
 20
112.863545
 30
0.0
 11
88.184128
 21
118.512025
 31
0.0
  0
LINE
  8
WHITE
  6
CONTINUOUS
  5
125
 10
88.184128
 20
118.512025
 30
0.0
 11
90.071773
 21
112.350058
 31
0.0
  0
LINE
  8
WHITE
  6
CONTINUOUS
  5
126
 10
90.071773
 20
112.350058
 30
0.0
 11
91.4875
 21
116.971542
 31
0.0
  0
LINE
  8
WHITE
  6
CONTINUOUS
  5
127
 10
91.4875
 20
116.971542
 30
0.0
 11
91.4875
 21
111.83656
 31
0.0
  0
ARC
  8
WHITE
  6
CONTINUOUS
  5
128
 10
52.991595
 20
229.278145
 30
0.0
 40
74.585206
 50
-78.726264
 51
-49.499832
  0
ARC
  8
WHITE
  6
CONTINUOUS
  5
129
 10
101.064159
 20
172.962942
 30
0.0
 40
0.542503
 50
-47.455684
 51
132.544316
  0
ARC
  8
WHITE
  6
CONTINUOUS
  5
12A
 10
52.366765
 20
230.170398
 30
0.0
 40
74.585297
 50
-78.726117
 51
-49.609724
  0
ARC
  8
WHITE
  6
CONTINUOUS
  5
12B
 10
660.794443
 20
-183.220405
 30
0.0
 40
684.412093
 50
150.189414
 51
150.831468
  0
ARC
  8
WHITE
  6
CONTINUOUS
  5
12C
 10
63.681187
 20
150.209897
 30
0.0
 40
0.527009
 50
164.755809
 51
-32.269292
  0
ARC
  8
WHITE
  6
CONTINUOUS
  5
12D
 10
203.380222
 20
76.63519
 30
0.0
 40
157.364002
 50
149.656795
 51
152.240795
  0
CIRCLE
  8
WHITE
  6
CONTINUOUS
  5
12E
 10
54.206636
 20
148.294994
 30
0.0
 40
3.88601
  0
ARC
  8
WHITE
  6
CONTINUOUS
  5
12F
 10
35.433974
 20
80.655489
 30
0.0
 40
30.338372
 50
17.325929
 51
49.033506
  0
ARC
  8
WHITE
  6
CONTINUOUS
  5
130
 10
90.686398
 20
139.181415
 30
0.0
 40
50.190541
 50
-138.58824
 51
-134.793696
  0
ARC
  8
WHITE
  6
CONTINUOUS
  5
131
 10
53.654416
 20
106.250346
 30
0.0
 40
0.666087
 50
68.629803
 51
-156.2509
  0
ARC
  8
WHITE
  6
CONTINUOUS
  5
132
 10
87.31278
 20
137.637732
 30
0.0
 40
45.422677
 50
-137.363014
 51
-133.375437
  0
ARC
  8
WHITE
  6
CONTINUOUS
  5
133
 10
30.298257
 20
77.388211
 30
0.0
 40
37.5271
 50
19.795705
 51
46.526581
  0
ARC
  8
WHITE
  6
CONTINUOUS
  5
134
 10
72.466241
 20
91.868387
 30
0.0
 40
7.083461
 50
-165.521607
 51
-4.232303
  0
ARC
  8
WHITE
  6
CONTINUOUS
  5
135
 10
80.065801
 20
91.27844
 30
0.0
 40
0.539614
 50
7.152938
 51
172.847869
  0
ARC
  8
WHITE
  6
CONTINUOUS
  5
136
 10
72.340134
 20
92.068538
 30
0.0
 40
8.292649
 50
-163.3354
 51
-5.001071
  0
ARC
  8
WHITE
  6
CONTINUOUS
  5
137
 10
75.259915
 20
267.791112
 30
0.0
 40
0.349896
 50
-0.866171
 51
-174.554105
  0
LINE
  8
WHITE
  6
CONTINUOUS
  5
138
 10
74.911598
 20
267.757905
 30
0.0
 11
74.283009
 21
246.5255
 31
0.0
  0
ARC
  8
WHITE
  6
CONTINUOUS
  5
139
 10
74.78279
 20
246.510704
 30
0.0
 40
0.5
 50
178.304207
 51
-27.962181
  0
LINE
  8
WHITE
  6
CONTINUOUS
  5
13A
 10
75.224419
 20
246.27626
 30
0.0
 11
77.242612
 21
250.077986
 31
0.0
  0
ARC
  8
WHITE
  6
CONTINUOUS
  5
13B
 10
77.419263
 20
249.984208
 30
0.0
 40
0.2
 50
6.977622
 51
152.037807
  0
LINE
  8
WHITE
  6
CONTINUOUS
  5
13C
 10
77.617779
 20
250.008504
 30
0.0
 11
80.699471
 21
224.828815
 31
0.0
  0
ARC
  8
WHITE
  6
CONTINUOUS
  5
13D
 10
81.117289
 20
224.968034
 30
0.0
 40
0.440402
 50
-161.571703
 51
3.916204
  0
LINE
  8
WHITE
  6
CONTINUOUS
  5
13E
 10
81.556662
 20
224.998112
 30
0.0
 11
78.287529
 21
252.240886
 31
0.0
  0
ARC
  8
WHITE
  6
CONTINUOUS
  5
13F
 10
77.791091
 20
252.181313
 30
0.0
 40
0.5
 50
6.842773
 51
154.632099
  0
LINE
  8
WHITE
  6
CONTINUOUS
  5
140
 10
77.339303
 20
252.395527
 30
0.0
 11
75.3813
 21
248.265999
 31
0.0
  0
ARC
  8
WHITE
  6
CONTINUOUS
  5
141
 10
75.200592
 20
248.351723
 30
0.0
 40
0.20001
 50
178.210481
 51
-25.378591
  0
LINE
  8
WHITE
  6
CONTINUOUS
  5
142
 10
75.00068
 20
248.357968
 30
0.0
 11
75.609771
 21
267.785823
 31
0.0
  0
ARC
  8
WHITE
  6
CONTINUOUS
  5
143
 10
169.602632
 20
221.462403
 30
0.0
 40
142.574994
 50
-131.332398
 51
-127.363908
  0
ARC
  8
WHITE
  6
CONTINUOUS
  5
144
 10
77.914401
 20
102.543732
 30
0.0
 40
7.61721
 50
-65.49788
 51
47.327584
  0
ARC
  8
WHITE
  6
CONTINUOUS
  5
145
 10
80.787741
 20
96.029301
 30
0.0
 40
0.505346
 50
111.661295
 51
-55.570004
  0
ARC
  8
WHITE
  6
CONTINUOUS
  5
146
 10
78.100593
 20
102.516272
 30
0.0
 40
6.516215
 50
-67.433686
 51
55.345577
  0
ARC
  8
WHITE
  6
CONTINUOUS
  5
147
 10
118.012207
 20
157.744886
 30
0.0
 40
61.625931
 50
-134.998456
 51
-125.981059
  0
ARC
  8
WHITE
  6
CONTINUOUS
  5
148
 10
21.482552
 20
96.037288
 30
0.0
 40
55.972405
 50
18.899863
 51
37.819999
  0
ARC
  8
WHITE
  6
CONTINUOUS
  5
149
 10
66.214165
 20
130.606155
 30
0.0
 40
0.57295
 50
42.045426
 51
-154.40169
  0
ARC
  8
WHITE
  6
CONTINUOUS
  5
14A
 10
21.13749
 20
96.211239
 30
0.0
 40
57.27128
 50
18.521593
 51
37.391739
  0
ARC
  8
WHITE
  6
CONTINUOUS
  5
14B
 10
59.328731
 20
227.494302
 30
0.0
 40
62.978339
 50
-91.255329
 51
-64.122069
  0
ARC
  8
WHITE
  6
CONTINUOUS
  5
14C
 10
82.715821
 20
175.943355
 30
0.0
 40
6.55338
 50
-51.269897
 51
4.008812
  0
ARC
  8
WHITE
  6
CONTINUOUS
  5
14D
 10
89.630974
 20
176.396119
 30
0.0
 40
0.377845
 50
5.426762
 51
179.183872
  0
ARC
  8
WHITE
  6
CONTINUOUS
  5
14E
 10
82.402742
 20
175.850183
 30
0.0
 40
7.626598
 50
-45.878441
 51
4.374121
  0
ARC
  8
WHITE
  6
CONTINUOUS
  5
14F
 10
59.039389
 20
228.266539
 30
0.0
 40
64.602834
 50
-73.438809
 51
-63.651311
  0
LINE
  8
WHITE
  6
CONTINUOUS
  5
150
 10
77.453728
 20
166.343697
 30
0.0
 11
78.390182
 21
162.598166
 31
0.0
  0
ARC
  8
WHITE
  6
CONTINUOUS
  5
151
 10
77.976939
 20
162.490203
 30
0.0
 40
0.427113
 50
-162.138788
 51
14.641704
  0
LINE
  8
WHITE
  6
CONTINUOUS
  5
152
 10
77.570414
 20
162.359203
 30
0.0
 11
76.541349
 21
166.079664
 31
0.0
  0
ARC
  8
WHITE
  6
CONTINUOUS
  5
153
 10
59.039395
 20
228.266515
 30
0.0
 40
64.602809
 50
-83.81531
 51
-74.281201
  0
LINE
  8
WHITE
  6
CONTINUOUS
  5
154
 10
65.999295
 20
164.039709
 30
0.0
 11
66.093144
 21
158.972867
 31
0.0
  0
ARC
  8
WHITE
  6
CONTINUOUS
  5
155
 10
65.646647
 20
158.946294
 30
0.0
 40
0.447287
 50
176.567653
 51
3.405906
  0
LINE
  8
WHITE
  6
CONTINUOUS
  5
156
 10
65.200163
 20
158.973073
 30
0.0
 11
65.022721
 21
163.941398
 31
0.0
  0
ARC
  8
WHITE
  6
CONTINUOUS
  5
157
 10
59.039271
 20
228.26648
 30
0.0
 40
64.60277
 50
-90.968291
 51
-84.6857
  0
ARC
  8
WHITE
  6
CONTINUOUS
  5
158
 10
57.867574
 20
164.102144
 30
0.0
 40
0.436595
 50
79.249934
 51
-79.445669
  0
ARC
  8
WHITE
  6
CONTINUOUS
  5
159
 10
88.438447
 20
193.699392
 30
0.0
 40
58.236647
 50
-173.203224
 51
-153.602699
  0
ARC
  8
WHITE
  6
CONTINUOUS
  5
15A
 10
59.039271
 20
228.26648
 30
0.0
 40
64.602725
 50
-110.63351
 51
-109.572131
  0
LINE
  8
WHITE
  6
CONTINUOUS
  5
15B
 10
37.39779
 20
167.396468
 30
0.0
 11
35.064485
 21
163.813189
 31
0.0
  0
ARC
  8
WHITE
  6
CONTINUOUS
  5
15C
 10
35.374031
 20
163.599626
 30
0.0
 40
0.376069
 50
145.397198
 51
-16.226626
  0
LINE
  8
WHITE
  6
CONTINUOUS
  5
15D
 10
35.735119
 20
163.494538
 30
0.0
 11
38.068963
 21
167.16199
 31
0.0
  0
ARC
  8
WHITE
  6
CONTINUOUS
  5
15E
 10
59.039361
 20
228.266449
 30
0.0
 40
64.602729
 50
-108.941673
 51
-101.334291
  0
LINE
  8
WHITE
  6
CONTINUOUS
  5
15F
 10
46.342793
 20
164.923654
 30
0.0
 11
45.829673
 21
159.450405
 31
0.0
  0
ARC
  8
WHITE
  6
CONTINUOUS
  5
160
 10
46.29107
 20
159.38166
 30
0.0
 40
0.46649
 50
171.525661
 51
-1.748201
  0
LINE
  8
WHITE
  6
CONTINUOUS
  5
161
 10
46.757346
 20
159.367429
 30
0.0
 11
47.318242
 21
164.735923
 31
0.0
  0
ARC
  8
WHITE
  6
CONTINUOUS
  5
162
 10
59.039455
 20
228.266446
 30
0.0
 40
64.602742
 50
-100.453369
 51
-93.829936
  0
ARC
  8
WHITE
  6
CONTINUOUS
  5
163
 10
54.843353
 20
164.234611
 30
0.0
 40
0.442929
 50
-105.592047
 51
92.336593
  0
ARC
  8
WHITE
  6
CONTINUOUS
  5
164
 10
59.328731
 20
227.494302
 30
0.0
 40
62.978351
 50
-110.992204
 51
-94.100588
  0
ARC
  8
WHITE
  6
CONTINUOUS
  5
165
 10
88.931841
 20
194.587409
 30
0.0
 40
58.236671
 50
-172.392725
 51
-153.602789
  0
ARC
  8
WHITE
  6
CONTINUOUS
  5
166
 10
30.911791
 20
186.82239
 30
0.0
 40
0.301097
 50
10.6252
 51
-177.107401
  0
LINE
  8
WHITE
  6
CONTINUOUS
  5
167
 10
74.179139
 20
193.454197
 30
0.0
 11
74.903688
 21
193.452671
 31
0.0
  0
ARC
  8
WHITE
  6
CONTINUOUS
  5
168
 10
80.479681
 20
192.064052
 30
0.0
 40
5.7463
 50
108.272386
 51
166.015795
  0
ARC
  8
WHITE
  6
CONTINUOUS
  5
169
 10
79.087941
 20
194.902444
 30
0.0
 40
2.65006
 50
45.375802
 51
98.898562
  0
ARC
  8
WHITE
  6
CONTINUOUS
  5
16A
 10
70.020163
 20
187.658822
 30
0.0
 40
14.24087
 50
1.898906
 51
39.873504
  0
ARC
  8
WHITE
  6
CONTINUOUS
  5
16B
 10
81.925002
 20
188.288071
 30
0.0
 40
2.33352
 50
-128.025002
 51
-3.86671
  0
LINE
  8
WHITE
  6
CONTINUOUS
  5
16C
 10
80.487541
 20
186.449859
 30
0.0
 11
75.555702
 21
191.075474
 31
0.0
  0
LINE
  8
WHITE
  6
CONTINUOUS
  5
16D
 10
75.555702
 20
191.075474
 30
0.0
 11
76.226664
 21
185.99761
 31
0.0
  0
ARC
  8
WHITE
  6
CONTINUOUS
  5
16E
 10
73.361474
 20
186.076869
 30
0.0
 40
2.866286
 50
-156.423795
 51
-1.584554
  0
LINE
  8
WHITE
  6
CONTINUOUS
  5
16F
 10
70.734441
 20
184.930445
 30
0.0
 11
69.524452
 21
188.675149
 31
0.0
  0
ARC
  8
WHITE
  6
CONTINUOUS
  5
170
 10
77.399769
 20
191.194241
 30
0.0
 40
8.2684
 50
175.369603
 51
-162.261989
  0
ARC
  8
WHITE
  6
CONTINUOUS
  5
171
 10
75.291439
 20
190.826251
 30
0.0
 40
6.219882
 50
141.119361
 51
170.416839
  0
LINE
  8
WHITE
  6
CONTINUOUS
  5
172
 10
70.449539
 20
194.730471
 30
0.0
 11
69.924135
 21
195.056723
 31
0.0
  0
ARC
  8
WHITE
  6
CONTINUOUS
  5
173
 10
75.437353
 20
190.660794
 30
0.0
 40
7.051224
 50
141.433118
 51
-156.221276
  0
LINE
  8
WHITE
  6
CONTINUOUS
  5
174
 10
68.984712
 20
187.817702
 30
0.0
 11
70.145173
 21
184.391603
 31
0.0
  0
ARC
  8
WHITE
  6
CONTINUOUS
  5
175
 10
73.312895
 20
186.046549
 30
0.0
 40
3.573977
 50
-152.415615
 51
0.045303
  0
LINE
  8
WHITE
  6
CONTINUOUS
  5
176
 10
76.886871
 20
186.049375
 30
0.0
 11
76.776352
 21
188.812349
 31
0.0
  0
LINE
  8
WHITE
  6
CONTINUOUS
  5
177
 10
76.776352
 20
188.812349
 30
0.0
 11
79.926159
 21
185.99411
 31
0.0
  0
ARC
  8
WHITE
  6
CONTINUOUS
  5
178
 10
81.916887
 20
188.220547
 30
0.0
 40
2.98664
 50
-131.800901
 51
11.429081
  0
ARC
  8
WHITE
  6
CONTINUOUS
  5
179
 10
73.424443
 20
189.053925
 30
0.0
 40
11.422415
 50
-1.211778
 51
36.733687
  0
ARC
  8
WHITE
  6
CONTINUOUS
  5
17A
 10
78.959873
 20
194.018911
 30
0.0
 40
4.071871
 50
27.286671
 51
98.989565
  0
ARC
  8
WHITE
  6
CONTINUOUS
  5
17B
 10
79.288668
 20
193.002948
 30
0.0
 40
5.129416
 50
100.844199
 51
174.953002
  0
ARC
  8
WHITE
  6
CONTINUOUS
  5
17C
 10
80.116591
 20
137.74324
 30
0.0
 40
22.806392
 50
-30.800902
 51
26.077669
  0
ARC
  8
WHITE
  6
CONTINUOUS
  5
17D
 10
100.328479
 20
147.614243
 30
0.0
 40
0.313474
 50
29.516124
 51
-164.867582
  0
ARC
  8
WHITE
  6
CONTINUOUS
  5
17E
 10
79.151173
 20
137.771514
 30
0.0
 40
23.044051
 50
-29.408023
 51
25.060535
  0
ARC
  8
WHITE
  6
CONTINUOUS
  5
17F
 10
98.826308
 20
126.907116
 30
0.0
 40
0.602415
 50
-131.551497
 51
-48.448701
  0
ARC
  8
WHITE
  6
CONTINUOUS
  5
180
 10
89.331103
 20
118.638689
 30
0.0
 40
11.993555
 50
40.67874
 51
157.338306
  0
LINE
  8
WHITE
  6
CONTINUOUS
  5
181
 10
78.263495
 20
123.259678
 30
0.0
 11
76.901502
 21
118.792616
 31
0.0
  0
ARC
  8
WHITE
  6
CONTINUOUS
  5
182
 10
77.12828
 20
118.667684
 30
0.0
 40
0.258914
 50
151.149631
 51
-10.293664
  0
LINE
  8
WHITE
  6
CONTINUOUS
  5
183
 10
77.383031
 20
118.621417
 30
0.0
 11
78.747343
 21
122.799614
 31
0.0
  0
ARC
  8
WHITE
  6
CONTINUOUS
  5
184
 10
89.204772
 20
118.880401
 30
0.0
 40
11.167724
 50
44.64433
 51
159.455113
  0
LINE
  8
WHITE
  6
CONTINUOUS
  5
185
 10
97.15041
 20
126.728
 30
0.0
 11
99.038062
 21
121.593014
 31
0.0
  0
LINE
  8
WHITE
  6
CONTINUOUS
  5
186
 10
99.038062
 20
121.593014
 30
0.0
 11
99.038062
 21
124.674003
 31
0.0
  0
LINE
  8
WHITE
  6
CONTINUOUS
  5
187
 10
99.038062
 20
124.674003
 30
0.0
 11
101.869521
 21
123.647007
 31
0.0
  0
LINE
  8
WHITE
  6
CONTINUOUS
  5
188
 10
101.869521
 20
123.647007
 30
0.0
 11
99.706183
 21
126.065081
 31
0.0
  0
ARC
  8
WHITE
  6
CONTINUOUS
  5
189
 10
74.142887
 20
222.267779
 30
0.0
 40
7.371059
 50
64.379314
 51
115.556264
  0
ARC
  8
WHITE
  6
CONTINUOUS
  5
18A
 10
71.010534
 20
228.64399
 30
0.0
 40
0.27777
 50
99.846541
 51
-70.117009
  0
ARC
  8
WHITE
  6
CONTINUOUS
  5
18B
 10
74.116377
 20
220.872943
 30
0.0
 40
8.091106
 50
71.329844
 51
111.850321
  0
ARC
  8
WHITE
  6
CONTINUOUS
  5
18C
 10
82.949461
 20
231.086282
 30
0.0
 40
6.742918
 50
-157.797606
 51
-142.239195
  0
ARC
  8
WHITE
  6
CONTINUOUS
  5
18D
 10
75.383117
 20
217.015112
 30
0.0
 40
10.19028
 50
77.327239
 51
113.656691
  0
ARC
  8
WHITE
  6
CONTINUOUS
  5
18E
 10
45.762425
 20
183.07797
 30
0.0
 40
50.24201
 50
45.034612
 51
59.457587
  0
ARC
  8
WHITE
  6
CONTINUOUS
  5
18F
 10
80.773195
 20
218.368212
 30
0.0
 40
0.557369
 50
-122.1178
 51
27.536441
  0
LINE
  8
WHITE
  6
CONTINUOUS
  5
190
 10
80.476863
 20
217.896145
 30
0.0
 11
77.375425
 21
218.443498
 31
0.0
  0
LINE
  8
WHITE
  6
CONTINUOUS
  5
191
 10
77.375425
 20
218.443498
 30
0.0
 11
76.828123
 21
215.88939
 31
0.0
  0
LINE
  8
WHITE
  6
CONTINUOUS
  5
192
 10
76.828123
 20
215.88939
 30
0.0
 11
80.233608
 21
214.965676
 31
0.0
  0
ARC
  8
WHITE
  6
CONTINUOUS
  5
193
 10
79.690709
 20
213.781978
 30
0.0
 40
1.30226
 50
-106.473523
 51
65.361586
  0
LINE
  8
WHITE
  6
CONTINUOUS
  5
194
 10
79.321424
 20
212.533175
 30
0.0
 11
72.632073
 21
214.673137
 31
0.0
  0
ARC
  8
WHITE
  6
CONTINUOUS
  5
195
 10
72.414706
 20
214.435785
 30
0.0
 40
0.321845
 50
47.516462
 51
-105.626342
  0
LINE
  8
WHITE
  6
CONTINUOUS
  5
196
 10
72.328013
 20
214.125836
 30
0.0
 11
79.078179
 21
211.815002
 31
0.0
  0
ARC
  8
WHITE
  6
CONTINUOUS
  5
197
 10
79.992922
 20
213.632122
 30
0.0
 40
2.034374
 50
-116.72082
 51
71.645935
  0
LINE
  8
WHITE
  6
CONTINUOUS
  5
198
 10
80.633523
 20
215.563005
 30
0.0
 11
77.618682
 21
216.619094
 31
0.0
  0
LINE
  8
WHITE
  6
CONTINUOUS
  5
199
 10
77.618682
 20
216.619094
 30
0.0
 11
77.922739
 21
217.774498
 31
0.0
  0
LINE
  8
WHITE
  6
CONTINUOUS
  5
19A
 10
77.922739
 20
217.774498
 30
0.0
 11
80.720111
 21
217.105587
 31
0.0
  0
ARC
  8
WHITE
  6
CONTINUOUS
  5
19B
 10
81.284822
 20
217.961115
 30
0.0
 40
1.025098
 50
-123.427708
 51
41.773506
  0
ARC
  8
WHITE
  6
CONTINUOUS
  5
19C
 10
64.146763
 20
205.65442
 30
0.0
 40
22.118577
 50
35.9636
 51
67.61191
  0
ARC
  8
WHITE
  6
CONTINUOUS
  5
19D
 10
75.501121
 20
216.383207
 30
0.0
 40
10.15447
 50
68.530055
 51
106.77
  0
ARC
  8
WHITE
  6
CONTINUOUS
  5
19E
 10
83.359485
 20
230.489158
 30
0.0
 40
6.231607
 50
-165.359408
 51
-131.653719
  0
ARC
  8
WHITE
  6
CONTINUOUS
  5
19F
 10
97.537524
 20
156.299898
 30
0.0
 40
45.405054
 50
1.562299
 51
61.195516
  0
ARC
  8
WHITE
  6
CONTINUOUS
  5
1A0
 10
119.274864
 20
195.763307
 30
0.0
 40
0.352545
 50
66.633119
 51
-120.5262
  0
ARC
  8
WHITE
  6
CONTINUOUS
  5
1A1
 10
97.052282
 20
155.764487
 30
0.0
 40
45.405071
 50
2.297524
 51
60.955701
  0
LINE
  8
WHITE
  6
CONTINUOUS
  5
1A2
 10
142.420853
 20
157.584713
 30
0.0
 11
142.097552
 21
154.552994
 31
0.0
  0
LINE
  8
WHITE
  6
CONTINUOUS
  5
1A3
 10
142.097552
 20
154.552994
 30
0.0
 11
140.323605
 21
150.541647
 31
0.0
  0
ARC
  8
WHITE
  6
CONTINUOUS
  5
1A4
 10
140.507561
 20
150.473384
 30
0.0
 40
0.196213
 50
159.641013
 51
-47.017297
  0
LINE
  8
WHITE
  6
CONTINUOUS
  5
1A5
 10
140.641335
 20
150.329842
 30
0.0
 11
142.528946
 21
154.212305
 31
0.0
  0
LINE
  8
WHITE
  6
CONTINUOUS
  5
1A6
 10
142.528946
 20
154.212305
 30
0.0
 11
144.014384
 21
151.37496
 31
0.0
  0
ARC
  8
WHITE
  6
CONTINUOUS
  5
1A7
 10
144.160593
 20
151.494653
 30
0.0
 40
0.188954
 50
-140.694699
 51
25.246168
  0
LINE
  8
WHITE
  6
CONTINUOUS
  5
1A8
 10
144.3315
 20
151.575244
 30
0.0
 11
142.729224
 21
154.813176
 31
0.0
  0
LINE
  8
WHITE
  6
CONTINUOUS
  5
1A9
 10
142.729224
 20
154.813176
 30
0.0
 11
142.925699
 21
157.537816
 31
0.0
  0
ARC
  8
WHITE
  6
CONTINUOUS
  5
1AA
 10
65.515809
 20
231.800412
 30
0.0
 40
1.846053
 50
119.089037
 51
-93.850551
  0
ARC
  8
WHITE
  6
CONTINUOUS
  5
1AB
 10
65.735309
 20
239.539445
 30
0.0
 40
9.587073
 50
-92.05314
 51
-72.509693
  0
LINE
  8
WHITE
  6
CONTINUOUS
  5
1AC
 10
68.616651
 20
230.395603
 30
0.0
 11
70.124226
 21
231.015986
 31
0.0
  0
ARC
  8
WHITE
  6
CONTINUOUS
  5
1AD
 10
65.734926
 20
239.539459
 30
0.0
 40
9.587259
 50
-62.753068
 51
-54.731868
  0
ARC
  8
WHITE
  6
CONTINUOUS
  5
1AE
 10
70.540476
 20
233.550278
 30
0.0
 40
1.978116
 50
-68.338436
 51
91.256752
  0
ARC
  8
WHITE
  6
CONTINUOUS
  5
1AF
 10
72.161084
 20
221.67174
 30
0.0
 40
13.955735
 50
96.847879
 51
106.650867
  0
LINE
  8
WHITE
  6
CONTINUOUS
  5
1B0
 10
68.162221
 20
235.042291
 30
0.0
 11
66.783466
 21
234.549782
 31
0.0
  0
ARC
  8
WHITE
  6
CONTINUOUS
  5
1B1
 10
72.160608
 20
221.671683
 30
0.0
 40
13.955612
 50
112.662567
 51
122.714185
  0
ARC
  8
WHITE
  6
CONTINUOUS
  5
1B2
 10
71.489351
 20
200.073378
 30
0.0
 40
2.056834
 50
-111.283365
 51
8.760638
  0
LINE
  8
WHITE
  6
CONTINUOUS
  5
1B3
 10
73.522189
 20
200.386648
 30
0.0
 11
73.070139
 21
202.056045
 31
0.0
  0
ARC
  8
WHITE
  6
CONTINUOUS
  5
1B4
 10
72.604519
 20
203.075298
 30
0.0
 40
1.120571
 50
-152.292009
 51
-65.447908
  0
LINE
  8
WHITE
  6
CONTINUOUS
  5
1B5
 10
71.612445
 20
202.554271
 30
0.0
 11
70.251344
 21
206.51053
 31
0.0
  0
ARC
  8
WHITE
  6
CONTINUOUS
  5
1B6
 10
67.060762
 20
206.714112
 30
0.0
 40
3.19707
 50
-59.450358
 51
-3.650935
  0
LINE
  8
WHITE
  6
CONTINUOUS
  5
1B7
 10
68.685784
 20
203.96083
 30
0.0
 11
69.507294
 21
202.906789
 31
0.0
  0
ARC
  8
WHITE
  6
CONTINUOUS
  5
1B8
 10
69.360737
 20
202.797893
 30
0.0
 40
0.182585
 50
-129.64695
 51
36.61327
  0
LINE
  8
WHITE
  6
CONTINUOUS
  5
1B9
 10
69.244235
 20
202.657301
 30
0.0
 11
68.36012
 21
203.792914
 31
0.0
  0
ARC
  8
WHITE
  6
CONTINUOUS
  5
1BA
 10
67.060845
 20
206.714149
 30
0.0
 40
3.197144
 50
-114.839321
 51
-66.021976
  0
ARC
  8
WHITE
  6
CONTINUOUS
  5
1BB
 10
65.826342
 20
204.005038
 30
0.0
 40
0.220784
 50
80.17774
 51
-119.445797
  0
ARC
  8
WHITE
  6
CONTINUOUS
  5
1BC
 10
66.989024
 20
206.25842
 30
0.0
 40
2.326002
 50
-118.92537
 51
27.341399
  0
LINE
  8
WHITE
  6
CONTINUOUS
  5
1BD
 10
69.055178
 20
207.326734
 30
0.0
 11
66.460727
 21
211.297175
 31
0.0
  0
ARC
  8
WHITE
  6
CONTINUOUS
  5
1BE
 10
63.017241
 20
211.143096
 30
0.0
 40
3.446931
 50
-116.986607
 51
2.56199
  0
ARC
  8
WHITE
  6
CONTINUOUS
  5
1BF
 10
61.530794
 20
208.35645
 30
0.0
 40
0.295363
 50
57.990175
 51
-105.25391
  0
ARC
  8
WHITE
  6
CONTINUOUS
  5
1C0
 10
62.807231
 20
211.48172
 30
0.0
 40
3.085236
 50
-111.283243
 51
8.760173
  0
LINE
  8
WHITE
  6
CONTINUOUS
  5
1C1
 10
65.856476
 20
211.951598
 30
0.0
 11
65.178434
 21
214.455611
 31
0.0
  0
ARC
  8
WHITE
  6
CONTINUOUS
  5
1C2
 10
64.480009
 20
215.984491
 30
0.0
 40
1.680854
 50
-152.292009
 51
-65.448068
  0
LINE
  8
WHITE
  6
CONTINUOUS
  5
1C3
 10
62.991899
 20
215.202951
 30
0.0
 11
62.435893
 21
216.819106
 31
0.0
  0
LINE
  8
WHITE
  6
CONTINUOUS
  5
1C4
 10
62.435893
 20
216.819106
 30
0.0
 11
63.266651
 21
217.006812
 31
0.0
  0
LINE
  8
WHITE
  6
CONTINUOUS
  5
1C5
 10
63.266651
 20
217.006812
 30
0.0
 11
63.824272
 21
215.3768
 31
0.0
  0
LINE
  8
WHITE
  6
CONTINUOUS
  5
1C6
 10
63.824272
 20
215.3768
 30
0.0
 11
65.540022
 21
215.033701
 31
0.0
  0
LINE
  8
WHITE
  6
CONTINUOUS
  5
1C7
 10
65.540022
 20
215.033701
 30
0.0
 11
67.287947
 21
211.430602
 31
0.0
  0
LINE
  8
WHITE
  6
CONTINUOUS
  5
1C8
 10
67.287947
 20
211.430602
 30
0.0
 11
70.933921
 21
206.926735
 31
0.0
  0
LINE
  8
WHITE
  6
CONTINUOUS
  5
1C9
 10
70.933921
 20
206.926735
 30
0.0
 11
72.306524
 21
203.023412
 31
0.0
  0
LINE
  8
WHITE
  6
CONTINUOUS
  5
1CA
 10
72.306524
 20
203.023412
 30
0.0
 11
73.764914
 21
202.72314
 31
0.0
  0
LINE
  8
WHITE
  6
CONTINUOUS
  5
1CB
 10
73.764914
 20
202.72314
 30
0.0
 11
75.587035
 21
198.524365
 31
0.0
  0
LINE
  8
WHITE
  6
CONTINUOUS
  5
1CC
 10
75.587035
 20
198.524365
 30
0.0
 11
74.725968
 21
198.218485
 31
0.0
  0
LINE
  8
WHITE
  6
CONTINUOUS
  5
1CD
 10
74.725968
 20
198.218485
 30
0.0
 11
73.925018
 21
199.950368
 31
0.0
  0
ARC
  8
WHITE
  6
CONTINUOUS
  5
1CE
 10
71.629361
 20
199.84764
 30
0.0
 40
2.297954
 50
-116.98696
 51
2.562224
  0
ARC
  8
WHITE
  6
CONTINUOUS
  5
1CF
 10
70.638203
 20
197.98995
 30
0.0
 40
0.196927
 50
57.930694
 51
-105.197803
  0
ARC
  8
WHITE
  6
CONTINUOUS
  5
1D0
 10
44.118018
 20
201.953821
 30
0.0
 40
7.429679
 50
-176.845101
 51
-126.911933
  0
LINE
  8
WHITE
  6
CONTINUOUS
  5
1D1
 10
39.655852
 20
196.01335
 30
0.0
 11
40.259558
 21
195.689533
 31
0.0
  0
LINE
  8
WHITE
  6
CONTINUOUS
  5
1D2
 10
40.259558
 20
195.689533
 30
0.0
 11
41.980329
 21
195.803722
 31
0.0
  0
LINE
  8
WHITE
  6
CONTINUOUS
  5
1D3
 10
41.980329
 20
195.803722
 30
0.0
 11
43.151069
 21
198.464509
 31
0.0
  0
LINE
  8
WHITE
  6
CONTINUOUS
  5
1D4
 10
43.151069
 20
198.464509
 30
0.0
 11
46.805183
 21
197.506622
 31
0.0
  0
LINE
  8
WHITE
  6
CONTINUOUS
  5
1D5
 10
46.805183
 20
197.506622
 30
0.0
 11
48.543552
 21
199.174035
 31
0.0
  0
LINE
  8
WHITE
  6
CONTINUOUS
  5
1D6
 10
48.543552
 20
199.174035
 30
0.0
 11
51.736462
 21
198.145197
 31
0.0
  0
LINE
  8
WHITE
  6
CONTINUOUS
  5
1D7
 10
51.736462
 20
198.145197
 30
0.0
 11
53.794112
 21
199.81261
 31
0.0
  0
LINE
  8
WHITE
  6
CONTINUOUS
  5
1D8
 10
53.794112
 20
199.81261
 30
0.0
 11
56.127376
 21
199.435162
 31
0.0
  0
ARC
  8
WHITE
  6
CONTINUOUS
  5
1D9
 10
56.159314
 20
199.632606
 30
0.0
 40
0.20001
 50
-99.18842
 51
-55.491315
  0
LINE
  8
WHITE
  6
CONTINUOUS
  5
1DA
 10
56.272625
 20
199.467791
 30
0.0
 11
58.749521
 21
200.957198
 31
0.0
  0
LINE
  8
WHITE
  6
CONTINUOUS
  5
1DB
 10
58.749521
 20
200.957198
 30
0.0
 11
46.85025
 21
211.251204
 31
0.0
  0
ARC
  8
WHITE
  6
CONTINUOUS
  5
1DC
 10
46.703545
 20
210.977581
 30
0.0
 40
0.31047
 50
61.80159
 51
-118.19841
  0
LINE
  8
WHITE
  6
CONTINUOUS
  5
1DD
 10
46.556839
 20
210.703959
 30
0.0
 11
57.308645
 21
201.378914
 31
0.0
  0
LINE
  8
WHITE
  6
CONTINUOUS
  5
1DE
 10
57.308645
 20
201.378914
 30
0.0
 11
55.431585
 21
200.323213
 31
0.0
  0
LINE
  8
WHITE
  6
CONTINUOUS
  5
1DF
 10
55.431585
 20
200.323213
 30
0.0
 11
53.758637
 21
200.73501
 31
0.0
  0
LINE
  8
WHITE
  6
CONTINUOUS
  5
1E0
 10
53.758637
 20
200.73501
 30
0.0
 11
51.63003
 21
198.96116
 31
0.0
  0
LINE
  8
WHITE
  6
CONTINUOUS
  5
1E1
 10
51.63003
 20
198.96116
 30
0.0
 11
48.543552
 21
200.060947
 31
0.0
  0
LINE
  8
WHITE
  6
CONTINUOUS
  5
1E2
 10
48.543552
 20
200.060947
 30
0.0
 11
46.627801
 21
198.251634
 31
0.0
  0
LINE
  8
WHITE
  6
CONTINUOUS
  5
1E3
 10
46.627801
 20
198.251634
 30
0.0
 11
42.938201
 21
199.35141
 31
0.0
  0
LINE
  8
WHITE
  6
CONTINUOUS
  5
1E4
 10
42.938201
 20
199.35141
 30
0.0
 11
41.590091
 21
196.513272
 31
0.0
  0
LINE
  8
WHITE
  6
CONTINUOUS
  5
1E5
 10
41.590091
 20
196.513272
 30
0.0
 11
40.53132
 21
196.353821
 31
0.0
  0
ARC
  8
WHITE
  6
CONTINUOUS
  5
1E6
 10
44.993482
 20
202.294298
 30
0.0
 40
7.429681
 50
-174.843803
 51
-126.911878
  0
ARC
  8
WHITE
  6
CONTINUOUS
  5
1E7
 10
37.145419
 20
201.600146
 30
0.0
 40
0.449226
 50
3.373898
 51
-172.938995
  0
ARC
  8
WHITE
  6
CONTINUOUS
  5
1E8
 10
39.977023
 20
154.215819
 30
0.0
 40
5.858824
 50
0.762503
 51
143.491417
  0
ARC
  8
WHITE
  6
CONTINUOUS
  5
1E9
 10
34.919869
 20
157.957732
 30
0.0
 40
0.432181
 50
143.635977
 51
-36.364023
  0
ARC
  8
WHITE
  6
CONTINUOUS
  5
1EA
 10
40.020441
 20
153.6261
 30
0.0
 40
7.122905
 50
11.379195
 51
139.901621
  0
ARC
  8
WHITE
  6
CONTINUOUS
  5
1EB
 10
50.979083
 20
153.582244
 30
0.0
 40
4.231644
 50
121.445627
 51
159.972505
  0
ARC
  8
WHITE
  6
CONTINUOUS
  5
1EC
 10
54.071257
 20
149.7704
 30
0.0
 40
9.119968
 50
24.273821
 51
125.529198
  0
ARC
  8
WHITE
  6
CONTINUOUS
  5
1ED
 10
61.862473
 20
153.439847
 30
0.0
 40
0.528519
 50
-140.917286
 51
8.67899
  0
ARC
  8
WHITE
  6
CONTINUOUS
  5
1EE
 10
54.176496
 20
150.200049
 30
0.0
 40
7.834826
 50
21.776359
 51
130.654801
  0
ARC
  8
WHITE
  6
CONTINUOUS
  5
1EF
 10
53.160169
 20
151.174757
 30
0.0
 40
6.434666
 50
129.443623
 51
152.866812
  0
ARC
  8
WHITE
  6
CONTINUOUS
  5
1F0
 10
46.653844
 20
154.369308
 30
0.0
 40
0.82199
 50
-174.72848
 51
-18.436289
  0
LINE
  8
WHITE
  6
CONTINUOUS
  5
1F1
 10
65.31483
 20
200.49268
 30
0.0
 11
66.730326
 21
198.734018
 31
0.0
  0
LINE
  8
WHITE
  6
CONTINUOUS
  5
1F2
 10
66.730326
 20
198.734018
 30
0.0
 11
69.132378
 21
196.503546
 31
0.0
  0
LINE
  8
WHITE
  6
CONTINUOUS
  5
1F3
 10
69.132378
 20
196.503546
 30
0.0
 11
69.705205
 21
197.111957
 31
0.0
  0
ARC
  8
WHITE
  6
CONTINUOUS
  5
1F4
 10
79.712334
 20
209.763698
 30
0.0
 40
16.131001
 50
-143.713892
 51
-128.342889
  0
ARC
  8
WHITE
  6
CONTINUOUS
  5
1F5
 10
68.206987
 20
203.006856
 30
0.0
 40
3.166232
 50
-118.224502
 51
-24.283064
  0
ARC
  8
WHITE
  6
CONTINUOUS
  5
1F6
 10
70.838968
 20
201.751397
 30
0.0
 40
0.258362
 50
-10.399738
 51
134.009014
  0
ARC
  8
WHITE
  6
CONTINUOUS
  5
1F7
 10
68.112473
 20
203.371041
 30
0.0
 40
2.922844
 50
-141.103203
 51
-29.377201
  0
ARC
  8
WHITE
  6
CONTINUOUS
  5
1F8
 10
60.915765
 20
200.485049
 30
0.0
 40
5.032817
 50
12.050047
 51
62.124402
  0
ARC
  8
WHITE
  6
CONTINUOUS
  5
1F9
 10
75.141596
 20
226.017264
 30
0.0
 40
24.196502
 50
-129.9667
 51
-119.38524
  0
LINE
  8
WHITE
  6
CONTINUOUS
  5
1FA
 10
59.59916
 20
207.472632
 30
0.0
 11
57.7894
 21
209.153975
 31
0.0
  0
ARC
  8
WHITE
  6
CONTINUOUS
  5
1FB
 10
75.141666
 20
226.017193
 30
0.0
 40
24.196472
 50
-143.713897
 51
-135.818883
  0
ARC
  8
WHITE
  6
CONTINUOUS
  5
1FC
 10
57.883747
 20
215.881853
 30
0.0
 40
4.7493
 50
-118.225875
 51
-24.283026
  0
ARC
  8
WHITE
  6
CONTINUOUS
  5
1FD
 10
61.831665
 20
213.998734
 30
0.0
 40
0.387563
 50
-10.406121
 51
134.008879
  0
ARC
  8
WHITE
  6
CONTINUOUS
  5
1FE
 10
57.741902
 20
216.428202
 30
0.0
 40
4.384266
 50
-141.103152
 51
-29.377026
  0
LINE
  8
WHITE
  6
CONTINUOUS
  5
1FF
 10
54.329726
 20
213.675233
 30
0.0
 11
53.776399
 21
213.446613
 31
0.0
  0
LINE
  8
WHITE
  6
CONTINUOUS
  5
200
 10
53.776399
 20
213.446613
 30
0.0
 11
55.191895
 21
210.701407
 31
0.0
  0
LINE
  8
WHITE
  6
CONTINUOUS
  5
201
 10
55.191895
 20
210.701407
 30
0.0
 11
58.408923
 21
207.184108
 31
0.0
  0
LINE
  8
WHITE
  6
CONTINUOUS
  5
202
 10
58.408923
 20
207.184108
 30
0.0
 11
63.72776
 21
203.538133
 31
0.0
  0
LINE
  8
WHITE
  6
CONTINUOUS
  5
203
 10
63.72776
 20
203.538133
 30
0.0
 11
65.31483
 21
200.49268
 31
0.0
  0
LINE
  8
WHITE
  6
CONTINUOUS
  5
204
 10
81.567181
 20
210.47039
 30
0.0
 11
117.261907
 21
196.813302
 31
0.0
  0
ARC
  8
WHITE
  6
CONTINUOUS
  5
205
 10
117.056749
 20
196.491406
 30
0.0
 40
0.381716
 50
-102.330754
 51
57.488976
  0
LINE
  8
WHITE
  6
CONTINUOUS
  5
206
 10
116.975232
 20
196.118496
 30
0.0
 11
81.305181
 21
209.677996
 31
0.0
  0
ARC
  8
WHITE
  6
CONTINUOUS
  5
207
 10
81.436181
 20
210.074193
 30
0.0
 40
0.417293
 50
71.703863
 51
-108.296137
  0
ARC
  8
WHITE
  6
CONTINUOUS
  5
208
 10
66.209797
 20
223.039099
 30
0.0
 40
5.319872
 50
29.14787
 51
144.296992
  0
ARC
  8
WHITE
  6
CONTINUOUS
  5
209
 10
60.199523
 20
224.308272
 30
0.0
 40
2.495141
 50
-29.943117
 51
47.357697
  0
ARC
  8
WHITE
  6
CONTINUOUS
  5
20A
 10
64.81931
 20
217.051692
 30
0.0
 40
6.49417
 50
50.511046
 51
112.237469
  0
ARC
  8
WHITE
  6
CONTINUOUS
  5
20B
 10
69.06359
 20
222.303582
 30
0.0
 40
0.26592
 50
-115.491588
 51
56.683481
  0
ARC
  8
WHITE
  6
CONTINUOUS
  5
20C
 10
64.856264
 20
217.331441
 30
0.0
 40
6.777412
 50
50.033659
 51
102.478114
  0
ARC
  8
WHITE
  6
CONTINUOUS
  5
20D
 10
61.869767
 20
224.825526
 30
0.0
 40
1.756582
 50
-29.942545
 51
47.357429
  0
ARC
  8
WHITE
  6
CONTINUOUS
  5
20E
 10
66.101008
 20
223.932008
 30
0.0
 40
3.7452
 50
29.147977
 51
144.296787
  0
ARC
  8
WHITE
  6
CONTINUOUS
  5
20F
 10
64.257766
 20
222.112508
 30
0.0
 40
6.27941
 50
-67.912811
 51
35.468524
  0
LINE
  8
WHITE
  6
CONTINUOUS
  5
210
 10
66.618931
 20
216.293927
 30
0.0
 11
65.783103
 21
217.809719
 31
0.0
  0
ARC
  8
WHITE
  6
CONTINUOUS
  5
211
 10
64.35464
 20
220.014777
 30
0.0
 40
2.627315
 50
-57.064342
 51
34.536671
  0
ARC
  8
WHITE
  6
CONTINUOUS
  5
212
 10
66.272041
 20
221.372259
 30
0.0
 40
0.279973
 50
28.137319
 51
-151.862681
  0
ARC
  8
WHITE
  6
CONTINUOUS
  5
213
 10
64.17316
 20
220.056384
 30
0.0
 40
2.198038
 50
-75.562595
 51
32.587769
  0
LINE
  8
WHITE
  6
CONTINUOUS
  5
214
 10
64.72118
 20
217.927759
 30
0.0
 11
66.136922
 21
215.360397
 31
0.0
  0
ARC
  8
WHITE
  6
CONTINUOUS
  5
215
 10
63.959701
 20
222.579986
 30
0.0
 40
7.54074
 50
-73.218196
 51
23.85987
  0
ARC
  8
WHITE
  6
CONTINUOUS
  5
216
 10
149.718526
 20
189.732557
 30
0.0
 40
13.066841
 50
83.641794
 51
-178.654398
  0
ARC
  8
WHITE
  6
CONTINUOUS
  5
217
 10
137.16884
 20
189.462091
 30
0.0
 40
0.514838
 50
-175.947599
 51
-4.878432
  0
ARC
  8
WHITE
  6
CONTINUOUS
  5
218
 10
149.740183
 20
189.830058
 30
0.0
 40
12.065397
 50
86.785747
 51
-178.044316
  0
ARC
  8
WHITE
  6
CONTINUOUS
  5
219
 10
148.385759
 20
197.366708
 30
0.0
 40
4.945975
 50
-4.153198
 51
65.756049
  0
ARC
  8
WHITE
  6
CONTINUOUS
  5
21A
 10
153.786828
 20
197.056372
 30
0.0
 40
0.470523
 50
-174.160832
 51
-5.836815
  0
ARC
  8
WHITE
  6
CONTINUOUS
  5
21B
 10
148.03326
 20
197.333575
 30
0.0
 40
6.230137
 50
-2.990725
 51
59.816416
  0
ARC
  8
WHITE
  6
CONTINUOUS
  5
21C
 10
84.395078
 20
139.506817
 30
0.0
 40
30.331652
 50
-26.581927
 51
26.581989
  0
ARC
  8
WHITE
  6
CONTINUOUS
  5
21D
 10
111.945035
 20
153.264167
 30
0.0
 40
0.462915
 50
38.865253
 51
-156.497794
  0
ARC
  8
WHITE
  6
CONTINUOUS
  5
21E
 10
85.093431
 20
139.68044
 30
0.0
 40
30.544862
 50
-27.236787
 51
27.015
  0
ARC
  8
WHITE
  6
CONTINUOUS
  5
21F
 10
111.87424
 20
125.780525
 30
0.0
 40
0.385609
 50
156.530001
 51
-11.900564
  0
CIRCLE
  8
WHITE
  6
CONTINUOUS
  5
220
 10
92.431325
 20
156.510856
 30
0.0
 40
2.777598
  0
ARC
  8
WHITE
  6
CONTINUOUS
  5
221
 10
141.951389
 20
216.482498
 30
0.0
 40
7.162566
 50
111.234003
 51
169.776006
  0
ARC
  8
WHITE
  6
CONTINUOUS
  5
222
 10
134.636005
 20
217.804427
 30
0.0
 40
0.271309
 50
-178.77846
 51
-10.747839
  0
ARC
  8
WHITE
  6
CONTINUOUS
  5
223
 10
142.657134
 20
216.039945
 30
0.0
 40
8.476823
 50
112.446714
 51
168.025795
  0
ARC
  8
WHITE
  6
CONTINUOUS
  5
224
 10
139.611391
 20
223.412405
 30
0.0
 40
0.5
 50
50.053912
 51
112.4467
  0
ARC
  8
WHITE
  6
CONTINUOUS
  5
225
 10
135.518908
 20
218.526003
 30
0.0
 40
6.8738
 50
0.106188
 51
50.053057
  0
ARC
  8
WHITE
  6
CONTINUOUS
  5
226
 10
142.492695
 20
218.538874
 30
0.0
 40
0.099999
 50
-179.924339
 51
-39.952263
  0
ARC
  8
WHITE
  6
CONTINUOUS
  5
227
 10
147.593801
 20
214.267009
 30
0.0
 40
6.55358
 50
38.8873
 51
140.056001
  0
ARC
  8
WHITE
  6
CONTINUOUS
  5
228
 10
133.83516
 20
204.784815
 30
0.0
 40
23.249887
 50
8.689575
 51
35.788667
  0
ARC
  8
WHITE
  6
CONTINUOUS
  5
229
 10
156.524118
 20
208.270427
 30
0.0
 40
0.29529
 50
-167.753013
 51
5.246774
  0
ARC
  8
WHITE
  6
CONTINUOUS
  5
22A
 10
136.013353
 20
205.136716
 30
0.0
 40
20.454062
 50
8.635322
 51
40.851632
  0
ARC
  8
WHITE
  6
CONTINUOUS
  5
22B
 10
147.547967
 20
214.791109
 30
0.0
 40
5.419663
 50
43.412766
 51
148.542613
  0
ARC
  8
WHITE
  6
CONTINUOUS
  5
22C
 10
142.373213
 20
217.85627
 30
0.0
 40
0.600318
 50
-161.345296
 51
-23.235554
  0
ARC
  8
WHITE
  6
CONTINUOUS
  5
22D
 10
135.412423
 20
218.423804
 30
0.0
 40
6.436981
 50
-6.776603
 51
45.976177
  0
ARC
  8
WHITE
  6
CONTINUOUS
  5
22E
 10
139.538415
 20
222.692759
 30
0.0
 40
0.5
 50
45.982619
 51
111.241275
  0
LINE
  8
WHITE
  6
CONTINUOUS
  5
22F
 10
79.431173
 20
80.000893
 30
0.0
 11
56.427794
 21
80.005533
 31
0.0
  0
ARC
  8
WHITE
  6
CONTINUOUS
  5
230
 10
56.518843
 20
80.482139
 30
0.0
 40
0.485225
 50
104.063008
 51
-100.815258
  0
LINE
  8
WHITE
  6
CONTINUOUS
  5
231
 10
56.400939
 20
80.952821
 30
0.0
 11
79.427483
 21
80.948177
 31
0.0
  0
ARC
  8
WHITE
  6
CONTINUOUS
  5
232
 10
79.484671
 20
80.474751
 30
0.0
 40
0.476868
 50
-96.441316
 51
96.887723
  0
ARC
  8
WHITE
  6
CONTINUOUS
  5
233
 10
56.163393
 20
221.443224
 30
0.0
 40
4.795592
 50
-114.8259
 51
-66.007031
  0
LINE
  8
WHITE
  6
CONTINUOUS
  5
234
 10
58.113398
 20
217.061993
 30
0.0
 11
59.43954
 21
215.357591
 31
0.0
  0
ARC
  8
WHITE
  6
CONTINUOUS
  5
235
 10
59.614581
 20
215.56816
 30
0.0
 40
0.273822
 50
-129.735963
 51
36.697471
  0
LINE
  8
WHITE
  6
CONTINUOUS
  5
236
 10
59.834132
 20
215.731793
 30
0.0
 11
58.601877
 21
217.312854
 31
0.0
  0
ARC
  8
WHITE
  6
CONTINUOUS
  5
237
 10
56.163513
 20
221.443295
 30
0.0
 40
4.796473
 50
-59.444952
 51
-3.656538
  0
LINE
  8
WHITE
  6
CONTINUOUS
  5
238
 10
60.950222
 20
221.137398
 30
0.0
 11
61.882881
 21
218.426493
 31
0.0
  0
LINE
  8
WHITE
  6
CONTINUOUS
  5
239
 10
61.882881
 20
218.426493
 30
0.0
 11
62.751929
 21
218.6368
 31
0.0
  0
ARC
  8
WHITE
  6
CONTINUOUS
  5
23A
 10
39.546889
 20
209.683648
 30
0.0
 40
24.87233
 50
21.098006
 51
49.317794
  0
ARC
  8
WHITE
  6
CONTINUOUS
  5
23B
 10
55.505023
 20
228.447043
 30
0.0
 40
0.27346
 50
21.04708
 51
-151.6799
  0
LINE
  8
WHITE
  6
CONTINUOUS
  5
23C
 10
55.264293
 20
228.317314
 30
0.0
 11
59.155983
 21
222.361681
 31
0.0
  0
ARC
  8
WHITE
  6
CONTINUOUS
  5
23D
 10
56.056745
 20
220.75925
 30
0.0
 40
3.488991
 50
-118.925723
 51
27.340786
  0
ARC
  8
WHITE
  6
CONTINUOUS
  5
23E
 10
54.31271
 20
217.379198
 30
0.0
 40
0.331176
 50
80.17774
 51
-119.445797
  0
ARC
  8
WHITE
  6
CONTINUOUS
  5
23F
 10
87.525917
 20
118.876992
 30
0.0
 40
5.334926
 50
49.364332
 51
162.454098
  0
ARC
  8
WHITE
  6
CONTINUOUS
  5
240
 10
259.201717
 20
94.783537
 30
0.0
 40
178.621304
 50
171.727008
 51
173.642002
  0
ARC
  8
WHITE
  6
CONTINUOUS
  5
241
 10
81.927785
 20
114.608913
 30
0.0
 40
0.252737
 50
-169.794001
 51
-15.479809
  0
LINE
  8
WHITE
  6
CONTINUOUS
  5
242
 10
82.171353
 20
114.541458
 30
0.0
 11
82.900412
 21
119.955976
 31
0.0
  0
ARC
  8
WHITE
  6
CONTINUOUS
  5
243
 10
87.453056
 20
119.190702
 30
0.0
 40
4.616515
 50
47.973518
 51
170.458099
  0
ARC
  8
WHITE
  6
CONTINUOUS
  5
244
 10
100.483918
 20
130.598271
 30
0.0
 40
12.746006
 50
-141.248654
 51
-34.906725
  0
ARC
  8
WHITE
  6
CONTINUOUS
  5
245
 10
110.68743
 20
123.486503
 30
0.0
 40
0.30868
 50
-36.136944
 51
157.311204
  0
ARC
  8
WHITE
  6
CONTINUOUS
  5
246
 10
100.443121
 20
130.635539
 30
0.0
 40
12.190666
 50
-140.768489
 51
-35.216533
  0
ARC
  8
WHITE
  6
CONTINUOUS
  5
247
 10
53.851981
 20
148.380173
 30
0.0
 40
8.881776
 50
-173.502143
 51
-137.419464
  0
ARC
  8
WHITE
  6
CONTINUOUS
  5
248
 10
47.598241
 20
142.745064
 30
0.0
 40
0.471334
 50
-127.380867
 51
14.040343
  0
ARC
  8
WHITE
  6
CONTINUOUS
  5
249
 10
54.803825
 20
148.633999
 30
0.0
 40
8.88177
 50
-173.502205
 51
-139.446199
  0
ARC
  8
WHITE
  6
CONTINUOUS
  5
24A
 10
45.016384
 20
147.371213
 30
0.0
 40
0.996614
 50
14.984404
 51
144.767307
  0
ARC
  8
WHITE
  6
CONTINUOUS
  5
24B
 10
39.418673
 20
149.631903
 30
0.0
 40
5.072
 50
169.595798
 51
-19.412286
  0
ARC
  8
WHITE
  6
CONTINUOUS
  5
24C
 10
33.954141
 20
150.643055
 30
0.0
 40
0.485351
 50
-11.310831
 51
168.689169
  0
ARC
  8
WHITE
  6
CONTINUOUS
  5
24D
 10
39.475691
 20
149.822262
 30
0.0
 40
6.06702
 50
171.316404
 51
-23.788511
  0
CIRCLE
  8
WHITE
  6
CONTINUOUS
  5
24E
 10
38.633552
 20
151.889372
 30
0.0
 40
2.37547
  0
CIRCLE
  8
WHITE
  6
CONTINUOUS
  5
24F
 10
74.970642
 20
149.835392
 30
0.0
 40
2.197956
  0
ARC
  8
WHITE
  6
CONTINUOUS
  5
250
 10
42.837901
 20
231.86981
 30
0.0
 40
3.539015
 50
18.99847
 51
108.261701
  0
ARC
  8
WHITE
  6
CONTINUOUS
  5
251
 10
41.688123
 20
235.438027
 30
0.0
 40
0.211418
 50
117.622824
 51
-78.873118
  0
ARC
  8
WHITE
  6
CONTINUOUS
  5
252
 10
43.121585
 20
232.183825
 30
0.0
 40
3.766899
 50
18.423314
 51
113.989178
  0
LINE
  8
WHITE
  6
CONTINUOUS
  5
253
 10
46.695421
 20
233.374297
 30
0.0
 11
53.438199
 21
215.285212
 31
0.0
  0
LINE
  8
WHITE
  6
CONTINUOUS
  5
254
 10
53.438199
 20
215.285212
 30
0.0
 11
52.882952
 21
215.076988
 31
0.0
  0
LINE
  8
WHITE
  6
CONTINUOUS
  5
255
 10
52.882952
 20
215.076988
 30
0.0
 11
46.184136
 21
233.021911
 31
0.0
  0
LINE
  8
WHITE
  6
CONTINUOUS
  5
256
 10
70.07168
 20
99.746479
 30
0.0
 11
58.841866
 21
111.327223
 31
0.0
  0
ARC
  8
WHITE
  6
CONTINUOUS
  5
257
 10
58.605901
 20
110.994836
 30
0.0
 40
0.407628
 50
54.628622
 51
-140.51819
  0
LINE
  8
WHITE
  6
CONTINUOUS
  5
258
 10
58.291283
 20
110.735653
 30
0.0
 11
69.456286
 21
99.043173
 31
0.0
  0
ARC
  8
WHITE
  6
CONTINUOUS
  5
259
 10
69.808627
 20
99.355763
 30
0.0
 40
0.471017
 50
-138.421193
 51
56.04924
  0
CIRCLE
  8
WHITE
  6
CONTINUOUS
  5
25A
 10
104.229067
 20
165.240302
 30
0.0
 40
2.138842
  0
ARC
  8
WHITE
  6
CONTINUOUS
  5
25B
 10
35.174482
 20
198.876766
 30
0.0
 40
4.10621
 50
-161.092283
 51
-57.792914
  0
ARC
  8
WHITE
  6
CONTINUOUS
  5
25C
 10
37.49177
 20
195.176749
 30
0.0
 40
0.259793
 50
-62.0647
 51
119.710199
  0
ARC
  8
WHITE
  6
CONTINUOUS
  5
25D
 10
35.157146
 20
198.672813
 30
0.0
 40
4.462459
 50
-81.708652
 51
-56.602572
  0
ARC
  8
WHITE
  6
CONTINUOUS
  5
25E
 10
43.404941
 20
196.300667
 30
0.0
 40
7.874112
 50
-164.957059
 51
-95.376608
  0
ARC
  8
WHITE
  6
CONTINUOUS
  5
25F
 10
42.606281
 20
187.938722
 30
0.0
 40
0.526007
 50
-86.937408
 51
83.357938
  0
ARC
  8
WHITE
  6
CONTINUOUS
  5
260
 10
43.399692
 20
195.561682
 30
0.0
 40
8.184077
 50
-170.518997
 51
-95.365673
  0
ARC
  8
WHITE
  6
CONTINUOUS
  5
261
 10
35.157186
 20
198.672814
 30
0.0
 40
4.462465
 50
-163.42252
 51
-87.813856
  0
ARC
  8
WHITE
  6
CONTINUOUS
  5
262
 10
31.08084
 20
197.484579
 30
0.0
 40
0.217882
 50
16.420169
 51
-157.049999
  0
ARC
  8
WHITE
  6
CONTINUOUS
  5
263
 10
104.794524
 20
282.208986
 30
0.0
 40
0.41296
 50
-160.467404
 51
-10.504602
  0
ARC
  8
WHITE
  6
CONTINUOUS
  5
264
 10
110.942458
 20
282.520132
 30
0.0
 40
5.754884
 50
137.241959
 51
-176.149748
  0
ARC
  8
WHITE
  6
CONTINUOUS
  5
265
 10
107.818407
 20
285.40879
 30
0.0
 40
1.5
 50
55.365029
 51
137.242004
  0
ARC
  8
WHITE
  6
CONTINUOUS
  5
266
 10
106.053415
 20
282.853539
 30
0.0
 40
4.60556
 50
-14.310893
 51
55.365649
  0
ARC
  8
WHITE
  6
CONTINUOUS
  5
267
 10
110.809976
 20
281.604202
 30
0.0
 40
0.31415
 50
159.3243
 51
4.969836
  0
ARC
  8
WHITE
  6
CONTINUOUS
  5
268
 10
105.691621
 20
282.696084
 30
0.0
 40
5.53469
 50
-11.090685
 51
52.530353
  0
ARC
  8
WHITE
  6
CONTINUOUS
  5
269
 10
107.841912
 20
285.50152
 30
0.0
 40
1.999973
 50
52.529528
 51
137.146585
  0
ARC
  8
WHITE
  6
CONTINUOUS
  5
26A
 10
110.989059
 20
282.581613
 30
0.0
 40
6.293036
 50
137.145501
 51
177.726008
  0
LINE
  8
WHITE
  6
CONTINUOUS
  5
26B
 10
104.700979
 20
282.83131
 30
0.0
 11
102.731153
 21
289.855856
 31
0.0
  0
ARC
  8
WHITE
  6
CONTINUOUS
  5
26C
 10
102.468588
 20
289.801594
 30
0.0
 40
0.268113
 50
11.67652
 51
-144.678683
  0
LINE
  8
WHITE
  6
CONTINUOUS
  5
26D
 10
102.249829
 20
289.646581
 30
0.0
 11
104.405329
 21
282.070916
 31
0.0
  0
ARC
  8
WHITE
  6
CONTINUOUS
  5
26E
 10
56.488328
 20
84.995896
 30
0.0
 40
3.588526
 50
109.597401
 51
-142.11779
  0
ARC
  8
WHITE
  6
CONTINUOUS
  5
26F
 10
53.957473
 20
83.064059
 30
0.0
 40
0.405819
 50
-137.977946
 51
21.534015
  0
ARC
  8
WHITE
  6
CONTINUOUS
  5
270
 10
56.850703
 20
84.882612
 30
0.0
 40
3.019352
 50
117.442543
 51
-146.429337
  0
ARC
  8
WHITE
  6
CONTINUOUS
  5
271
 10
64.867183
 20
59.3679
 30
0.0
 40
29.722532
 50
96.487939
 51
108.453003
  0
ARC
  8
WHITE
  6
CONTINUOUS
  5
272
 10
61.479629
 20
89.278172
 30
0.0
 40
0.37921
 50
-85.601278
 51
94.398722
  0
ARC
  8
WHITE
  6
CONTINUOUS
  5
273
 10
61.889327
 20
72.048401
 30
0.0
 40
17.613331
 50
91.427496
 51
112.02299
  0
ARC
  8
WHITE
  6
CONTINUOUS
  5
274
 10
44.949243
 20
216.822715
 30
0.0
 40
4.194173
 50
146.173923
 51
-41.884702
  0
LINE
  8
WHITE
  6
CONTINUOUS
  5
275
 10
48.071764
 20
214.022542
 30
0.0
 11
49.487541
 21
211.968602
 31
0.0
  0
LINE
  8
WHITE
  6
CONTINUOUS
  5
276
 10
49.487541
 20
211.968602
 30
0.0
 11
49.54098
 21
210.524989
 31
0.0
  0
LINE
  8
WHITE
  6
CONTINUOUS
  5
277
 10
49.54098
 20
210.524989
 30
0.0
 11
50.055102
 21
210.6338
 31
0.0
  0
LINE
  8
WHITE
  6
CONTINUOUS
  5
278
 10
50.055102
 20
210.6338
 30
0.0
 11
50.020739
 21
212.335004
 31
0.0
  0
LINE
  8
WHITE
  6
CONTINUOUS
  5
279
 10
50.020739
 20
212.335004
 30
0.0
 11
47.933723
 21
215.026353
 31
0.0
  0
ARC
  8
WHITE
  6
CONTINUOUS
  5
27A
 10
44.949243
 20
216.822715
 30
0.0
 40
3.483394
 50
146.238102
 51
-31.043784
  0
ARC
  8
WHITE
  6
CONTINUOUS
  5
27B
 10
41.792428
 20
219.007102
 30
0.0
 40
0.360306
 50
-43.609406
 51
155.328202
  0
ARC
  8
WHITE
  6
CONTINUOUS
  5
27C
 10
55.814046
 20
142.323548
 30
0.0
 40
20.982
 50
-178.218506
 51
-143.661663
  0
ARC
  8
WHITE
  6
CONTINUOUS
  5
27D
 10
39.294581
 20
130.070938
 30
0.0
 40
0.422608
 50
-154.742347
 51
45.871075
  0
ARC
  8
WHITE
  6
CONTINUOUS
  5
27E
 10
55.04727
 20
141.983751
 30
0.0
 40
19.332439
 50
-178.9236
 51
-143.093004
  0
ARC
  8
WHITE
  6
CONTINUOUS
  5
27F
 10
35.280423
 20
141.649542
 30
0.0
 40
0.438776
 50
-3.784742
 51
177.162702
  0
LINE
  8
WHITE
  6
CONTINUOUS
  5
280
 10
68.75298
 20
94.647499
 30
0.0
 11
62.511125
 21
101.153092
 31
0.0
  0
ARC
  8
WHITE
  6
CONTINUOUS
  5
281
 10
62.930988
 20
101.426694
 30
0.0
 40
0.501142
 50
43.61726
 51
-146.909889
  0
LINE
  8
WHITE
  6
CONTINUOUS
  5
282
 10
63.293793
 20
101.772397
 30
0.0
 11
69.456286
 21
95.438718
 31
0.0
  0
ARC
  8
WHITE
  6
CONTINUOUS
  5
283
 10
69.181762
 20
94.974549
 30
0.0
 40
0.539274
 50
-142.665746
 51
59.39865
  0
LINE
  8
WHITE
  6
CONTINUOUS
  5
284
 10
68.549722
 20
214.522419
 30
0.0
 11
75.870993
 21
211.291415
 31
0.0
  0
LINE
  8
WHITE
  6
CONTINUOUS
  5
285
 10
75.870993
 20
211.291415
 30
0.0
 11
75.252293
 21
209.297787
 31
0.0
  0
LINE
  8
WHITE
  6
CONTINUOUS
  5
286
 10
75.252293
 20
209.297787
 30
0.0
 11
68.06852
 21
213.422486
 31
0.0
  0
LINE
  8
WHITE
  6
CONTINUOUS
  5
287
 10
68.06852
 20
213.422486
 30
0.0
 11
67.931022
 21
213.044409
 31
0.0
  0
LINE
  8
WHITE
  6
CONTINUOUS
  5
288
 10
67.931022
 20
213.044409
 30
0.0
 11
75.630382
 21
208.47291
 31
0.0
  0
LINE
  8
WHITE
  6
CONTINUOUS
  5
289
 10
75.630382
 20
208.47291
 30
0.0
 11
76.52406
 21
211.703987
 31
0.0
  0
LINE
  8
WHITE
  6
CONTINUOUS
  5
28A
 10
76.52406
 20
211.703987
 30
0.0
 11
68.721581
 21
214.934991
 31
0.0
  0
LINE
  8
WHITE
  6
CONTINUOUS
  5
28B
 10
68.721581
 20
214.934991
 30
0.0
 11
68.549722
 21
214.522419
 31
0.0
  0
LINE
  8
WHITE
  6
CONTINUOUS
  5
28C
 10
61.65517
 20
324.370002
 30
0.0
 11
64.90672
 21
338.992692
 31
0.0
  0
ARC
  8
WHITE
  6
CONTINUOUS
  5
28D
 10
65.212056
 20
338.966689
 30
0.0
 40
0.306441
 50
-6.554348
 51
175.132401
  0
LINE
  8
WHITE
  6
CONTINUOUS
  5
28E
 10
65.516495
 20
338.93171
 30
0.0
 11
62.305463
 21
324.220205
 31
0.0
  0
ARC
  8
WHITE
  6
CONTINUOUS
  5
28F
 10
62.001116
 20
324.385396
 30
0.0
 40
0.346288
 50
-177.45204
 51
-28.491914
  0
LINE
  8
WHITE
  6
CONTINUOUS
  5
290
 10
63.014952
 20
313.227998
 30
0.0
 11
65.792744
 21
327.948006
 31
0.0
  0
ARC
  8
WHITE
  6
CONTINUOUS
  5
291
 10
66.098455
 20
327.927404
 30
0.0
 40
0.306404
 50
-3.855365
 51
176.144635
  0
LINE
  8
WHITE
  6
CONTINUOUS
  5
292
 10
66.404165
 20
327.906802
 30
0.0
 11
63.669739
 21
313.099203
 31
0.0
  0
ARC
  8
WHITE
  6
CONTINUOUS
  5
293
 10
63.360236
 20
313.254556
 30
0.0
 40
0.346304
 50
-175.601615
 51
-26.654142
  0
ARC
  8
WHITE
  6
CONTINUOUS
  5
294
 10
98.110959
 20
296.082276
 30
0.0
 40
5.311192
 50
6.140534
 51
125.404118
  0
ARC
  8
WHITE
  6
CONTINUOUS
  5
295
 10
95.273218
 20
300.209801
 30
0.0
 40
0.312829
 50
139.887098
 51
-80.194222
  0
ARC
  8
WHITE
  6
CONTINUOUS
  5
296
 10
98.09581
 20
296.005427
 30
0.0
 40
4.780044
 50
6.139953
 51
125.404785
  0
LINE
  8
WHITE
  6
CONTINUOUS
  5
297
 10
102.848434
 20
296.516688
 30
0.0
 11
102.806637
 21
291.802877
 31
0.0
  0
ARC
  8
WHITE
  6
CONTINUOUS
  5
298
 10
103.099158
 20
291.819203
 30
0.0
 40
0.292976
 50
-176.805558
 51
-3.185081
  0
LINE
  8
WHITE
  6
CONTINUOUS
  5
299
 10
103.391678
 20
291.802925
 30
0.0
 11
103.391678
 21
296.650401
 31
0.0
  0
ARC
  8
WHITE
  6
CONTINUOUS
  5
29A
 10
82.76603
 20
169.446852
 30
0.0
 40
28.7324
 50
158.1687
 51
-177.192002
  0
ARC
  8
WHITE
  6
CONTINUOUS
  5
29B
 10
54.395922
 20
168.046133
 30
0.0
 40
0.327865
 50
-178.801512
 51
1.198488
  0
ARC
  8
WHITE
  6
CONTINUOUS
  5
29C
 10
83.430343
 20
169.269687
 30
0.0
 40
28.7324
 50
158.168691
 51
-177.573037
  0
ARC
  8
WHITE
  6
CONTINUOUS
  5
29D
 10
56.426394
 20
180.043133
 30
0.0
 40
0.343766
 50
-14.932217
 51
165.067783
  0
ARC
  8
WHITE
  6
CONTINUOUS
  5
29E
 10
43.4814
 20
216.280597
 30
0.0
 40
20.823485
 50
37.246921
 51
82.656419
  0
ARC
  8
WHITE
  6
CONTINUOUS
  5
29F
 10
46.129019
 20
236.681104
 30
0.0
 40
0.252559
 50
86.818176
 51
-100.824642
  0
ARC
  8
WHITE
  6
CONTINUOUS
  5
2A0
 10
43.29336
 20
215.797098
 30
0.0
 40
20.823455
 50
38.132847
 51
82.305075
  0
ARC
  8
WHITE
  6
CONTINUOUS
  5
2A1
 10
59.866386
 20
228.767601
 30
0.0
 40
0.223886
 50
-149.896699
 51
31.336649
  0
ARC
  8
WHITE
  6
CONTINUOUS
  5
2A2
 10
67.892053
 20
172.930857
 30
0.0
 40
11.558501
 50
162.830796
 51
-137.533005
  0
ARC
  8
WHITE
  6
CONTINUOUS
  5
2A3
 10
59.555776
 20
165.381112
 30
0.0
 40
0.317349
 50
-126.786779
 51
36.784913
  0
ARC
  8
WHITE
  6
CONTINUOUS
  5
2A4
 10
68.231906
 20
172.965411
 30
0.0
 40
11.207353
 50
163.647659
 51
-138.717721
  0
ARC
  8
WHITE
  6
CONTINUOUS
  5
2A5
 10
57.167423
 20
176.243579
 30
0.0
 40
0.333892
 50
-21.581207
 51
162.7013
  0
ARC
  8
WHITE
  6
CONTINUOUS
  5
2A6
 10
39.504138
 20
228.866817
 30
0.0
 40
4.814914
 50
2.053406
 51
59.651219
  0
LINE
  8
WHITE
  6
CONTINUOUS
  5
2A7
 10
41.936933
 20
233.021922
 30
0.0
 11
41.752661
 21
232.711984
 31
0.0
  0
ARC
  8
WHITE
  6
CONTINUOUS
  5
2A8
 10
38.31775
 20
228.317411
 30
0.0
 40
5.577713
 50
6.231724
 51
51.987908
  0
ARC
  8
WHITE
  6
CONTINUOUS
  5
2A9
 10
44.797688
 20
229.152367
 30
0.0
 40
0.962933
 50
-166.211948
 51
-30.441304
  0
ARC
  8
WHITE
  6
CONTINUOUS
  5
2AA
 10
42.884991
 20
230.590189
 30
0.0
 40
3.35138
 50
-35.071502
 51
96.860775
  0
LINE
  8
WHITE
  6
CONTINUOUS
  5
2AB
 10
42.484645
 20
233.917571
 30
0.0
 11
42.408803
 21
233.535503
 31
0.0
  0
ARC
  8
WHITE
  6
CONTINUOUS
  5
2AC
 10
42.591263
 20
230.469215
 30
0.0
 40
3.071712
 50
-30.418388
 51
93.405388
  0
ARC
  8
WHITE
  6
CONTINUOUS
  5
2AD
 10
44.815421
 20
229.252092
 30
0.0
 40
0.542886
 50
-156.927795
 51
-38.521998
  0
ARC
  8
WHITE
  6
CONTINUOUS
  5
2AE
 10
123.24352
 20
178.141589
 30
0.0
 40
9.151902
 50
4.99271
 51
64.16912
  0
ARC
  8
WHITE
  6
CONTINUOUS
  5
2AF
 10
127.097886
 20
186.063231
 30
0.0
 40
0.342804
 50
67.123043
 51
-112.937507
  0
ARC
  8
WHITE
  6
CONTINUOUS
  5
2B0
 10
122.465853
 20
177.450748
 30
0.0
 40
9.437824
 50
8.872521
 51
61.533896
  0
ARC
  8
WHITE
  6
CONTINUOUS
  5
2B1
 10
132.073915
 20
178.954738
 30
0.0
 40
0.287264
 50
-170.3139
 51
-3.326266
  0
LINE
  8
WHITE
  6
CONTINUOUS
  5
2B2
 10
69.389727
 20
303.067276
 30
0.0
 11
71.150816
 21
312.603937
 31
0.0
  0
ARC
  8
WHITE
  6
CONTINUOUS
  5
2B3
 10
70.833952
 20
312.610013
 30
0.0
 40
0.316922
 50
-1.098511
 51
169.527939
  0
LINE
  8
WHITE
  6
CONTINUOUS
  5
2B4
 10
70.522306
 20
312.667616
 30
0.0
 11
68.734934
 21
303.196004
 31
0.0
  0
ARC
  8
WHITE
  6
CONTINUOUS
  5
2B5
 10
69.080195
 20
303.222504
 30
0.0
 40
0.346276
 50
-175.610952
 51
-26.633384
  0
ARC
  8
WHITE
  6
CONTINUOUS
  5
2B6
 10
22.973822
 20
197.103243
 30
0.0
 40
0.250696
 50
-111.813599
 51
97.542329
  0
ARC
  8
WHITE
  6
CONTINUOUS
  5
2B7
 10
26.437749
 20
196.57274
 30
0.0
 40
3.582559
 50
112.413501
 51
167.440655
  0
ARC
  8
WHITE
  6
CONTINUOUS
  5
2B8
 10
25.627178
 20
196.209753
 30
0.0
 40
3.716642
 50
98.594505
 51
155.793488
  0
ARC
  8
WHITE
  6
CONTINUOUS
  5
2B9
 10
29.770572
 20
214.055763
 30
0.0
 40
17.97666
 50
-122.292089
 51
-114.77506
  0
ARC
  8
WHITE
  6
CONTINUOUS
  5
2BA
 10
24.442041
 20
194.866479
 30
0.0
 40
5.849917
 50
101.029497
 51
136.955267
  0
ARC
  8
WHITE
  6
CONTINUOUS
  5
2BB
 10
22.71637
 20
195.944096
 30
0.0
 40
4.703512
 50
82.591318
 51
134.100404
  0
LINE
  8
WHITE
  6
CONTINUOUS
  5
2BC
 10
19.443112
 20
199.321789
 30
0.0
 11
19.02237
 21
198.685038
 31
0.0
  0
ARC
  8
WHITE
  6
CONTINUOUS
  5
2BD
 10
25.697461
 20
207.869166
 30
0.0
 40
11.353636
 50
-126.009924
 51
-104.364886
  0
LINE
  8
WHITE
  6
CONTINUOUS
  5
2BE
 10
64.913418
 20
303.915294
 30
0.0
 11
66.018761
 21
312.673928
 31
0.0
  0
ARC
  8
WHITE
  6
CONTINUOUS
  5
2BF
 10
65.711257
 20
312.756515
 30
0.0
 40
0.318401
 50
-15.033294
 51
177.519029
  0
LINE
  8
WHITE
  6
CONTINUOUS
  5
2C0
 10
65.39315
 20
312.770298
 30
0.0
 11
64.252346
 21
304.006395
 31
0.0
  0
ARC
  8
WHITE
  6
CONTINUOUS
  5
2C1
 10
64.595532
 20
304.05264
 30
0.0
 40
0.346288
 50
-172.325484
 51
-23.367293
  0
ARC
  8
WHITE
  6
CONTINUOUS
  5
2C2
 10
45.20604
 20
215.911288
 30
0.0
 40
17.795419
 50
33.27021
 51
81.469674
  0
ARC
  8
WHITE
  6
CONTINUOUS
  5
2C3
 10
47.886504
 20
233.710824
 30
0.0
 40
0.205082
 50
78.519418
 51
-101.480582
  0
ARC
  8
WHITE
  6
CONTINUOUS
  5
2C4
 10
45.398414
 20
216.448387
 30
0.0
 40
17.645574
 50
32.130372
 51
81.760174
  0
ARC
  8
WHITE
  6
CONTINUOUS
  5
2C5
 10
60.223696
 20
225.73622
 30
0.0
 40
0.152469
 50
-155.768929
 51
39.470856
  0
ARC
  8
WHITE
  6
CONTINUOUS
  5
2C6
 10
39.991891
 20
224.063027
 30
0.0
 40
2.182599
 50
-161.239862
 51
-41.752923
  0
ARC
  8
WHITE
  6
CONTINUOUS
  5
2C7
 10
39.45128
 20
221.404993
 30
0.0
 40
2.480948
 50
29.047832
 51
118.624807
  0
ARC
  8
WHITE
  6
CONTINUOUS
  5
2C8
 10
42.386389
 20
222.622348
 30
0.0
 40
4.234014
 50
126.668263
 51
166.890054
  0
ARC
  8
WHITE
  6
CONTINUOUS
  5
2C9
 10
39.742366
 20
226.120721
 30
0.0
 40
0.15429
 50
-41.503493
 51
121.114847
  0
ARC
  8
WHITE
  6
CONTINUOUS
  5
2CA
 10
42.888159
 20
222.347087
 30
0.0
 40
5.065442
 50
129.551409
 51
168.452503
  0
ARC
  8
WHITE
  6
CONTINUOUS
  5
2CB
 10
40.378636
 20
223.117667
 30
0.0
 40
2.724271
 50
-164.858445
 51
10.134969
  0
ARC
  8
WHITE
  6
CONTINUOUS
  5
2CC
 10
45.082719
 20
221.113902
 30
0.0
 40
3.202469
 50
44.035579
 51
129.160002
  0
ARC
  8
WHITE
  6
CONTINUOUS
  5
2CD
 10
47.239653
 20
223.246552
 30
0.0
 40
0.17277
 50
-126.672321
 51
32.725248
  0
ARC
  8
WHITE
  6
CONTINUOUS
  5
2CE
 10
45.12617
 20
221.026092
 30
0.0
 40
2.894055
 50
46.002233
 51
119.747806
  0
LINE
  8
WHITE
  6
CONTINUOUS
  5
2CF
 10
43.690188
 20
223.538762
 30
0.0
 11
46.738821
 21
221.401438
 31
0.0
  0
ARC
  8
WHITE
  6
CONTINUOUS
  5
2D0
 10
46.68115
 20
221.252193
 30
0.0
 40
0.16
 50
-111.373004
 51
68.872725
  0
LINE
  8
WHITE
  6
CONTINUOUS
  5
2D1
 10
46.62284
 20
221.103197
 30
0.0
 11
43.518322
 21
223.208396
 31
0.0
  0
ARC
  8
WHITE
  6
CONTINUOUS
  5
2D2
 10
40.615346
 20
222.938727
 30
0.0
 40
2.915474
 50
-169.473018
 51
5.307198
  0
LINE
  8
WHITE
  6
CONTINUOUS
  5
2D3
 10
65.547788
 20
288.989451
 30
0.0
 11
66.461538
 21
296.729805
 31
0.0
  0
ARC
  8
WHITE
  6
CONTINUOUS
  5
2D4
 10
66.159216
 20
296.853026
 30
0.0
 40
0.326469
 50
-22.174936
 51
-177.289903
  0
LINE
  8
WHITE
  6
CONTINUOUS
  5
2D5
 10
65.833112
 20
296.83759
 30
0.0
 11
64.886008
 21
289.07532
 31
0.0
  0
ARC
  8
WHITE
  6
CONTINUOUS
  5
2D6
 10
65.228813
 20
289.124213
 30
0.0
 40
0.346274
 50
-171.882904
 51
-22.903404
  0
ARC
  8
WHITE
  6
CONTINUOUS
  5
2D7
 10
66.282521
 20
139.703185
 30
0.0
 40
0.514362
 50
-3.210542
 51
-169.063767
  0
ARC
  8
WHITE
  6
CONTINUOUS
  5
2D8
 10
81.89766
 20
139.754333
 30
0.0
 40
16.120846
 50
-179.47138
 51
-161.960803
  0
ARC
  8
WHITE
  6
CONTINUOUS
  5
2D9
 10
67.011748
 20
134.865002
 30
0.0
 40
0.454294
 50
-166.924979
 51
24.029426
  0
ARC
  8
WHITE
  6
CONTINUOUS
  5
2DA
 10
81.53503
 20
139.329044
 30
0.0
 40
14.743
 50
178.657806
 51
-163.127503
  0
ARC
  8
WHITE
  6
CONTINUOUS
  5
2DB
 10
68.113233
 20
134.674887
 30
0.0
 40
17.707937
 50
-7.874996
 51
19.429678
  0
ARC
  8
WHITE
  6
CONTINUOUS
  5
2DC
 10
84.550441
 20
140.435057
 30
0.0
 40
0.292886
 50
26.431
 51
-174.53976
  0
ARC
  8
WHITE
  6
CONTINUOUS
  5
2DD
 10
67.559422
 20
134.516644
 30
0.0
 40
17.70792
 50
-7.143473
 51
19.42971
  0
ARC
  8
WHITE
  6
CONTINUOUS
  5
2DE
 10
85.396302
 20
132.315603
 30
0.0
 40
0.266413
 50
-179.781499
 51
-14.548006
  0
ARC
  8
WHITE
  6
CONTINUOUS
  5
2DF
 10
62.287659
 20
175.521748
 30
0.0
 40
9.880936
 50
142.749842
 51
-173.32029
  0
ARC
  8
WHITE
  6
CONTINUOUS
  5
2E0
 10
52.753399
 20
174.421803
 30
0.0
 40
0.283934
 50
-169.981291
 51
4.447258
  0
ARC
  8
WHITE
  6
CONTINUOUS
  5
2E1
 10
63.403446
 20
175.21915
 30
0.0
 40
10.39592
 50
145.341209
 51
-175.722895
  0
ARC
  8
WHITE
  6
CONTINUOUS
  5
2E2
 10
54.65444
 20
181.336703
 30
0.0
 40
0.285246
 50
-46.095053
 51
144.426889
  0
LINE
  8
WHITE
  6
CONTINUOUS
  5
2E3
 10
83.513398
 20
108.955704
 30
0.0
 11
87.712621
 21
111.831885
 31
0.0
  0
LINE
  8
WHITE
  6
CONTINUOUS
  5
2E4
 10
87.712621
 20
111.831885
 30
0.0
 11
87.712621
 21
109.444664
 31
0.0
  0
LINE
  8
WHITE
  6
CONTINUOUS
  5
2E5
 10
87.712621
 20
109.444664
 30
0.0
 11
84.71232
 21
107.108554
 31
0.0
  0
LINE
  8
WHITE
  6
CONTINUOUS
  5
2E6
 10
84.71232
 20
107.108554
 30
0.0
 11
84.468421
 21
107.551538
 31
0.0
  0
LINE
  8
WHITE
  6
CONTINUOUS
  5
2E7
 10
84.468421
 20
107.551538
 30
0.0
 11
87.258373
 21
109.695884
 31
0.0
  0
LINE
  8
WHITE
  6
CONTINUOUS
  5
2E8
 10
87.258373
 20
109.695884
 30
0.0
 11
87.258373
 21
111.055019
 31
0.0
  0
LINE
  8
WHITE
  6
CONTINUOUS
  5
2E9
 10
87.258373
 20
111.055019
 30
0.0
 11
83.785032
 21
108.61361
 31
0.0
  0
LINE
  8
WHITE
  6
CONTINUOUS
  5
2EA
 10
83.785032
 20
108.61361
 30
0.0
 11
83.513398
 21
108.955704
 31
0.0
  0
ARC
  8
WHITE
  6
CONTINUOUS
  5
2EB
 10
51.004421
 20
104.967539
 30
0.0
 40
4.514398
 50
151.2136
 51
-116.27749
  0
ARC
  8
WHITE
  6
CONTINUOUS
  5
2EC
 10
49.179724
 20
101.159023
 30
0.0
 40
0.295874
 50
-126.000551
 51
72.868543
  0
ARC
  8
WHITE
  6
CONTINUOUS
  5
2ED
 10
50.95142
 20
104.91386
 30
0.0
 40
3.859157
 50
148.610902
 51
-115.8811
  0
ARC
  8
WHITE
  6
CONTINUOUS
  5
2EE
 10
47.352479
 20
107.032659
 30
0.0
 40
0.323411
 50
-19.65261
 51
160.34739
  0
LINE
  8
WHITE
  6
CONTINUOUS
  5
2EF
 10
64.606019
 20
297.804206
 30
0.0
 11
66.530554
 21
303.440489
 31
0.0
  0
ARC
  8
WHITE
  6
CONTINUOUS
  5
2F0
 10
66.260823
 20
303.624393
 30
0.0
 40
0.326459
 50
-34.286286
 51
170.586305
  0
LINE
  8
WHITE
  6
CONTINUOUS
  5
2F1
 10
65.93876
 20
303.677789
 30
0.0
 11
63.973257
 21
297.994214
 31
0.0
  0
ARC
  8
WHITE
  6
CONTINUOUS
  5
2F2
 10
64.295758
 20
297.91959
 30
0.0
 40
0.331022
 50
166.971543
 51
-20.399835
  0
LINE
  8
WHITE
  6
CONTINUOUS
  5
2F3
 10
74.026842
 20
294.128152
 30
0.0
 11
75.463921
 21
299.90807
 31
0.0
  0
ARC
  8
WHITE
  6
CONTINUOUS
  5
2F4
 10
75.179495
 20
300.068312
 30
0.0
 40
0.326459
 50
-29.396301
 51
175.488829
  0
LINE
  8
WHITE
  6
CONTINUOUS
  5
2F5
 10
74.854049
 20
300.093989
 30
0.0
 11
73.380183
 21
294.263554
 31
0.0
  0
ARC
  8
WHITE
  6
CONTINUOUS
  5
2F6
 10
73.70794
 20
294.216998
 30
0.0
 40
0.331047
 50
171.915603
 51
-15.567901
  0
LINE
  8
WHITE
  6
CONTINUOUS
  5
2F7
 10
87.240302
 20
278.723297
 30
0.0
 11
88.677377
 21
284.503148
 31
0.0
  0
ARC
  8
WHITE
  6
CONTINUOUS
  5
2F8
 10
88.392951
 20
284.66339
 30
0.0
 40
0.326459
 50
-29.396301
 51
175.476304
  0
LINE
  8
WHITE
  6
CONTINUOUS
  5
2F9
 10
88.067509
 20
284.689138
 30
0.0
 11
86.593642
 21
278.858706
 31
0.0
  0
ARC
  8
WHITE
  6
CONTINUOUS
  5
2FA
 10
86.921385
 20
278.812074
 30
0.0
 40
0.331043
 50
171.902154
 51
-15.555581
  0
LINE
  8
WHITE
  6
CONTINUOUS
  5
2FB
 10
78.610482
 20
310.513605
 30
0.0
 11
79.52424
 21
314.56842
 31
0.0
  0
ARC
  8
WHITE
  6
CONTINUOUS
  5
2FC
 10
79.850183
 20
314.494902
 30
0.0
 40
0.334131
 50
-17.010497
 51
167.289365
  0
LINE
  8
WHITE
  6
CONTINUOUS
  5
2FD
 10
80.169697
 20
314.397153
 30
0.0
 11
79.260769
 21
310.363808
 31
0.0
  0
ARC
  8
WHITE
  6
CONTINUOUS
  5
2FE
 10
78.955684
 20
310.525782
 30
0.0
 40
0.345417
 50
-177.979649
 51
-27.964536
  0
LINE
  8
WHITE
  6
CONTINUOUS
  5
2FF
 10
86.570164
 20
286.116014
 30
0.0
 11
88.13861
 21
289.96504
 31
0.0
  0
ARC
  8
WHITE
  6
CONTINUOUS
  5
300
 10
88.448017
 20
289.838898
 30
0.0
 40
0.334132
 50
-26.4805
 51
157.819793
  0
LINE
  8
WHITE
  6
CONTINUOUS
  5
301
 10
88.747094
 20
289.689911
 30
0.0
 11
87.18695
 21
285.861088
 31
0.0
  0
ARC
  8
WHITE
  6
CONTINUOUS
  5
302
 10
86.913917
 20
286.074108
 30
0.0
 40
0.346301
 50
173.049522
 51
-37.96131
  0
LINE
  8
WHITE
  6
CONTINUOUS
  5
303
 10
90.398811
 20
291.301999
 30
0.0
 11
91.967252
 21
295.151157
 31
0.0
  0
ARC
  8
WHITE
  6
CONTINUOUS
  5
304
 10
92.276659
 20
295.025015
 30
0.0
 40
0.334132
 50
-26.4805
 51
157.819793
  0
LINE
  8
WHITE
  6
CONTINUOUS
  5
305
 10
92.575736
 20
294.876028
 30
0.0
 11
91.015593
 21
291.047206
 31
0.0
  0
ARC
  8
WHITE
  6
CONTINUOUS
  5
306
 10
90.742574
 20
291.260228
 30
0.0
 40
0.346291
 50
173.071868
 51
-37.962911
  0
LINE
  8
WHITE
  6
CONTINUOUS
  5
307
 10
111.097155
 20
270.790012
 30
0.0
 11
111.613031
 21
274.914337
 31
0.0
  0
ARC
  8
WHITE
  6
CONTINUOUS
  5
308
 10
111.944572
 20
274.872805
 30
0.0
 40
0.334132
 50
-11.440491
 51
172.859803
  0
LINE
  8
WHITE
  6
CONTINUOUS
  5
309
 10
112.272065
 20
274.80653
 30
0.0
 11
111.758927
 21
270.70398
 31
0.0
  0
ARC
  8
WHITE
  6
CONTINUOUS
  5
30A
 10
111.439976
 20
270.838798
 30
0.0
 40
0.346274
 50
-171.900762
 51
-22.91339
  0
LINE
  8
WHITE
  6
CONTINUOUS
  5
30B
 10
117.876018
 20
276.321672
 30
0.0
 11
117.846962
 21
280.478136
 31
0.0
  0
ARC
  8
WHITE
  6
CONTINUOUS
  5
30C
 10
118.181086
 20
280.480409
 30
0.0
 40
0.334132
 50
-3.910492
 51
-179.610198
  0
LINE
  8
WHITE
  6
CONTINUOUS
  5
30D
 10
118.51444
 20
280.457622
 30
0.0
 11
118.543344
 21
276.32315
 31
0.0
  0
ARC
  8
WHITE
  6
CONTINUOUS
  5
30E
 10
118.209476
 20
276.415008
 30
0.0
 40
0.346274
 50
-164.362907
 51
-15.383393
  0
LINE
  8
WHITE
  6
CONTINUOUS
  5
30F
 10
51.777423
 20
340.964605
 30
0.0
 11
52.691182
 21
345.019396
 31
0.0
  0
ARC
  8
WHITE
  6
CONTINUOUS
  5
310
 10
53.013913
 20
344.93379
 30
0.0
 40
0.333891
 50
-14.855815
 51
165.144185
  0
LINE
  8
WHITE
  6
CONTINUOUS
  5
311
 10
53.336643
 20
344.848185
 30
0.0
 11
52.427717
 21
340.814808
 31
0.0
  0
ARC
  8
WHITE
  6
CONTINUOUS
  5
312
 10
52.123383
 20
340.980059
 30
0.0
 40
0.346305
 50
-177.442362
 51
-28.501553
  0
LINE
  8
WHITE
  6
CONTINUOUS
  5
313
 10
54.486748
 20
328.94201
 30
0.0
 11
55.400506
 21
332.996801
 31
0.0
  0
ARC
  8
WHITE
  6
CONTINUOUS
  5
314
 10
55.723235
 20
332.91118
 30
0.0
 40
0.333894
 50
-14.858473
 51
165.141527
  0
LINE
  8
WHITE
  6
CONTINUOUS
  5
315
 10
56.045964
 20
332.825559
 30
0.0
 11
55.137041
 21
328.792189
 31
0.0
  0
ARC
  8
WHITE
  6
CONTINUOUS
  5
316
 10
54.832709
 20
328.957443
 30
0.0
 40
0.346305
 50
-177.445753
 51
-28.502217
  0
LINE
  8
WHITE
  6
CONTINUOUS
  5
317
 10
113.949694
 20
275.73112
 30
0.0
 11
114.48285
 21
279.85317
 31
0.0
  0
ARC
  8
WHITE
  6
CONTINUOUS
  5
318
 10
114.812136
 20
279.797941
 30
0.0
 40
0.333885
 50
-9.521228
 51
170.478772
  0
LINE
  8
WHITE
  6
CONTINUOUS
  5
319
 10
115.141422
 20
279.742712
 30
0.0
 11
114.611093
 21
275.642363
 31
0.0
  0
ARC
  8
WHITE
  6
CONTINUOUS
  5
31A
 10
114.292709
 20
275.778516
 30
0.0
 40
0.346274
 50
-172.132903
 51
-23.153403
  0
LINE
  8
WHITE
  6
CONTINUOUS
  5
31B
 10
156.588528
 20
195.331052
 30
0.0
 11
156.559484
 21
199.487448
 31
0.0
  0
ARC
  8
WHITE
  6
CONTINUOUS
  5
31C
 10
156.893221
 20
199.47719
 30
0.0
 40
0.333895
 50
-1.760619
 51
178.239381
  0
LINE
  8
WHITE
  6
CONTINUOUS
  5
31D
 10
157.226958
 20
199.466931
 30
0.0
 11
157.255857
 21
195.33253
 31
0.0
  0
ARC
  8
WHITE
  6
CONTINUOUS
  5
31E
 10
156.921987
 20
195.424409
 30
0.0
 40
0.346282
 50
-164.359589
 51
-15.386581
  0
LINE
  8
WHITE
  6
CONTINUOUS
  5
31F
 10
75.444783
 20
294.68521
 30
0.0
 11
76.262775
 21
298.315028
 31
0.0
  0
ARC
  8
WHITE
  6
CONTINUOUS
  5
320
 10
76.581324
 20
298.21111
 30
0.0
 40
0.335071
 50
-7.543952
 51
161.932484
  0
LINE
  8
WHITE
  6
CONTINUOUS
  5
321
 10
76.913492
 20
298.16712
 30
0.0
 11
76.095083
 21
294.535292
 31
0.0
  0
ARC
  8
WHITE
  6
CONTINUOUS
  5
322
 10
75.790758
 20
294.700585
 30
0.0
 40
0.346317
 50
-177.455471
 51
-28.50846
  0
LINE
  8
WHITE
  6
CONTINUOUS
  5
323
 10
82.262671
 20
309.19416
 30
0.0
 11
83.465866
 21
312.6455
 31
0.0
  0
ARC
  8
WHITE
  6
CONTINUOUS
  5
324
 10
83.150049
 20
312.757277
 30
0.0
 40
0.335014
 50
-19.490462
 51
168.024507
  0
LINE
  8
WHITE
  6
CONTINUOUS
  5
325
 10
82.822326
 20
312.826791
 30
0.0
 11
81.633589
 21
309.416797
 31
0.0
  0
ARC
  8
WHITE
  6
CONTINUOUS
  5
326
 10
81.979032
 20
309.392791
 30
0.0
 40
0.346276
 50
176.024714
 51
-35.003382
  0
LINE
  8
WHITE
  6
CONTINUOUS
  5
327
 10
71.195339
 20
288.993213
 30
0.0
 11
71.946341
 21
292.32581
 31
0.0
  0
ARC
  8
WHITE
  6
CONTINUOUS
  5
328
 10
71.635711
 20
292.457119
 30
0.0
 40
0.337243
 50
-22.91464
 51
173.286667
  0
LINE
  8
WHITE
  6
CONTINUOUS
  5
329
 10
71.30078
 20
292.496543
 30
0.0
 11
70.54505
 21
289.142967
 31
0.0
  0
ARC
  8
WHITE
  6
CONTINUOUS
  5
32A
 10
70.890982
 20
289.158357
 30
0.0
 40
0.346274
 50
-177.45259
 51
-28.484305
  0
ARC
  8
WHITE
  6
CONTINUOUS
  5
32B
 10
144.092125
 20
235.325801
 30
0.0
 40
0.346274
 50
-163.162911
 51
-14.183411
  0
LINE
  8
WHITE
  6
CONTINUOUS
  5
32C
 10
144.427843
 20
235.240955
 30
0.0
 11
144.337726
 21
238.477135
 31
0.0
  0
ARC
  8
WHITE
  6
CONTINUOUS
  5
32D
 10
144.00354
 20
238.481948
 30
0.0
 40
0.33422
 50
-0.825173
 51
-174.394476
  0
LINE
  8
WHITE
  6
CONTINUOUS
  5
32E
 10
143.670918
 20
238.449302
 30
0.0
 11
143.760695
 21
235.225502
 31
0.0
  0
ARC
  8
WHITE
  6
CONTINUOUS
  5
32F
 10
88.001275
 20
273.143539
 30
0.0
 40
0.346274
 50
-177.47281
 51
-28.4841
  0
LINE
  8
WHITE
  6
CONTINUOUS
  5
330
 10
88.305632
 20
272.978396
 30
0.0
 11
89.014922
 21
276.125902
 31
0.0
  0
ARC
  8
WHITE
  6
CONTINUOUS
  5
331
 10
88.692321
 20
276.213312
 30
0.0
 40
0.334234
 50
-15.160563
 51
171.335421
  0
LINE
  8
WHITE
  6
CONTINUOUS
  5
332
 10
88.361901
 20
276.263665
 30
0.0
 11
87.655337
 21
273.128271
 31
0.0
  0
LINE
  8
WHITE
  6
CONTINUOUS
  5
333
 10
124.922898
 20
207.992682
 30
0.0
 11
126.17921
 21
210.950997
 31
0.0
  0
ARC
  8
WHITE
  6
CONTINUOUS
  5
334
 10
126.495209
 20
210.842147
 30
0.0
 40
0.334221
 50
-25.435961
 51
160.993051
  0
LINE
  8
WHITE
  6
CONTINUOUS
  5
335
 10
126.797033
 20
210.698598
 30
0.0
 11
125.535869
 21
207.72889
 31
0.0
  0
ARC
  8
WHITE
  6
CONTINUOUS
  5
336
 10
125.265969
 20
207.945799
 30
0.0
 40
0.346259
 50
172.218323
 51
-38.787565
  0
LINE
  8
WHITE
  6
CONTINUOUS
  5
337
 10
128.296486
 20
212.995566
 30
0.0
 11
129.005798
 21
216.143045
 31
0.0
  0
ARC
  8
WHITE
  6
CONTINUOUS
  5
338
 10
128.68317
 20
216.230309
 30
0.0
 40
0.334221
 50
-15.135192
 51
171.316106
  0
LINE
  8
WHITE
  6
CONTINUOUS
  5
339
 10
128.35278
 20
216.280771
 30
0.0
 11
127.646192
 21
213.145377
 31
0.0
  0
ARC
  8
WHITE
  6
CONTINUOUS
  5
33A
 10
127.992127
 20
213.160705
 30
0.0
 40
0.346274
 50
-177.462909
 51
-28.483395
  0
LINE
  8
WHITE
  6
CONTINUOUS
  5
33B
 10
148.180817
 20
169.925917
 30
0.0
 11
149.51723
 21
172.862533
 31
0.0
  0
ARC
  8
WHITE
  6
CONTINUOUS
  5
33C
 10
149.219186
 20
173.013773
 30
0.0
 40
0.334221
 50
-26.905213
 51
159.546224
  0
LINE
  8
WHITE
  6
CONTINUOUS
  5
33D
 10
148.906039
 20
173.130566
 30
0.0
 11
147.574762
 21
170.205224
 31
0.0
  0
ARC
  8
WHITE
  6
CONTINUOUS
  5
33E
 10
147.916556
 20
170.149689
 30
0.0
 40
0.346277
 50
170.771186
 51
-40.257435
  0
LINE
  8
WHITE
  6
CONTINUOUS
  5
33F
 10
151.061177
 20
171.069112
 30
0.0
 11
152.417949
 21
173.982743
 31
0.0
  0
ARC
  8
WHITE
  6
CONTINUOUS
  5
340
 10
152.730067
 20
173.863225
 30
0.0
 40
0.334219
 50
-27.405212
 51
159.046873
  0
LINE
  8
WHITE
  6
CONTINUOUS
  5
341
 10
153.02678
 20
173.70939
 30
0.0
 11
151.664774
 21
170.784537
 31
0.0
  0
ARC
  8
WHITE
  6
CONTINUOUS
  5
342
 10
151.402461
 20
171.010576
 30
0.0
 40
0.346268
 50
170.267497
 51
-40.751993
  0
LINE
  8
WHITE
  6
CONTINUOUS
  5
343
 10
152.387403
 20
175.367595
 30
0.0
 11
153.530281
 21
178.371552
 31
0.0
  0
ARC
  8
WHITE
  6
CONTINUOUS
  5
344
 10
153.850214
 20
178.274874
 30
0.0
 40
0.334221
 50
-23.265197
 51
163.186101
  0
LINE
  8
WHITE
  6
CONTINUOUS
  5
345
 10
154.157258
 20
178.142861
 30
0.0
 11
153.009968
 21
175.127319
 31
0.0
  0
ARC
  8
WHITE
  6
CONTINUOUS
  5
346
 10
152.732029
 20
175.333847
 30
0.0
 40
0.346271
 50
174.407106
 51
-36.614915
  0
LINE
  8
WHITE
  6
CONTINUOUS
  5
347
 10
77.630849
 20
300.044499
 30
0.0
 11
78.591557
 21
302.966488
 31
0.0
  0
ARC
  8
WHITE
  6
CONTINUOUS
  5
348
 10
78.874243
 20
302.774591
 30
0.0
 40
0.341666
 50
-10.832489
 51
145.829987
  0
LINE
  8
WHITE
  6
CONTINUOUS
  5
349
 10
79.209824
 20
302.710378
 30
0.0
 11
78.26379
 21
299.833049
 31
0.0
  0
ARC
  8
WHITE
  6
CONTINUOUS
  5
34A
 10
77.97666
 20
300.0266
 30
0.0
 40
0.346274
 50
177.037098
 51
-33.983389
  0
ARC
  8
WHITE
  6
CONTINUOUS
  5
34B
 10
38.064722
 20
230.507393
 30
0.0
 40
1.992951
 50
62.270091
 51
-158.790391
  0
ARC
  8
WHITE
  6
CONTINUOUS
  5
34C
 10
37.539562
 20
231.095994
 30
0.0
 40
1.868537
 50
38.982346
 51
-135.502646
  0
LINE
  8
WHITE
  6
CONTINUOUS
  5
34D
 10
141.760267
 20
231.458391
 30
0.0
 11
142.935764
 21
233.988503
 31
0.0
  0
ARC
  8
WHITE
  6
CONTINUOUS
  5
34E
 10
142.645688
 20
234.15472
 30
0.0
 40
0.334324
 50
-29.81316
 51
156.582576
  0
LINE
  8
WHITE
  6
CONTINUOUS
  5
34F
 10
142.338901
 20
234.287589
 30
0.0
 11
141.156417
 21
231.742453
 31
0.0
  0
ARC
  8
WHITE
  6
CONTINUOUS
  5
350
 10
141.497758
 20
231.684211
 30
0.0
 40
0.346274
 50
170.317093
 51
-40.703393
  0
LINE
  8
WHITE
  6
CONTINUOUS
  5
351
 10
123.608419
 20
207.687275
 30
0.0
 11
123.141515
 21
210.241188
 31
0.0
  0
ARC
  8
WHITE
  6
CONTINUOUS
  5
352
 10
122.808044
 20
210.204006
 30
0.0
 40
0.335537
 50
6.362198
 51
-162.038186
  0
LINE
  8
WHITE
  6
CONTINUOUS
  5
353
 10
122.488858
 20
210.100531
 30
0.0
 11
122.951408
 21
207.570396
 31
0.0
  0
ARC
  8
WHITE
  6
CONTINUOUS
  5
354
 10
123.263697
 20
207.72
 30
0.0
 40
0.346274
 50
-154.402893
 51
-5.422927
  0
LINE
  8
WHITE
  6
CONTINUOUS
  5
355
 10
54.746091
 20
336.410971
 30
0.0
 11
55.620442
 21
338.822487
 31
0.0
  0
ARC
  8
WHITE
  6
CONTINUOUS
  5
356
 10
55.303146
 20
338.926219
 30
0.0
 40
0.333822
 50
-18.103907
 51
161.896093
  0
LINE
  8
WHITE
  6
CONTINUOUS
  5
357
 10
54.985849
 20
339.029952
 30
0.0
 11
54.119825
 21
336.641419
 31
0.0
  0
ARC
  8
WHITE
  6
CONTINUOUS
  5
358
 10
54.464935
 20
336.613102
 30
0.0
 40
0.34627
 50
175.309269
 51
-35.713393
  0
LINE
  8
WHITE
  6
CONTINUOUS
  5
359
 10
77.753564
 20
305.311097
 30
0.0
 11
79.157353
 21
307.458026
 31
0.0
  0
ARC
  8
WHITE
  6
CONTINUOUS
  5
35A
 10
78.872275
 20
307.631732
 30
0.0
 40
0.333831
 50
-31.355047
 51
148.644953
  0
LINE
  8
WHITE
  6
CONTINUOUS
  5
35B
 10
78.587197
 20
307.805437
 30
0.0
 11
77.196778
 21
305.679016
 31
0.0
  0
ARC
  8
WHITE
  6
CONTINUOUS
  5
35C
 10
77.526236
 20
305.572336
 30
0.0
 40
0.3463
 50
162.057776
 51
-48.970502
  0
LINE
  8
WHITE
  6
CONTINUOUS
  5
35D
 10
150.474386
 20
183.17802
 30
0.0
 11
149.971163
 21
185.427402
 31
0.0
  0
ARC
  8
WHITE
  6
CONTINUOUS
  5
35E
 10
149.642198
 20
185.368361
 30
0.0
 40
0.334221
 50
10.17486
 51
-163.372873
  0
LINE
  8
WHITE
  6
CONTINUOUS
  5
35F
 10
149.321954
 20
185.272727
 30
0.0
 11
149.824986
 21
183.024227
 31
0.0
  0
ARC
  8
WHITE
  6
CONTINUOUS
  5
360
 10
150.134247
 20
183.166315
 30
0.0
 40
0.34034
 50
-155.323899
 51
1.970974
  0
LINE
  8
WHITE
  6
CONTINUOUS
  5
361
 10
35.836382
 20
225.311296
 30
0.0
 11
36.101509
 21
225.298603
 31
0.0
  0
LINE
  8
WHITE
  6
CONTINUOUS
  5
362
 10
36.101509
 20
225.298603
 30
0.0
 11
36.758031
 21
227.015711
 31
0.0
  0
ARC
  8
WHITE
  6
CONTINUOUS
  5
363
 10
36.84746
 20
227.003295
 30
0.0
 40
0.090287
 50
-34.169801
 51
172.095999
  0
LINE
  8
WHITE
  6
CONTINUOUS
  5
364
 10
36.922161
 20
226.952586
 30
0.0
 11
36.013137
 21
224.339092
 31
0.0
  0
ARC
  8
WHITE
  6
CONTINUOUS
  5
365
 10
35.92476
 20
224.389598
 30
0.0
 40
0.101791
 50
172.89174
 51
-29.747018
  0
LINE
  8
WHITE
  6
CONTINUOUS
  5
366
 10
35.823752
 20
224.402194
 30
0.0
 11
36.025763
 21
225.033503
 31
0.0
  0
ARC
  8
WHITE
  6
CONTINUOUS
  5
367
 10
35.95632
 20
225.0714
 30
0.0
 40
0.07911
 50
-28.622714
 51
151.377286
  0
LINE
  8
WHITE
  6
CONTINUOUS
  5
368
 10
35.886878
 20
225.109297
 30
0.0
 11
35.139447
 21
223.579332
 31
0.0
  0
ARC
  8
WHITE
  6
CONTINUOUS
  5
369
 10
35.679645
 20
221.767389
 30
0.0
 40
1.890753
 50
57.068359
 51
106.601
  0
ARC
  8
WHITE
  6
CONTINUOUS
  5
36A
 10
35.73626
 20
224.749799
 30
0.0
 40
1.700201
 50
-127.014216
 51
-55.161295
  0
ARC
  8
WHITE
  6
CONTINUOUS
  5
36B
 10
35.679278
 20
221.76728
 30
0.0
 40
1.890673
 50
115.903655
 51
120.745527
  0
LINE
  8
WHITE
  6
CONTINUOUS
  5
36C
 10
34.85332
 20
223.467997
 30
0.0
 11
35.836382
 21
225.311296
 31
0.0
  0
LINE
  8
WHITE
  6
CONTINUOUS
  5
36D
 10
151.630259
 20
179.569353
 30
0.0
 11
152.073104
 21
181.534487
 31
0.0
  0
ARC
  8
WHITE
  6
CONTINUOUS
  5
36E
 10
151.750476
 20
181.621751
 30
0.0
 40
0.334221
 50
-15.135192
 51
171.316106
  0
LINE
  8
WHITE
  6
CONTINUOUS
  5
36F
 10
151.420086
 20
181.672213
 30
0.0
 11
150.972447
 21
179.685798
 31
0.0
  0
ARC
  8
WHITE
  6
CONTINUOUS
  5
370
 10
151.305764
 20
179.652492
 30
0.0
 40
0.334977
 50
174.29376
 51
-14.370557
  0
LINE
  8
WHITE
  6
CONTINUOUS
  5
371
 10
153.339998
 20
187.505294
 30
0.0
 11
153.764318
 21
189.388161
 31
0.0
  0
ARC
  8
WHITE
  6
CONTINUOUS
  5
372
 10
153.441508
 20
189.47898
 30
0.0
 40
0.335342
 50
-15.713363
 51
174.835007
  0
LINE
  8
WHITE
  6
CONTINUOUS
  5
373
 10
153.107527
 20
189.509169
 30
0.0
 11
152.689709
 21
187.655121
 31
0.0
  0
ARC
  8
WHITE
  6
CONTINUOUS
  5
374
 10
153.035644
 20
187.670449
 30
0.0
 40
0.346274
 50
-177.462909
 51
-28.486078
  0
LINE
  8
WHITE
  6
CONTINUOUS
  5
375
 10
52.314818
 20
329.074415
 30
0.0
 11
52.315173
 21
330.07788
 31
0.0
  0
ARC
  8
WHITE
  6
CONTINUOUS
  5
376
 10
51.980315
 20
330.00988
 30
0.0
 40
0.341693
 50
11.479017
 51
166.647427
  0
LINE
  8
WHITE
  6
CONTINUOUS
  5
377
 10
51.647859
 20
330.088791
 30
0.0
 11
51.647514
 21
329.077806
 31
0.0
  0
ARC
  8
WHITE
  6
CONTINUOUS
  5
378
 10
51.981637
 20
329.168743
 30
0.0
 40
0.346277
 50
-164.774835
 51
-15.807473
  0
ARC
  8
WHITE
  6
CONTINUOUS
  5
379
 10
44.015639
 20
203.323781
 30
0.0
 40
4.930425
 50
-178.87751
 51
-128.639808
  0
ARC
  8
WHITE
  6
CONTINUOUS
  5
37A
 10
44.386832
 20
202.918864
 30
0.0
 40
3.049564
 50
162.237703
 51
-123.265498
  0
ARC
  8
WHITE
  6
CONTINUOUS
  5
37B
 10
48.570891
 20
205.695245
 30
0.0
 40
5.96445
 50
179.2178
 51
-121.008414
  0
ARC
  8
WHITE
  6
CONTINUOUS
  5
37C
 10
49.153011
 20
206.376114
 30
0.0
 40
4.978351
 50
168.960904
 51
-106.405504
  0
ARC
  8
WHITE
  6
CONTINUOUS
  5
37D
 10
52.507115
 20
209.079002
 30
0.0
 40
6.610187
 50
-174.572906
 51
-99.749207
  0
ENDSEC
  0
EOF
