  0
SECTION
  2
HEADER
  9
$ACADVER
  1
AC1018
  9
$ACADMAINTVER
 70
     0
  9
$DWGCODEPAGE
  3
ANSI_1252
  9
$INSBASE
 10
0.0
 20
0.0
 30
0.0
  9
$EXTMIN
 10
-29.6514
 20
-13.32921
 30
0.0
  9
$EXTMAX
 10
25.37012
 20
14.65125
 30
0.0
  9
$LIMMIN
 10
0.0
 20
0.0
  9
$LIMMAX
 10
12.0
 20
9.0
  9
$ORTHOMODE
 70
     0
  9
$REGENMODE
 70
     1
  9
$FILLMODE
 70
     1
  9
$QTEXTMODE
 70
     0
  9
$MIRRTEXT
 70
     1
  9
$LTSCALE
 40
1.0
  9
$ATTMODE
 70
     1
  9
$TEXTSIZE
 40
0.2
  9
$TRACEWID
 40
0.05
  9
$TEXTSTYLE
  7
Standard
  9
$CLAYER
  8
0
  9
$CELTYPE
  6
ByLayer
  9
$CECOLOR
 62
   256
  9
$CELTSCALE
 40
1.0
  9
$DISPSILH
 70
     0
  9
$DIMSCALE
 40
1.0
  9
$DIMASZ
 40
0.18
  9
$DIMEXO
 40
0.0625
  9
$DIMDLI
 40
0.38
  9
$DIMRND
 40
0.0
  9
$DIMDLE
 40
0.0
  9
$DIMEXE
 40
0.18
  9
$DIMTP
 40
0.0
  9
$DIMTM
 40
0.0
  9
$DIMTXT
 40
0.18
  9
$DIMCEN
 40
0.09
  9
$DIMTSZ
 40
0.0
  9
$DIMTOL
 70
     0
  9
$DIMLIM
 70
     0
  9
$DIMTIH
 70
     1
  9
$DIMTOH
 70
     1
  9
$DIMSE1
 70
     0
  9
$DIMSE2
 70
     0
  9
$DIMTAD
 70
     0
  9
$DIMZIN
 70
     0
  9
$DIMBLK
  1

  9
$DIMASO
 70
     1
  9
$DIMSHO
 70
     1
  9
$DIMPOST
  1

  9
$DIMAPOST
  1

  9
$DIMALT
 70
     0
  9
$DIMALTD
 70
     2
  9
$DIMALTF
 40
25.4
  9
$DIMLFAC
 40
1.0
  9
$DIMTOFL
 70
     0
  9
$DIMTVP
 40
0.0
  9
$DIMTIX
 70
     0
  9
$DIMSOXD
 70
     0
  9
$DIMSAH
 70
     0
  9
$DIMBLK1
  1

  9
$DIMBLK2
  1

  9
$DIMSTYLE
  2
Standard
  9
$DIMCLRD
 70
     0
  9
$DIMCLRE
 70
     0
  9
$DIMCLRT
 70
     0
  9
$DIMTFAC
 40
1.0
  9
$DIMGAP
 40
0.09
  9
$DIMJUST
 70
     0
  9
$DIMSD1
 70
     0
  9
$DIMSD2
 70
     0
  9
$DIMTOLJ
 70
     1
  9
$DIMTZIN
 70
     0
  9
$DIMALTZ
 70
     0
  9
$DIMALTTZ
 70
     0
  9
$DIMUPT
 70
     0
  9
$DIMDEC
 70
     4
  9
$DIMTDEC
 70
     4
  9
$DIMALTU
 70
     2
  9
$DIMALTTD
 70
     2
  9
$DIMTXSTY
  7
Standard
  9
$DIMAUNIT
 70
     0
  9
$DIMADEC
 70
     0
  9
$DIMALTRND
 40
0.0
  9
$DIMAZIN
 70
     0
  9
$DIMDSEP
 70
    46
  9
$DIMATFIT
 70
     3
  9
$DIMFRAC
 70
     0
  9
$DIMLDRBLK
  1

  9
$DIMLUNIT
 70
     2
  9
$DIMLWD
 70
    -2
  9
$DIMLWE
 70
    -2
  9
$DIMTMOVE
 70
     0
  9
$LUNITS
 70
     2
  9
$LUPREC
 70
     4
  9
$SKETCHINC
 40
0.1
  9
$FILLETRAD
 40
0.5
  9
$AUNITS
 70
     0
  9
$AUPREC
 70
     0
  9
$MENU
  1
.
  9
$ELEVATION
 40
0.0
  9
$PELEVATION
 40
0.0
  9
$THICKNESS
 40
0.0
  9
$LIMCHECK
 70
     0
  9
$CHAMFERA
 40
0.5
  9
$CHAMFERB
 40
0.5
  9
$CHAMFERC
 40
1.0
  9
$CHAMFERD
 40
0.0
  9
$SKPOLY
 70
     0
  9
$TDCREATE
 40
2454279.80367603
  9
$TDUCREATE
 40
2454279.92867603
  9
$TDUPDATE
 40
2454279.803676042
  9
$TDUUPDATE
 40
2454279.928676042
  9
$TDINDWG
 40
0.0000000116
  9
$TDUSRTIMER
 40
0.0000000116
  9
$USRTIMER
 70
     1
  9
$ANGBASE
 50
0.0
  9
$ANGDIR
 70
     0
  9
$PDMODE
 70
     0
  9
$PDSIZE
 40
0.0
  9
$PLINEWID
 40
0.0
  9
$SPLFRAME
 70
     0
  9
$SPLINETYPE
 70
     6
  9
$SPLINESEGS
 70
     8
  9
$HANDSEED
  5
6E
  9
$SURFTAB1
 70
     6
  9
$SURFTAB2
 70
     6
  9
$SURFTYPE
 70
     6
  9
$SURFU
 70
     6
  9
$SURFV
 70
     6
  9
$UCSBASE
  2

  9
$UCSNAME
  2

  9
$UCSORG
 10
0.0
 20
0.0
 30
0.0
  9
$UCSXDIR
 10
1.0
 20
0.0
 30
0.0
  9
$UCSYDIR
 10
0.0
 20
1.0
 30
0.0
  9
$UCSORTHOREF
  2

  9
$UCSORTHOVIEW
 70
     0
  9
$UCSORGTOP
 10
0.0
 20
0.0
 30
0.0
  9
$UCSORGBOTTOM
 10
0.0
 20
0.0
 30
0.0
  9
$UCSORGLEFT
 10
0.0
 20
0.0
 30
0.0
  9
$UCSORGRIGHT
 10
0.0
 20
0.0
 30
0.0
  9
$UCSORGFRONT
 10
0.0
 20
0.0
 30
0.0
  9
$UCSORGBACK
 10
0.0
 20
0.0
 30
0.0
  9
$PUCSBASE
  2

  9
$PUCSNAME
  2

  9
$PUCSORG
 10
0.0
 20
0.0
 30
0.0
  9
$PUCSXDIR
 10
1.0
 20
0.0
 30
0.0
  9
$PUCSYDIR
 10
0.0
 20
1.0
 30
0.0
  9
$PUCSORTHOREF
  2

  9
$PUCSORTHOVIEW
 70
     0
  9
$PUCSORGTOP
 10
0.0
 20
0.0
 30
0.0
  9
$PUCSORGBOTTOM
 10
0.0
 20
0.0
 30
0.0
  9
$PUCSORGLEFT
 10
0.0
 20
0.0
 30
0.0
  9
$PUCSORGRIGHT
 10
0.0
 20
0.0
 30
0.0
  9
$PUCSORGFRONT
 10
0.0
 20
0.0
 30
0.0
  9
$PUCSORGBACK
 10
0.0
 20
0.0
 30
0.0
  9
$USERI1
 70
     0
  9
$USERI2
 70
     0
  9
$USERI3
 70
     0
  9
$USERI4
 70
     0
  9
$USERI5
 70
     0
  9
$USERR1
 40
0.0
  9
$USERR2
 40
0.0
  9
$USERR3
 40
0.0
  9
$USERR4
 40
0.0
  9
$USERR5
 40
0.0
  9
$WORLDVIEW
 70
     1
  9
$SHADEDGE
 70
     3
  9
$SHADEDIF
 70
    70
  9
$TILEMODE
 70
     1
  9
$MAXACTVP
 70
    64
  9
$PINSBASE
 10
0.0
 20
0.0
 30
0.0
  9
$PLIMCHECK
 70
     0
  9
$PEXTMIN
 10
1.000000000000000E+20
 20
1.000000000000000E+20
 30
1.000000000000000E+20
  9
$PEXTMAX
 10
-1.000000000000000E+20
 20
-1.000000000000000E+20
 30
-1.000000000000000E+20
  9
$PLIMMIN
 10
0.0
 20
0.0
  9
$PLIMMAX
 10
12.0
 20
9.0
  9
$UNITMODE
 70
     0
  9
$VISRETAIN
 70
     1
  9
$PLINEGEN
 70
     0
  9
$PSLTSCALE
 70
     1
  9
$TREEDEPTH
 70
  3020
  9
$CMLSTYLE
  2
Standard
  9
$CMLJUST
 70
     0
  9
$CMLSCALE
 40
1.0
  9
$PROXYGRAPHICS
 70
     1
  9
$MEASUREMENT
 70
     0
  9
$CELWEIGHT
370
    -1
  9
$ENDCAPS
280
     0
  9
$JOINSTYLE
280
     0
  9
$LWDISPLAY
290
     0
  9
$INSUNITS
 70
     5
  9
$HYPERLINKBASE
  1

  9
$STYLESHEET
  1

  9
$XEDIT
290
     1
  9
$CEPSNTYPE
380
     0
  9
$PSTYLEMODE
290
     0
  9
$FINGERPRINTGUID
  2
{FAEB1C30-E019-11D5-929B-00C0DF256EC4}
  9
$VERSIONGUID
  2
{FAEB1C32-E019-11D5-929B-00C0DF256EC4}
  9
$EXTNAMES
290
     1
  9
$PSVPSCALE
 40
0.0
  9
$OLESTARTUP
290
     0
  9
$SORTENTS
280
   127
  9
$INDEXCTL
280
     0
  9
$HIDETEXT
280
     1
  9
$XCLIPFRAME
290
     0
  9
$HALOGAP
280
     0
  9
$OBSCOLOR
 70
   257
  9
$OBSLTYPE
280
     0
  9
$INTERSECTIONDISPLAY
280
     0
  9
$INTERSECTIONCOLOR
 70
   257
  9
$DIMASSOC
280
     2
  9
$PROJECTNAME
  1

  0
ENDSEC
  0
SECTION
  2
CLASSES
  0
CLASS
  1
ACDBDICTIONARYWDFLT
  2
AcDbDictionaryWithDefault
  3
ObjectDBX Classes
 90
        0
 91
        1
280
     0
281
     0
  0
ENDSEC
  0
SECTION
  2
TABLES
  0
TABLE
  2
VPORT
  5
8
330
0
100
AcDbSymbolTable
 70
     2
  0
VPORT
  5
29
330
8
100
AcDbSymbolTableRecord
100
AcDbViewportTableRecord
  2
*Active
 70
     0
 10
0.0
 20
0.0
 11
1.0
 21
1.0
 12
10.42990654205607
 22
4.5
 13
0.0
 23
0.0
 14
0.5
 24
0.5
 15
0.5
 25
0.5
 16
0.0
 26
0.0
 36
1.0
 17
0.0
 27
0.0
 37
0.0
 40
9.0
 41
1.972972972850329
 42
50.0
 43
0.0
 44
0.0
 50
0.0
 51
0.0
 71
     0
 72
   100
 73
     1
 74
     3
 75
     0
 76
     0
 77
     0
 78
     0
281
     0
 65
     1
110
0.0
120
0.0
130
0.0
111
1.0
121
0.0
131
0.0
112
0.0
122
1.0
132
0.0
 79
     0
146
0.0
  0
ENDTAB
  0
TABLE
  2
LTYPE
  5
5
330
0
100
AcDbSymbolTable
 70
     1
  0
LTYPE
  5
14
330
5
100
AcDbSymbolTableRecord
100
AcDbLinetypeTableRecord
  2
ByBlock
 70
     0
  3

 72
    65
 73
     0
 40
0.0
  0
LTYPE
  5
15
330
5
100
AcDbSymbolTableRecord
100
AcDbLinetypeTableRecord
  2
ByLayer
 70
     0
  3

 72
    65
 73
     0
 40
0.0
  0
LTYPE
  5
16
330
5
100
AcDbSymbolTableRecord
100
AcDbLinetypeTableRecord
  2
Continuous
 70
     0
  3
Solid line
 72
    65
 73
     0
 40
0.0
  0
ENDTAB
  0
TABLE
  2
LAYER
  5
2
330
0
100
AcDbSymbolTable
 70
     2
  0
LAYER
  5
10
330
2
100
AcDbSymbolTableRecord
100
AcDbLayerTableRecord
  2
0
 70
     0
 62
     7
  6
Continuous
370
    -3
390
F
  0
LAYER
  5
2B
330
2
100
AcDbSymbolTableRecord
100
AcDbLayerTableRecord
  2
Layer 1
 70
     0
 62
     7
  6
Continuous
370
    -3
390
F
  0
ENDTAB
  0
TABLE
  2
STYLE
  5
3
330
0
100
AcDbSymbolTable
 70
     1
  0
STYLE
  5
11
330
3
100
AcDbSymbolTableRecord
100
AcDbTextStyleTableRecord
  2
Standard
 70
     0
 40
0.0
 41
1.0
 50
0.0
 71
     0
 42
0.2
  3
txt
  4

  0
ENDTAB
  0
TABLE
  2
VIEW
  5
6
330
0
100
AcDbSymbolTable
 70
     0
  0
ENDTAB
  0
TABLE
  2
UCS
  5
7
330
0
100
AcDbSymbolTable
 70
     0
  0
ENDTAB
  0
TABLE
  2
APPID
  5
9
330
0
100
AcDbSymbolTable
 70
     2
  0
APPID
  5
12
330
9
100
AcDbSymbolTableRecord
100
AcDbRegAppTableRecord
  2
ACAD
 70
     0
  0
APPID
  5
2A
330
9
100
AcDbSymbolTableRecord
100
AcDbRegAppTableRecord
  2
ODA
 70
     0
  0
ENDTAB
  0
TABLE
  2
DIMSTYLE
  5
A
330
0
100
AcDbSymbolTable
 70
     1
100
AcDbDimStyleTable
  0
DIMSTYLE
105
27
330
A
100
AcDbSymbolTableRecord
100
AcDbDimStyleTableRecord
  2
Standard
 70
     0
340
11
  0
ENDTAB
  0
TABLE
  2
BLOCK_RECORD
  5
1
330
0
100
AcDbSymbolTable
 70
     1
  0
BLOCK_RECORD
  5
1F
330
1
100
AcDbSymbolTableRecord
100
AcDbBlockTableRecord
  2
*Model_Space
340
22
  0
BLOCK_RECORD
  5
1B
330
1
100
AcDbSymbolTableRecord
100
AcDbBlockTableRecord
  2
*Paper_Space
340
1E
  0
BLOCK_RECORD
  5
23
330
1
100
AcDbSymbolTableRecord
100
AcDbBlockTableRecord
  2
*Paper_Space0
340
26
  0
ENDTAB
  0
ENDSEC
  0
SECTION
  2
BLOCKS
  0
BLOCK
  5
20
330
1F
100
AcDbEntity
  8
0
100
AcDbBlockBegin
  2
*Model_Space
 70
     0
 71
     0
 10
0.0
 20
0.0
 30
0.0
  3
*Model_Space
  1

  0
ENDBLK
  5
21
330
1F
100
AcDbEntity
  8
0
100
AcDbBlockEnd
  0
BLOCK
  5
1C
330
1B
100
AcDbEntity
 67
     1
  8
0
100
AcDbBlockBegin
  2
*Paper_Space
 70
     0
 71
     0
 10
0.0
 20
0.0
 30
0.0
  3
*Paper_Space
  1

  0
ENDBLK
  5
1D
330
1B
100
AcDbEntity
 67
     1
  8
0
100
AcDbBlockEnd
  0
BLOCK
  5
24
330
23
100
AcDbEntity
  8
0
100
AcDbBlockBegin
  2
*Paper_Space0
 70
     0
 71
     0
 10
0.0
 20
0.0
 30
0.0
  3
*Paper_Space0
  1

  0
ENDBLK
  5
25
330
23
100
AcDbEntity
  8
0
100
AcDbBlockEnd
  0
ENDSEC
  0
SECTION
  2
ENTITIES
  0
SPLINE
  5
2C
330
1F
100
AcDbEntity
  8
Layer 1
 62
    22
370
     5
100
AcDbSpline
210
0.0
220
0.0
230
1.0
 70
    11
 71
     3
 72
    84
 73
    80
 74
     0
 42
0.0000000001
 43
0.0000000001
 40
0.0
 40
0.0
 40
0.0
 40
0.0
 40
0.05
 40
0.05
 40
0.05
 40
0.05
 40
0.1
 40
0.1
 40
0.1
 40
0.1
 40
0.15
 40
0.15
 40
0.15
 40
0.15
 40
0.2
 40
0.2
 40
0.2
 40
0.2
 40
0.25
 40
0.25
 40
0.25
 40
0.25
 40
0.3
 40
0.3
 40
0.3
 40
0.3
 40
0.35
 40
0.35
 40
0.35
 40
0.35
 40
0.4
 40
0.4
 40
0.4
 40
0.4
 40
0.45
 40
0.45
 40
0.45
 40
0.45
 40
0.4999999999999999
 40
0.4999999999999999
 40
0.4999999999999999
 40
0.4999999999999999
 40
0.5499999999999999
 40
0.5499999999999999
 40
0.5499999999999999
 40
0.5499999999999999
 40
0.6
 40
0.6
 40
0.6
 40
0.6
 40
0.65
 40
0.65
 40
0.65
 40
0.65
 40
0.7000000000000001
 40
0.7000000000000001
 40
0.7000000000000001
 40
0.7000000000000001
 40
0.7500000000000001
 40
0.7500000000000001
 40
0.7500000000000001
 40
0.7500000000000001
 40
0.8000000000000002
 40
0.8000000000000002
 40
0.8000000000000002
 40
0.8000000000000002
 40
0.8500000000000002
 40
0.8500000000000002
 40
0.8500000000000002
 40
0.8500000000000002
 40
0.9000000000000002
 40
0.9000000000000002
 40
0.9000000000000002
 40
0.9000000000000002
 40
0.9500000000000003
 40
0.9500000000000003
 40
0.9500000000000003
 40
0.9500000000000003
 40
1.0
 40
1.0
 40
1.0
 40
1.0
 10
-28.44543
 20
14.4212
 30
0.0
 10
-28.44543
 20
14.4212
 30
0.0
 10
-28.44475
 20
13.45328
 30
0.0
 10
-28.44475
 20
13.45328
 30
0.0
 10
-28.44475
 20
13.45328
 30
0.0
 10
-28.44586
 20
13.30784
 30
0.0
 10
-28.7466
 20
13.30936
 30
0.0
 10
-28.7442
 20
13.45252
 30
0.0
 10
-28.7442
 20
13.45252
 30
0.0
 10
-28.7442
 20
13.45252
 30
0.0
 10
-28.7442
 20
14.417
 30
0.0
 10
-28.7442
 20
14.417
 30
0.0
 10
-28.7442
 20
14.417
 30
0.0
 10
-28.7442
 20
14.417
 30
0.0
 10
-29.06584
 20
14.41776
 30
0.0
 10
-29.06584
 20
14.41776
 30
0.0
 10
-29.06584
 20
14.41776
 30
0.0
 10
-29.18741
 20
14.11894
 30
0.0
 10
-29.22756
 20
13.78105
 30
0.0
 10
-29.23584
 20
13.4822
 30
0.0
 10
-29.23584
 20
13.4822
 30
0.0
 10
-29.18604
 20
12.98412
 30
0.0
 10
-29.06072
 20
12.63708
 30
0.0
 10
-28.85988
 20
12.44108
 30
0.0
 10
-28.85988
 20
12.44108
 30
0.0
 10
-28.205
 20
12.33934
 30
0.0
 10
-28.0318
 20
12.23449
 30
0.0
 10
-27.50064
 20
11.86268
 30
0.0
 10
-27.50064
 20
11.86268
 30
0.0
 10
-26.45016
 20
12.48949
 30
0.0
 10
-26.29923
 20
12.53091
 30
0.0
 10
-25.33164
 20
11.83376
 30
0.0
 10
-25.33164
 20
11.83376
 30
0.0
 10
-25.19668
 20
11.92052
 30
0.0
 10
-25.06172
 20
12.00728
 30
0.0
 10
-24.92676
 20
12.09404
 30
0.0
 10
-24.92676
 20
12.09404
 30
0.0
 10
-24.18673
 20
11.38799
 30
0.0
 10
-24.24055
 20
11.40309
 30
0.0
 10
-23.76996
 20
12.12296
 30
0.0
 10
-23.76996
 20
12.12296
 30
0.0
 10
-23.6832
 20
12.02656
 30
0.0
 10
-23.38252
 20
11.86904
 30
0.0
 10
-23.29576
 20
11.77264
 30
0.0
 10
-23.29576
 20
11.77264
 30
0.0
 10
-22.49549
 20
12.64253
 30
0.0
 10
-21.83877
 20
12.59593
 30
0.0
 10
-21.04656
 20
12.0122
 30
0.0
 10
-21.04656
 20
12.0122
 30
0.0
 10
-20.72838
 20
12.41026
 30
0.0
 10
-20.34605
 20
12.55162
 30
0.0
 10
-19.83684
 20
12.47
 30
0.0
 10
-19.83684
 20
12.47
 30
0.0
 10
-19.46937
 20
12.76002
 30
0.0
 10
-19.40043
 20
13.11638
 30
0.0
 10
-19.37412
 20
13.4822
 30
0.0
 10
-19.37412
 20
13.4822
 30
0.0
 10
-19.37053
 20
13.83365
 30
0.0
 10
-19.46644
 20
14.0953
 30
0.0
 10
-19.57656
 20
14.40884
 30
0.0
 10
-19.57656
 20
14.40884
 30
0.0
 10
-19.57656
 20
14.40884
 30
0.0
 10
-19.89823
 20
14.40884
 30
0.0
 10
-19.89823
 20
14.40884
 30
0.0
 10
-19.89823
 20
14.40884
 30
0.0
 10
-19.89823
 20
14.40884
 30
0.0
 10
-19.89744
 20
13.45356
 30
0.0
 10
-19.89744
 20
13.45356
 30
0.0
 10
-19.89744
 20
13.45356
 30
0.0
 10
-19.89461
 20
13.30846
 30
0.0
 10
-20.1986
 20
13.31022
 30
0.0
 10
-20.19756
 20
13.45556
 30
0.0
 10
-20.19756
 20
13.45556
 30
0.0
 10
-20.19756
 20
13.45556
 30
0.0
 10
-20.19756
 20
14.4182
 30
0.0
 10
-20.19756
 20
14.4182
 30
0.0
 10
-20.19756
 20
14.4182
 30
0.0
 10
-24.15698
 20
12.68441
 30
0.0
 10
-24.54183
 20
12.6834
 30
0.0
 10
-28.44543
 20
14.4212
 30
0.0
  0
SPLINE
  5
2D
330
1F
100
AcDbEntity
  8
Layer 1
 62
    22
370
     5
100
AcDbSpline
210
0.0
220
0.0
230
1.0
 70
    11
 71
     3
 72
   100
 73
    96
 74
     0
 42
0.0000000001
 43
0.0000000001
 40
0.0
 40
0.0
 40
0.0
 40
0.0
 40
0.0416666666666667
 40
0.0416666666666667
 40
0.0416666666666667
 40
0.0416666666666667
 40
0.0833333333333333
 40
0.0833333333333333
 40
0.0833333333333333
 40
0.0833333333333333
 40
0.125
 40
0.125
 40
0.125
 40
0.125
 40
0.1666666666666667
 40
0.1666666666666667
 40
0.1666666666666667
 40
0.1666666666666667
 40
0.2083333333333333
 40
0.2083333333333333
 40
0.2083333333333333
 40
0.2083333333333333
 40
0.25
 40
0.25
 40
0.25
 40
0.25
 40
0.2916666666666666
 40
0.2916666666666666
 40
0.2916666666666666
 40
0.2916666666666666
 40
0.3333333333333333
 40
0.3333333333333333
 40
0.3333333333333333
 40
0.3333333333333333
 40
0.375
 40
0.375
 40
0.375
 40
0.375
 40
0.4166666666666667
 40
0.4166666666666667
 40
0.4166666666666667
 40
0.4166666666666667
 40
0.4583333333333334
 40
0.4583333333333334
 40
0.4583333333333334
 40
0.4583333333333334
 40
0.5
 40
0.5
 40
0.5
 40
0.5
 40
0.5416666666666666
 40
0.5416666666666666
 40
0.5416666666666666
 40
0.5416666666666666
 40
0.5833333333333333
 40
0.5833333333333333
 40
0.5833333333333333
 40
0.5833333333333333
 40
0.6249999999999999
 40
0.6249999999999999
 40
0.6249999999999999
 40
0.6249999999999999
 40
0.6666666666666665
 40
0.6666666666666665
 40
0.6666666666666665
 40
0.6666666666666665
 40
0.7083333333333332
 40
0.7083333333333332
 40
0.7083333333333332
 40
0.7083333333333332
 40
0.7499999999999998
 40
0.7499999999999998
 40
0.7499999999999998
 40
0.7499999999999998
 40
0.7916666666666664
 40
0.7916666666666664
 40
0.7916666666666664
 40
0.7916666666666664
 40
0.833333333333333
 40
0.833333333333333
 40
0.833333333333333
 40
0.833333333333333
 40
0.8749999999999997
 40
0.8749999999999997
 40
0.8749999999999997
 40
0.8749999999999997
 40
0.9166666666666663
 40
0.9166666666666663
 40
0.9166666666666663
 40
0.9166666666666663
 40
0.9583333333333329
 40
0.9583333333333329
 40
0.9583333333333329
 40
0.9583333333333329
 40
1.0
 40
1.0
 40
1.0
 40
1.0
 10
-28.55296
 20
11.17187
 30
0.0
 10
-28.55296
 20
11.17187
 30
0.0
 10
-28.89828
 20
11.17194
 30
0.0
 10
-28.89828
 20
11.17194
 30
0.0
 10
-28.89828
 20
11.17194
 30
0.0
 10
-28.99739
 20
11.17197
 30
0.0
 10
-29.0331
 20
11.13678
 30
0.0
 10
-29.03329
 20
11.02257
 30
0.0
 10
-29.03329
 20
11.02257
 30
0.0
 10
-29.03329
 20
11.02257
 30
0.0
 10
-29.03415
 20
10.31726
 30
0.0
 10
-29.03415
 20
10.31726
 30
0.0
 10
-29.03415
 20
10.31726
 30
0.0
 10
-29.03717
 20
10.19637
 30
0.0
 10
-29.01026
 20
10.17073
 30
0.0
 10
-28.88693
 20
10.1623
 30
0.0
 10
-28.88693
 20
10.1623
 30
0.0
 10
-28.88693
 20
10.1623
 30
0.0
 10
-27.78052
 20
10.10861
 30
0.0
 10
-27.78052
 20
10.10861
 30
0.0
 10
-27.78052
 20
10.10861
 30
0.0
 10
-27.55202
 20
10.16872
 30
0.0
 10
-27.5549
 20
10.70278
 30
0.0
 10
-27.139
 20
10.68215
 30
0.0
 10
-27.139
 20
10.68215
 30
0.0
 10
-26.8904
 20
10.62186
 30
0.0
 10
-26.66808
 20
10.4379
 30
0.0
 10
-26.42817
 20
10.44956
 30
0.0
 10
-26.42817
 20
10.44956
 30
0.0
 10
-26.24158
 20
10.45863
 30
0.0
 10
-26.04432
 20
10.64643
 30
0.0
 10
-25.81578
 20
10.71377
 30
0.0
 10
-25.81578
 20
10.71377
 30
0.0
 10
-25.19555
 20
10.78967
 30
0.0
 10
-25.05764
 20
9.7004
 30
0.0
 10
-24.09832
 20
10.50359
 30
0.0
 10
-24.09832
 20
10.50359
 30
0.0
 10
-22.99821
 20
9.74043
 30
0.0
 10
-23.00843
 20
10.87509
 30
0.0
 10
-22.30796
 20
10.65265
 30
0.0
 10
-22.30796
 20
10.65265
 30
0.0
 10
-21.39456
 20
10.37348
 30
0.0
 10
-21.91596
 20
10.22017
 30
0.0
 10
-21.21354
 20
10.77441
 30
0.0
 10
-21.21354
 20
10.77441
 30
0.0
 10
-20.79618
 20
10.82889
 30
0.0
 10
-20.5945
 20
10.38647
 30
0.0
 10
-20.34122
 20
10.23345
 30
0.0
 10
-20.34122
 20
10.23345
 30
0.0
 10
-20.34122
 20
10.23345
 30
0.0
 10
-19.34148
 20
10.23345
 30
0.0
 10
-19.34148
 20
10.23345
 30
0.0
 10
-19.34148
 20
10.23345
 30
0.0
 10
-19.21669
 20
10.23345
 30
0.0
 10
-19.19818
 20
10.25442
 30
0.0
 10
-19.19818
 20
10.36784
 30
0.0
 10
-19.19818
 20
10.36784
 30
0.0
 10
-19.19818
 20
10.36784
 30
0.0
 10
-19.19818
 20
11.01695
 30
0.0
 10
-19.19818
 20
11.01695
 30
0.0
 10
-19.19818
 20
11.01695
 30
0.0
 10
-19.19537
 20
11.13704
 30
0.0
 10
-19.21466
 20
11.1717
 30
0.0
 10
-19.33867
 20
11.17464
 30
0.0
 10
-19.33867
 20
11.17464
 30
0.0
 10
-19.33867
 20
11.17464
 30
0.0
 10
-19.7389
 20
11.17498
 30
0.0
 10
-19.7389
 20
11.17498
 30
0.0
 10
-19.7389
 20
11.17498
 30
0.0
 10
-19.7389
 20
11.17498
 30
0.0
 10
-19.73962
 20
10.65073
 30
0.0
 10
-19.73962
 20
10.65073
 30
0.0
 10
-19.73962
 20
10.65073
 30
0.0
 10
-19.73894
 20
10.38722
 30
0.0
 10
-20.03025
 20
10.38985
 30
0.0
 10
-20.04042
 20
10.65217
 30
0.0
 10
-20.04042
 20
10.65217
 30
0.0
 10
-20.04042
 20
10.65217
 30
0.0
 10
-20.04052
 20
11.17262
 30
0.0
 10
-20.04052
 20
11.17262
 30
0.0
 10
-20.04052
 20
11.17262
 30
0.0
 10
-20.04052
 20
11.17262
 30
0.0
 10
-28.2561
 20
11.17187
 30
0.0
 10
-28.2561
 20
11.17187
 30
0.0
 10
-28.2561
 20
11.17187
 30
0.0
 10
-28.2561
 20
11.17187
 30
0.0
 10
-28.2562
 20
10.64591
 30
0.0
 10
-28.2562
 20
10.64591
 30
0.0
 10
-28.2562
 20
10.64591
 30
0.0
 10
-28.25696
 20
10.38995
 30
0.0
 10
-28.5442
 20
10.38203
 30
0.0
 10
-28.55306
 20
10.6512
 30
0.0
 10
-28.55306
 20
10.6512
 30
0.0
 10
-28.55306
 20
10.6512
 30
0.0
 10
-28.55296
 20
11.17187
 30
0.0
 10
-28.55296
 20
11.17187
 30
0.0
  0
SPLINE
  5
2E
330
1F
100
AcDbEntity
  8
Layer 1
 62
    22
370
     5
100
AcDbSpline
210
0.0
220
0.0
230
1.0
 70
    11
 71
     3
 72
    28
 73
    24
 74
     0
 42
0.0000000001
 43
0.0000000001
 40
0.0
 40
0.0
 40
0.0
 40
0.0
 40
0.1666666666666667
 40
0.1666666666666667
 40
0.1666666666666667
 40
0.1666666666666667
 40
0.3333333333333333
 40
0.3333333333333333
 40
0.3333333333333333
 40
0.3333333333333333
 40
0.5
 40
0.5
 40
0.5
 40
0.5
 40
0.6666666666666666
 40
0.6666666666666666
 40
0.6666666666666666
 40
0.6666666666666666
 40
0.8333333333333333
 40
0.8333333333333333
 40
0.8333333333333333
 40
0.8333333333333333
 40
1.0
 40
1.0
 40
1.0
 40
1.0
 10
-12.66209
 20
11.71649
 30
0.0
 10
-12.66209
 20
11.71649
 30
0.0
 10
-13.46309
 20
11.71649
 30
0.0
 10
-13.46309
 20
11.71649
 30
0.0
 10
-13.46309
 20
11.71649
 30
0.0
 10
-13.46309
 20
11.71649
 30
0.0
 10
-13.46282
 20
12.13949
 30
0.0
 10
-13.46282
 20
12.13949
 30
0.0
 10
-13.46282
 20
12.13949
 30
0.0
 10
-13.46282
 20
12.13949
 30
0.0
 10
-13.68809
 20
12.13949
 30
0.0
 10
-13.68809
 20
12.13949
 30
0.0
 10
-13.68809
 20
12.13949
 30
0.0
 10
-13.68232
 20
13.09805
 30
0.0
 10
-12.45525
 20
13.0816
 30
0.0
 10
-12.45671
 20
12.13868
 30
0.0
 10
-12.45671
 20
12.13868
 30
0.0
 10
-12.45671
 20
12.13868
 30
0.0
 10
-12.66155
 20
12.13841
 30
0.0
 10
-12.66155
 20
12.13841
 30
0.0
 10
-12.66155
 20
12.13841
 30
0.0
 10
-12.66155
 20
12.13841
 30
0.0
 10
-12.66209
 20
11.71649
 30
0.0
 10
-12.66209
 20
11.71649
 30
0.0
  0
SPLINE
  5
2F
330
1F
100
AcDbEntity
  8
Layer 1
 62
    22
370
     5
100
AcDbSpline
210
0.0
220
0.0
230
1.0
 70
    11
 71
     3
 72
    28
 73
    24
 74
     0
 42
0.0000000001
 43
0.0000000001
 40
0.0
 40
0.0
 40
0.0
 40
0.0
 40
0.1666666666666667
 40
0.1666666666666667
 40
0.1666666666666667
 40
0.1666666666666667
 40
0.3333333333333333
 40
0.3333333333333333
 40
0.3333333333333333
 40
0.3333333333333333
 40
0.5
 40
0.5
 40
0.5
 40
0.5
 40
0.6666666666666666
 40
0.6666666666666666
 40
0.6666666666666666
 40
0.6666666666666666
 40
0.8333333333333333
 40
0.8333333333333333
 40
0.8333333333333333
 40
0.8333333333333333
 40
1.0
 40
1.0
 40
1.0
 40
1.0
 10
-17.37554
 20
8.123600000000002
 30
0.0
 10
-17.37554
 20
8.123600000000002
 30
0.0
 10
-18.17654
 20
8.123600000000002
 30
0.0
 10
-18.17654
 20
8.123600000000002
 30
0.0
 10
-18.17654
 20
8.123600000000002
 30
0.0
 10
-18.17654
 20
8.123600000000002
 30
0.0
 10
-18.17627
 20
8.546600000000002
 30
0.0
 10
-18.17627
 20
8.546600000000002
 30
0.0
 10
-18.17627
 20
8.546600000000002
 30
0.0
 10
-18.17627
 20
8.546600000000002
 30
0.0
 10
-18.40154
 20
8.546600000000002
 30
0.0
 10
-18.40154
 20
8.546600000000002
 30
0.0
 10
-18.40154
 20
8.546600000000002
 30
0.0
 10
-18.39577
 20
9.50516
 30
0.0
 10
-17.1687
 20
9.488710000000001
 30
0.0
 10
-17.17016
 20
8.54579
 30
0.0
 10
-17.17016
 20
8.54579
 30
0.0
 10
-17.17016
 20
8.54579
 30
0.0
 10
-17.375
 20
8.545520000000002
 30
0.0
 10
-17.375
 20
8.545520000000002
 30
0.0
 10
-17.375
 20
8.545520000000002
 30
0.0
 10
-17.375
 20
8.545520000000002
 30
0.0
 10
-17.37554
 20
8.123600000000002
 30
0.0
 10
-17.37554
 20
8.123600000000002
 30
0.0
  0
SPLINE
  5
30
330
1F
100
AcDbEntity
  8
Layer 1
 62
    22
370
     5
100
AcDbSpline
210
0.0
220
0.0
230
1.0
 70
    11
 71
     3
 72
    36
 73
    32
 74
     0
 42
0.0000000001
 43
0.0000000001
 40
0.0
 40
0.0
 40
0.0
 40
0.0
 40
0.125
 40
0.125
 40
0.125
 40
0.125
 40
0.25
 40
0.25
 40
0.25
 40
0.25
 40
0.375
 40
0.375
 40
0.375
 40
0.375
 40
0.5
 40
0.5
 40
0.5
 40
0.5
 40
0.625
 40
0.625
 40
0.625
 40
0.625
 40
0.75
 40
0.75
 40
0.75
 40
0.75
 40
0.875
 40
0.875
 40
0.875
 40
0.875
 40
1.0
 40
1.0
 40
1.0
 40
1.0
 10
-12.34266
 20
9.66221
 30
0.0
 10
-12.34266
 20
8.637870000000001
 30
0.0
 10
-12.34266
 20
7.61352
 30
0.0
 10
-12.34266
 20
6.58917
 30
0.0
 10
-12.34266
 20
6.58917
 30
0.0
 10
-12.34266
 20
6.345330000000001
 30
0.0
 10
-12.47043
 20
6.2849
 30
0.0
 10
-12.65951
 20
6.293150000000001
 30
0.0
 10
-12.65951
 20
6.293150000000001
 30
0.0
 10
-12.65951
 20
6.293150000000001
 30
0.0
 10
-16.0425
 20
6.29037
 30
0.0
 10
-16.0425
 20
6.29037
 30
0.0
 10
-16.0425
 20
6.29037
 30
0.0
 10
-16.04262
 20
5.95216
 30
0.0
 10
-16.43882
 20
5.95333
 30
0.0
 10
-16.43883
 20
6.29415
 30
0.0
 10
-16.43883
 20
6.29415
 30
0.0
 10
-16.43883
 20
6.29415
 30
0.0
 10
-16.43354
 20
10.08657
 30
0.0
 10
-16.43354
 20
10.08657
 30
0.0
 10
-16.43354
 20
10.08657
 30
0.0
 10
-16.43457
 20
10.43898
 30
0.0
 10
-16.04559
 20
10.43097
 30
0.0
 10
-16.0436
 20
10.08045
 30
0.0
 10
-16.0436
 20
10.08045
 30
0.0
 10
-14.93839
 20
10.08231
 30
0.0
 10
-13.83318
 20
10.08417
 30
0.0
 10
-12.72798
 20
10.08602
 30
0.0
 10
-12.72798
 20
10.08602
 30
0.0
 10
-12.43941
 20
10.09538
 30
0.0
 10
-12.34266
 20
10.00465
 30
0.0
 10
-12.34266
 20
9.66221
 30
0.0
  0
SPLINE
  5
31
330
1F
100
AcDbEntity
  8
Layer 1
 62
    22
370
     5
100
AcDbSpline
210
0.0
220
0.0
230
1.0
 70
    11
 71
     3
 72
    44
 73
    40
 74
     0
 42
0.0000000001
 43
0.0000000001
 40
0.0
 40
0.0
 40
0.0
 40
0.0
 40
0.1
 40
0.1
 40
0.1
 40
0.1
 40
0.2
 40
0.2
 40
0.2
 40
0.2
 40
0.3
 40
0.3
 40
0.3
 40
0.3
 40
0.4
 40
0.4
 40
0.4
 40
0.4
 40
0.5
 40
0.5
 40
0.5
 40
0.5
 40
0.6
 40
0.6
 40
0.6
 40
0.6
 40
0.7
 40
0.7
 40
0.7
 40
0.7
 40
0.7999999999999999
 40
0.7999999999999999
 40
0.7999999999999999
 40
0.7999999999999999
 40
0.8999999999999999
 40
0.8999999999999999
 40
0.8999999999999999
 40
0.8999999999999999
 40
1.0
 40
1.0
 40
1.0
 40
1.0
 10
-15.84692
 20
8.171720000000001
 30
0.0
 10
-15.84692
 20
8.171720000000001
 30
0.0
 10
-15.84708
 20
7.186490000000001
 30
0.0
 10
-15.84708
 20
7.186490000000001
 30
0.0
 10
-15.84708
 20
7.186490000000001
 30
0.0
 10
-15.60941
 20
7.18552
 30
0.0
 10
-15.47013
 20
7.136010000000001
 30
0.0
 10
-15.42854
 20
6.785710000000001
 30
0.0
 10
-15.42854
 20
6.785710000000001
 30
0.0
 10
-15.42854
 20
6.785710000000001
 30
0.0
 10
-13.3353
 20
6.782680000000001
 30
0.0
 10
-13.3353
 20
6.782680000000001
 30
0.0
 10
-13.3353
 20
6.782680000000001
 30
0.0
 10
-13.2769
 20
7.06575
 30
0.0
 10
-13.1265
 20
7.217860000000001
 30
0.0
 10
-12.8841
 20
7.255630000000001
 30
0.0
 10
-12.8841
 20
7.255630000000001
 30
0.0
 10
-12.8841
 20
7.255630000000001
 30
0.0
 10
-12.88187
 20
8.171720000000001
 30
0.0
 10
-12.88187
 20
8.171720000000001
 30
0.0
 10
-12.88187
 20
8.171720000000001
 30
0.0
 10
-12.88187
 20
8.171720000000001
 30
0.0
 10
-12.8841
 20
9.087810000000001
 30
0.0
 10
-12.8841
 20
9.087810000000001
 30
0.0
 10
-12.8841
 20
9.087810000000001
 30
0.0
 10
-13.1265
 20
9.125580000000001
 30
0.0
 10
-13.2769
 20
9.277690000000002
 30
0.0
 10
-13.3353
 20
9.56076
 30
0.0
 10
-13.3353
 20
9.56076
 30
0.0
 10
-13.3353
 20
9.56076
 30
0.0
 10
-15.42854
 20
9.564670000000001
 30
0.0
 10
-15.42854
 20
9.564670000000001
 30
0.0
 10
-15.42854
 20
9.564670000000001
 30
0.0
 10
-15.47013
 20
9.214370000000001
 30
0.0
 10
-15.60941
 20
9.157920000000001
 30
0.0
 10
-15.84708
 20
9.15695
 30
0.0
 10
-15.84708
 20
9.15695
 30
0.0
 10
-15.84708
 20
9.15695
 30
0.0
 10
-15.84692
 20
8.171720000000001
 30
0.0
 10
-15.84692
 20
8.171720000000001
 30
0.0
  0
SPLINE
  5
32
330
1F
100
AcDbEntity
  8
Layer 1
 62
    22
370
     5
100
AcDbSpline
210
0.0
220
0.0
230
1.0
 70
    11
 71
     3
 72
    36
 73
    32
 74
     0
 42
0.0000000001
 43
0.0000000001
 40
0.0
 40
0.0
 40
0.0
 40
0.0
 40
0.125
 40
0.125
 40
0.125
 40
0.125
 40
0.25
 40
0.25
 40
0.25
 40
0.25
 40
0.375
 40
0.375
 40
0.375
 40
0.375
 40
0.5
 40
0.5
 40
0.5
 40
0.5
 40
0.625
 40
0.625
 40
0.625
 40
0.625
 40
0.75
 40
0.75
 40
0.75
 40
0.75
 40
0.875
 40
0.875
 40
0.875
 40
0.875
 40
1.0
 40
1.0
 40
1.0
 40
1.0
 10
-13.25824
 20
8.488940000000001
 30
0.0
 10
-13.25824
 20
8.488940000000001
 30
0.0
 10
-13.25824
 20
7.882280000000001
 30
0.0
 10
-13.25824
 20
7.882280000000001
 30
0.0
 10
-13.25824
 20
7.882280000000001
 30
0.0
 10
-13.25824
 20
7.828170000000001
 30
0.0
 10
-13.30077
 20
7.783900000000001
 30
0.0
 10
-13.35277
 20
7.783900000000001
 30
0.0
 10
-13.35277
 20
7.783900000000001
 30
0.0
 10
-13.35277
 20
7.783900000000001
 30
0.0
 10
-13.46304
 20
7.783900000000001
 30
0.0
 10
-13.46304
 20
7.783900000000001
 30
0.0
 10
-13.46304
 20
7.783900000000001
 30
0.0
 10
-13.51504
 20
7.783900000000001
 30
0.0
 10
-13.55757
 20
7.828170000000001
 30
0.0
 10
-13.55757
 20
7.882280000000001
 30
0.0
 10
-13.55757
 20
7.882280000000001
 30
0.0
 10
-13.55757
 20
7.882280000000001
 30
0.0
 10
-13.55757
 20
8.488940000000001
 30
0.0
 10
-13.55757
 20
8.488940000000001
 30
0.0
 10
-13.55757
 20
8.488940000000001
 30
0.0
 10
-13.55757
 20
8.543050000000001
 30
0.0
 10
-13.51504
 20
8.58732
 30
0.0
 10
-13.46304
 20
8.58732
 30
0.0
 10
-13.46304
 20
8.58732
 30
0.0
 10
-13.46304
 20
8.58732
 30
0.0
 10
-13.35277
 20
8.58732
 30
0.0
 10
-13.35277
 20
8.58732
 30
0.0
 10
-13.35277
 20
8.58732
 30
0.0
 10
-13.30077
 20
8.58732
 30
0.0
 10
-13.25824
 20
8.543050000000001
 30
0.0
 10
-13.25824
 20
8.488940000000001
 30
0.0
  0
SPLINE
  5
33
330
1F
100
AcDbEntity
  8
Layer 1
 62
    22
370
     5
100
AcDbSpline
210
0.0
220
0.0
230
1.0
 70
    11
 71
     3
 72
    36
 73
    32
 74
     0
 42
0.0000000001
 43
0.0000000001
 40
0.0
 40
0.0
 40
0.0
 40
0.0
 40
0.125
 40
0.125
 40
0.125
 40
0.125
 40
0.25
 40
0.25
 40
0.25
 40
0.25
 40
0.375
 40
0.375
 40
0.375
 40
0.375
 40
0.5
 40
0.5
 40
0.5
 40
0.5
 40
0.625
 40
0.625
 40
0.625
 40
0.625
 40
0.75
 40
0.75
 40
0.75
 40
0.75
 40
0.875
 40
0.875
 40
0.875
 40
0.875
 40
1.0
 40
1.0
 40
1.0
 40
1.0
 10
-15.66926
 20
13.43429
 30
0.0
 10
-15.66926
 20
13.43429
 30
0.0
 10
-16.27592
 20
13.43429
 30
0.0
 10
-16.27592
 20
13.43429
 30
0.0
 10
-16.27592
 20
13.43429
 30
0.0
 10
-16.33003
 20
13.43429
 30
0.0
 10
-16.3743
 20
13.47682
 30
0.0
 10
-16.3743
 20
13.52882
 30
0.0
 10
-16.3743
 20
13.52882
 30
0.0
 10
-16.3743
 20
13.52882
 30
0.0
 10
-16.3743
 20
13.63909
 30
0.0
 10
-16.3743
 20
13.63909
 30
0.0
 10
-16.3743
 20
13.63909
 30
0.0
 10
-16.3743
 20
13.69109
 30
0.0
 10
-16.33003
 20
13.73362
 30
0.0
 10
-16.27592
 20
13.73362
 30
0.0
 10
-16.27592
 20
13.73362
 30
0.0
 10
-16.27592
 20
13.73362
 30
0.0
 10
-15.66926
 20
13.73362
 30
0.0
 10
-15.66926
 20
13.73362
 30
0.0
 10
-15.66926
 20
13.73362
 30
0.0
 10
-15.61515
 20
13.73362
 30
0.0
 10
-15.57088
 20
13.69109
 30
0.0
 10
-15.57088
 20
13.63909
 30
0.0
 10
-15.57088
 20
13.63909
 30
0.0
 10
-15.57088
 20
13.63909
 30
0.0
 10
-15.57088
 20
13.52882
 30
0.0
 10
-15.57088
 20
13.52882
 30
0.0
 10
-15.57088
 20
13.52882
 30
0.0
 10
-15.57088
 20
13.47682
 30
0.0
 10
-15.61515
 20
13.43429
 30
0.0
 10
-15.66926
 20
13.43429
 30
0.0
  0
SPLINE
  5
34
330
1F
100
AcDbEntity
  8
Layer 1
 62
    22
370
     5
100
AcDbSpline
210
0.0
220
0.0
230
1.0
 70
    11
 71
     3
 72
    36
 73
    32
 74
     0
 42
0.0000000001
 43
0.0000000001
 40
0.0
 40
0.0
 40
0.0
 40
0.0
 40
0.125
 40
0.125
 40
0.125
 40
0.125
 40
0.25
 40
0.25
 40
0.25
 40
0.25
 40
0.375
 40
0.375
 40
0.375
 40
0.375
 40
0.5
 40
0.5
 40
0.5
 40
0.5
 40
0.625
 40
0.625
 40
0.625
 40
0.625
 40
0.75
 40
0.75
 40
0.75
 40
0.75
 40
0.875
 40
0.875
 40
0.875
 40
0.875
 40
1.0
 40
1.0
 40
1.0
 40
1.0
 10
-14.49599
 20
14.65118
 30
0.0
 10
-15.52033
 20
14.65118
 30
0.0
 10
-16.54468
 20
14.65118
 30
0.0
 10
-17.56903
 20
14.65118
 30
0.0
 10
-17.56903
 20
14.65118
 30
0.0
 10
-17.81287
 20
14.65118
 30
0.0
 10
-17.8733
 20
14.52341
 30
0.0
 10
-17.86505
 20
14.33433
 30
0.0
 10
-17.86505
 20
14.33433
 30
0.0
 10
-17.86505
 20
14.33433
 30
0.0
 10
-17.86783
 20
10.95134
 30
0.0
 10
-17.86783
 20
10.95134
 30
0.0
 10
-17.86783
 20
10.95134
 30
0.0
 10
-18.20604
 20
10.95122
 30
0.0
 10
-18.20487
 20
10.55502
 30
0.0
 10
-17.86405
 20
10.55501
 30
0.0
 10
-17.86405
 20
10.55501
 30
0.0
 10
-17.86405
 20
10.55501
 30
0.0
 10
-14.07163
 20
10.5603
 30
0.0
 10
-14.07163
 20
10.5603
 30
0.0
 10
-14.07163
 20
10.5603
 30
0.0
 10
-13.71922
 20
10.55927
 30
0.0
 10
-13.72723
 20
10.94825
 30
0.0
 10
-14.07775
 20
10.95024
 30
0.0
 10
-14.07775
 20
10.95024
 30
0.0
 10
-14.07589
 20
12.05545
 30
0.0
 10
-14.07403
 20
13.16066
 30
0.0
 10
-14.07218
 20
14.26586
 30
0.0
 10
-14.07218
 20
14.26586
 30
0.0
 10
-14.06282
 20
14.55443
 30
0.0
 10
-14.15355
 20
14.65118
 30
0.0
 10
-14.49599
 20
14.65118
 30
0.0
  0
SPLINE
  5
35
330
1F
100
AcDbEntity
  8
Layer 1
 62
    22
370
     5
100
AcDbSpline
210
0.0
220
0.0
230
1.0
 70
    11
 71
     3
 72
    44
 73
    40
 74
     0
 42
0.0000000001
 43
0.0000000001
 40
0.0
 40
0.0
 40
0.0
 40
0.0
 40
0.1
 40
0.1
 40
0.1
 40
0.1
 40
0.2
 40
0.2
 40
0.2
 40
0.2
 40
0.3
 40
0.3
 40
0.3
 40
0.3
 40
0.4
 40
0.4
 40
0.4
 40
0.4
 40
0.5
 40
0.5
 40
0.5
 40
0.5
 40
0.6
 40
0.6
 40
0.6
 40
0.6
 40
0.7
 40
0.7
 40
0.7
 40
0.7
 40
0.7999999999999999
 40
0.7999999999999999
 40
0.7999999999999999
 40
0.7999999999999999
 40
0.8999999999999999
 40
0.8999999999999999
 40
0.8999999999999999
 40
0.8999999999999999
 40
1.0
 40
1.0
 40
1.0
 40
1.0
 10
-15.98648
 20
11.14692
 30
0.0
 10
-15.98648
 20
11.14692
 30
0.0
 10
-16.97171
 20
11.14676
 30
0.0
 10
-16.97171
 20
11.14676
 30
0.0
 10
-16.97171
 20
11.14676
 30
0.0
 10
-16.97268
 20
11.38443
 30
0.0
 10
-17.02219
 20
11.52371
 30
0.0
 10
-17.37249
 20
11.5653
 30
0.0
 10
-17.37249
 20
11.5653
 30
0.0
 10
-17.37249
 20
11.5653
 30
0.0
 10
-17.37552
 20
13.65854
 30
0.0
 10
-17.37552
 20
13.65854
 30
0.0
 10
-17.37552
 20
13.65854
 30
0.0
 10
-17.09245
 20
13.71694
 30
0.0
 10
-16.94034
 20
13.86734
 30
0.0
 10
-16.90257
 20
14.10974
 30
0.0
 10
-16.90257
 20
14.10974
 30
0.0
 10
-16.90257
 20
14.10974
 30
0.0
 10
-15.98648
 20
14.11197
 30
0.0
 10
-15.98648
 20
14.11197
 30
0.0
 10
-15.98648
 20
14.11197
 30
0.0
 10
-15.98648
 20
14.11197
 30
0.0
 10
-15.07039
 20
14.10974
 30
0.0
 10
-15.07039
 20
14.10974
 30
0.0
 10
-15.07039
 20
14.10974
 30
0.0
 10
-15.03262
 20
13.86734
 30
0.0
 10
-14.88051
 20
13.71694
 30
0.0
 10
-14.59744
 20
13.65854
 30
0.0
 10
-14.59744
 20
13.65854
 30
0.0
 10
-14.59744
 20
13.65854
 30
0.0
 10
-14.59353
 20
11.5653
 30
0.0
 10
-14.59353
 20
11.5653
 30
0.0
 10
-14.59353
 20
11.5653
 30
0.0
 10
-14.94383
 20
11.52371
 30
0.0
 10
-15.00028
 20
11.38443
 30
0.0
 10
-15.00125
 20
11.14676
 30
0.0
 10
-15.00125
 20
11.14676
 30
0.0
 10
-15.00125
 20
11.14676
 30
0.0
 10
-15.98648
 20
11.14692
 30
0.0
 10
-15.98648
 20
11.14692
 30
0.0
  0
SPLINE
  5
36
330
1F
100
AcDbEntity
  8
Layer 1
 62
    22
370
     5
100
AcDbSpline
210
0.0
220
0.0
230
1.0
 70
    11
 71
     3
 72
    84
 73
    80
 74
     0
 42
0.0000000001
 43
0.0000000001
 40
0.0
 40
0.0
 40
0.0
 40
0.0
 40
0.05
 40
0.05
 40
0.05
 40
0.05
 40
0.1
 40
0.1
 40
0.1
 40
0.1
 40
0.15
 40
0.15
 40
0.15
 40
0.15
 40
0.2
 40
0.2
 40
0.2
 40
0.2
 40
0.25
 40
0.25
 40
0.25
 40
0.25
 40
0.3
 40
0.3
 40
0.3
 40
0.3
 40
0.35
 40
0.35
 40
0.35
 40
0.35
 40
0.4
 40
0.4
 40
0.4
 40
0.4
 40
0.45
 40
0.45
 40
0.45
 40
0.45
 40
0.4999999999999999
 40
0.4999999999999999
 40
0.4999999999999999
 40
0.4999999999999999
 40
0.5499999999999999
 40
0.5499999999999999
 40
0.5499999999999999
 40
0.5499999999999999
 40
0.6
 40
0.6
 40
0.6
 40
0.6
 40
0.65
 40
0.65
 40
0.65
 40
0.65
 40
0.7000000000000001
 40
0.7000000000000001
 40
0.7000000000000001
 40
0.7000000000000001
 40
0.7500000000000001
 40
0.7500000000000001
 40
0.7500000000000001
 40
0.7500000000000001
 40
0.8000000000000002
 40
0.8000000000000002
 40
0.8000000000000002
 40
0.8000000000000002
 40
0.8500000000000002
 40
0.8500000000000002
 40
0.8500000000000002
 40
0.8500000000000002
 40
0.9000000000000002
 40
0.9000000000000002
 40
0.9000000000000002
 40
0.9000000000000002
 40
0.9500000000000003
 40
0.9500000000000003
 40
0.9500000000000003
 40
0.9500000000000003
 40
1.0
 40
1.0
 40
1.0
 40
1.0
 10
-11.06852
 20
6.318140000000001
 30
0.0
 10
-11.06852
 20
6.318140000000001
 30
0.0
 10
-7.519740000000001
 20
6.318650000000001
 30
0.0
 10
-7.519740000000001
 20
6.318650000000001
 30
0.0
 10
-7.519740000000001
 20
6.318650000000001
 30
0.0
 10
-7.519830000000001
 20
6.269480000000001
 30
0.0
 10
-7.51991
 20
6.220300000000001
 30
0.0
 10
-7.519990000000001
 20
6.17112
 30
0.0
 10
-7.519990000000001
 20
6.17112
 30
0.0
 10
-7.52453
 20
6.05614
 30
0.0
 10
-7.49603
 20
6.00914
 30
0.0
 10
-7.392130000000001
 20
6.013400000000001
 30
0.0
 10
-7.392130000000001
 20
6.013400000000001
 30
0.0
 10
-7.18055
 20
6.013400000000001
 30
0.0
 10
-6.834390000000001
 20
6.013400000000001
 30
0.0
 10
-6.62281
 20
6.013400000000001
 30
0.0
 10
-6.62281
 20
6.013400000000001
 30
0.0
 10
-6.502590000000001
 20
6.013400000000001
 30
0.0
 10
-6.48716
 20
6.039820000000001
 30
0.0
 10
-6.4869
 20
6.17112
 30
0.0
 10
-6.4869
 20
6.17112
 30
0.0
 10
-6.4869
 20
6.17112
 30
0.0
 10
-6.48669
 20
6.318650000000001
 30
0.0
 10
-6.48669
 20
6.318650000000001
 30
0.0
 10
-6.48669
 20
6.318650000000001
 30
0.0
 10
-6.48669
 20
6.318650000000001
 30
0.0
 10
-2.97783
 20
6.318650000000001
 30
0.0
 10
-2.97783
 20
6.318650000000001
 30
0.0
 10
-2.97783
 20
6.318650000000001
 30
0.0
 10
-2.97783
 20
6.318650000000001
 30
0.0
 10
-2.98055
 20
7.894640000000001
 30
0.0
 10
-2.98055
 20
7.894640000000001
 30
0.0
 10
-2.98055
 20
7.894640000000001
 30
0.0
 10
-2.97368
 20
8.14029
 30
0.0
 10
-2.6803
 20
8.128770000000001
 30
0.0
 10
-2.67432
 20
7.893790000000001
 30
0.0
 10
-2.67432
 20
7.893790000000001
 30
0.0
 10
-2.67432
 20
7.893790000000001
 30
0.0
 10
-2.67432
 20
6.012040000000001
 30
0.0
 10
-2.67432
 20
6.012040000000001
 30
0.0
 10
-2.67432
 20
6.012040000000001
 30
0.0
 10
-2.24166
 20
6.050800000000001
 30
0.0
 10
-2.16104
 20
6.066980000000001
 30
0.0
 10
-2.08607
 20
6.289190000000001
 30
0.0
 10
-2.08607
 20
6.289190000000001
 30
0.0
 10
-2.08607
 20
6.289190000000001
 30
0.0
 10
-2.08437
 20
9.705290000000002
 30
0.0
 10
-2.08437
 20
9.705290000000002
 30
0.0
 10
-2.08437
 20
9.705290000000002
 30
0.0
 10
-2.05773
 20
9.848650000000001
 30
0.0
 10
-2.12528
 20
9.935500000000001
 30
0.0
 10
-2.28702
 20
9.96584
 30
0.0
 10
-2.28702
 20
9.96584
 30
0.0
 10
-5.079420000000001
 20
10.0978
 30
0.0
 10
-8.10623
 20
10.09933
 30
0.0
 10
-11.63787
 20
9.90794
 30
0.0
 10
-11.63787
 20
9.90794
 30
0.0
 10
-11.84005
 20
9.856310000000001
 30
0.0
 10
-11.93655
 20
9.769460000000001
 30
0.0
 10
-11.92737
 20
9.647390000000002
 30
0.0
 10
-11.92737
 20
9.647390000000002
 30
0.0
 10
-11.92737
 20
9.647390000000002
 30
0.0
 10
-11.92737
 20
6.260240000000001
 30
0.0
 10
-11.92737
 20
6.260240000000001
 30
0.0
 10
-11.92737
 20
6.260240000000001
 30
0.0
 10
-11.8486
 20
6.009200000000001
 30
0.0
 10
-11.74994
 20
6.029500000000001
 30
0.0
 10
-11.36469
 20
6.0129
 30
0.0
 10
-11.36469
 20
6.0129
 30
0.0
 10
-11.36469
 20
6.0129
 30
0.0
 10
-11.36714
 20
7.892030000000001
 30
0.0
 10
-11.36714
 20
7.892030000000001
 30
0.0
 10
-11.36714
 20
7.892030000000001
 30
0.0
 10
-11.36643
 20
8.120750000000001
 30
0.0
 10
-11.06283
 20
8.1256
 30
0.0
 10
-11.06346
 20
7.897180000000001
 30
0.0
 10
-11.06346
 20
7.897180000000001
 30
0.0
 10
-11.06346
 20
7.897180000000001
 30
0.0
 10
-11.06852
 20
6.318140000000001
 30
0.0
 10
-11.06852
 20
6.318140000000001
 30
0.0
  0
SPLINE
  5
37
330
1F
100
AcDbEntity
  8
Layer 1
 62
    22
370
     5
100
AcDbSpline
210
0.0
220
0.0
230
1.0
 70
    11
 71
     3
 72
    20
 73
    16
 74
     0
 42
0.0000000001
 43
0.0000000001
 40
0.0
 40
0.0
 40
0.0
 40
0.0
 40
0.25
 40
0.25
 40
0.25
 40
0.25
 40
0.5
 40
0.5
 40
0.5
 40
0.5
 40
0.75
 40
0.75
 40
0.75
 40
0.75
 40
1.0
 40
1.0
 40
1.0
 40
1.0
 10
-11.07365
 20
9.373570000000001
 30
0.0
 10
-11.07365
 20
9.484
 30
0.0
 10
-10.98408
 20
9.57357
 30
0.0
 10
-10.87365
 20
9.57357
 30
0.0
 10
-10.87365
 20
9.57357
 30
0.0
 10
-10.76322
 20
9.57357
 30
0.0
 10
-10.67365
 20
9.484
 30
0.0
 10
-10.67365
 20
9.373570000000001
 30
0.0
 10
-10.67365
 20
9.373570000000001
 30
0.0
 10
-10.67365
 20
9.26314
 30
0.0
 10
-10.76322
 20
9.173570000000002
 30
0.0
 10
-10.87365
 20
9.173570000000002
 30
0.0
 10
-10.87365
 20
9.173570000000002
 30
0.0
 10
-10.98408
 20
9.173570000000002
 30
0.0
 10
-11.07365
 20
9.26314
 30
0.0
 10
-11.07365
 20
9.373570000000001
 30
0.0
  0
SPLINE
  5
38
330
1F
100
AcDbEntity
  8
Layer 1
 62
    22
370
     5
100
AcDbSpline
210
0.0
220
0.0
230
1.0
 70
    11
 71
     3
 72
    20
 73
    16
 74
     0
 42
0.0000000001
 43
0.0000000001
 40
0.0
 40
0.0
 40
0.0
 40
0.0
 40
0.25
 40
0.25
 40
0.25
 40
0.25
 40
0.5
 40
0.5
 40
0.5
 40
0.5
 40
0.75
 40
0.75
 40
0.75
 40
0.75
 40
1.0
 40
1.0
 40
1.0
 40
1.0
 10
-3.32309
 20
9.431410000000001
 30
0.0
 10
-3.32309
 20
9.541840000000001
 30
0.0
 10
-3.23352
 20
9.631410000000001
 30
0.0
 10
-3.12309
 20
9.631410000000001
 30
0.0
 10
-3.12309
 20
9.631410000000001
 30
0.0
 10
-3.01266
 20
9.631410000000001
 30
0.0
 10
-2.92309
 20
9.541840000000001
 30
0.0
 10
-2.92309
 20
9.431410000000001
 30
0.0
 10
-2.92309
 20
9.431410000000001
 30
0.0
 10
-2.92309
 20
9.320980000000001
 30
0.0
 10
-3.01266
 20
9.23141
 30
0.0
 10
-3.12309
 20
9.23141
 30
0.0
 10
-3.12309
 20
9.23141
 30
0.0
 10
-3.23352
 20
9.23141
 30
0.0
 10
-3.32309
 20
9.320980000000001
 30
0.0
 10
-3.32309
 20
9.431410000000001
 30
0.0
  0
SPLINE
  5
39
330
1F
100
AcDbEntity
  8
Layer 1
 62
    22
370
     5
100
AcDbSpline
210
0.0
220
0.0
230
1.0
 70
    11
 71
     3
 72
    84
 73
    80
 74
     0
 42
0.0000000001
 43
0.0000000001
 40
0.0
 40
0.0
 40
0.0
 40
0.0
 40
0.05
 40
0.05
 40
0.05
 40
0.05
 40
0.1
 40
0.1
 40
0.1
 40
0.1
 40
0.15
 40
0.15
 40
0.15
 40
0.15
 40
0.2
 40
0.2
 40
0.2
 40
0.2
 40
0.25
 40
0.25
 40
0.25
 40
0.25
 40
0.3
 40
0.3
 40
0.3
 40
0.3
 40
0.35
 40
0.35
 40
0.35
 40
0.35
 40
0.4
 40
0.4
 40
0.4
 40
0.4
 40
0.45
 40
0.45
 40
0.45
 40
0.45
 40
0.4999999999999999
 40
0.4999999999999999
 40
0.4999999999999999
 40
0.4999999999999999
 40
0.5499999999999999
 40
0.5499999999999999
 40
0.5499999999999999
 40
0.5499999999999999
 40
0.6
 40
0.6
 40
0.6
 40
0.6
 40
0.65
 40
0.65
 40
0.65
 40
0.65
 40
0.7000000000000001
 40
0.7000000000000001
 40
0.7000000000000001
 40
0.7000000000000001
 40
0.7500000000000001
 40
0.7500000000000001
 40
0.7500000000000001
 40
0.7500000000000001
 40
0.8000000000000002
 40
0.8000000000000002
 40
0.8000000000000002
 40
0.8000000000000002
 40
0.8500000000000002
 40
0.8500000000000002
 40
0.8500000000000002
 40
0.8500000000000002
 40
0.9000000000000002
 40
0.9000000000000002
 40
0.9000000000000002
 40
0.9000000000000002
 40
0.9500000000000003
 40
0.9500000000000003
 40
0.9500000000000003
 40
0.9500000000000003
 40
1.0
 40
1.0
 40
1.0
 40
1.0
 10
-28.56993
 20
9.44191
 30
0.0
 10
-28.56993
 20
9.44191
 30
0.0
 10
-29.50317
 20
9.442020000000001
 30
0.0
 10
-29.50317
 20
9.442020000000001
 30
0.0
 10
-29.50317
 20
9.442020000000001
 30
0.0
 10
-29.59657
 20
9.43857
 30
0.0
 10
-29.64561
 20
9.401200000000001
 30
0.0
 10
-29.64112
 20
9.322840000000001
 30
0.0
 10
-29.64112
 20
9.322840000000001
 30
0.0
 10
-29.64112
 20
9.322840000000001
 30
0.0
 10
-29.65133
 20
1.41076
 30
0.0
 10
-29.65133
 20
1.41076
 30
0.0
 10
-29.65133
 20
1.41076
 30
0.0
 10
-29.65142
 20
1.34358
 30
0.0
 10
-29.58225
 20
1.30807
 30
0.0
 10
-29.50749
 20
1.30422
 30
0.0
 10
-29.50749
 20
1.30422
 30
0.0
 10
-29.50749
 20
1.30422
 30
0.0
 10
-28.56841
 20
1.30305
 30
0.0
 10
-28.56841
 20
1.30305
 30
0.0
 10
-28.56841
 20
1.30305
 30
0.0
 10
-28.56841
 20
1.24192
 30
0.0
 10
-28.56841
 20
1.24175
 30
0.0
 10
-28.56841
 20
1.18061
 30
0.0
 10
-28.56841
 20
1.18061
 30
0.0
 10
-28.56841
 20
1.01649
 30
0.0
 10
-28.53002
 20
1.00314
 30
0.0
 10
-28.34458
 20
1.00314
 30
0.0
 10
-28.34458
 20
1.00314
 30
0.0
 10
-28.15928
 20
1.00314
 30
0.0
 10
-27.93688
 20
1.00314
 30
0.0
 10
-27.75158
 20
1.00314
 30
0.0
 10
-27.75158
 20
1.00314
 30
0.0
 10
-27.58073
 20
1.00968
 30
0.0
 10
-27.52247
 20
1.02195
 30
0.0
 10
-27.53555
 20
1.18061
 30
0.0
 10
-27.53555
 20
1.18061
 30
0.0
 10
-27.53555
 20
1.18061
 30
0.0
 10
-27.53555
 20
1.30563
 30
0.0
 10
-27.53555
 20
1.30563
 30
0.0
 10
-27.53555
 20
1.30563
 30
0.0
 10
-27.53555
 20
1.30563
 30
0.0
 10
-26.51157
 20
1.30563
 30
0.0
 10
-26.51157
 20
1.30563
 30
0.0
 10
-26.51157
 20
1.30563
 30
0.0
 10
-26.41886
 20
1.29964
 30
0.0
 10
-26.34327
 20
1.33973
 30
0.0
 10
-26.34846
 20
1.42588
 30
0.0
 10
-26.34846
 20
1.42588
 30
0.0
 10
-26.34846
 20
1.42588
 30
0.0
 10
-26.37318
 20
9.268840000000001
 30
0.0
 10
-26.37318
 20
9.268840000000001
 30
0.0
 10
-26.37318
 20
9.268840000000001
 30
0.0
 10
-26.36421
 20
9.378060000000001
 30
0.0
 10
-26.40027
 20
9.449440000000001
 30
0.0
 10
-26.53533
 20
9.437650000000001
 30
0.0
 10
-26.53533
 20
9.437650000000001
 30
0.0
 10
-26.53533
 20
9.437650000000001
 30
0.0
 10
-27.531
 20
9.437650000000001
 30
0.0
 10
-27.531
 20
9.437650000000001
 30
0.0
 10
-27.531
 20
9.437650000000001
 30
0.0
 10
-27.53112
 20
9.501160000000001
 30
0.0
 10
-27.53123
 20
9.524170000000002
 30
0.0
 10
-27.53134
 20
9.58769
 30
0.0
 10
-27.53134
 20
9.58769
 30
0.0
 10
-27.53171
 20
9.701960000000002
 30
0.0
 10
-27.59309
 20
9.74173
 30
0.0
 10
-27.73698
 20
9.741680000000001
 30
0.0
 10
-27.73698
 20
9.741680000000001
 30
0.0
 10
-27.95716
 20
9.741610000000001
 30
0.0
 10
-28.18142
 20
9.74155
 30
0.0
 10
-28.40159
 20
9.741490000000001
 30
0.0
 10
-28.40159
 20
9.741490000000001
 30
0.0
 10
-28.52654
 20
9.741420000000002
 30
0.0
 10
-28.56993
 20
9.70735
 30
0.0
 10
-28.56993
 20
9.581150000000001
 30
0.0
 10
-28.56993
 20
9.581150000000001
 30
0.0
 10
-28.56993
 20
9.581150000000001
 30
0.0
 10
-28.56993
 20
9.44191
 30
0.0
 10
-28.56993
 20
9.44191
 30
0.0
  0
SPLINE
  5
3A
330
1F
100
AcDbEntity
  8
Layer 1
 62
    22
370
     5
100
AcDbSpline
210
0.0
220
0.0
230
1.0
 70
    11
 71
     3
 72
    84
 73
    80
 74
     0
 42
0.0000000001
 43
0.0000000001
 40
0.0
 40
0.0
 40
0.0
 40
0.0
 40
0.05
 40
0.05
 40
0.05
 40
0.05
 40
0.1
 40
0.1
 40
0.1
 40
0.1
 40
0.15
 40
0.15
 40
0.15
 40
0.15
 40
0.2
 40
0.2
 40
0.2
 40
0.2
 40
0.25
 40
0.25
 40
0.25
 40
0.25
 40
0.3
 40
0.3
 40
0.3
 40
0.3
 40
0.35
 40
0.35
 40
0.35
 40
0.35
 40
0.4
 40
0.4
 40
0.4
 40
0.4
 40
0.45
 40
0.45
 40
0.45
 40
0.45
 40
0.4999999999999999
 40
0.4999999999999999
 40
0.4999999999999999
 40
0.4999999999999999
 40
0.5499999999999999
 40
0.5499999999999999
 40
0.5499999999999999
 40
0.5499999999999999
 40
0.6
 40
0.6
 40
0.6
 40
0.6
 40
0.65
 40
0.65
 40
0.65
 40
0.65
 40
0.7000000000000001
 40
0.7000000000000001
 40
0.7000000000000001
 40
0.7000000000000001
 40
0.7500000000000001
 40
0.7500000000000001
 40
0.7500000000000001
 40
0.7500000000000001
 40
0.8000000000000002
 40
0.8000000000000002
 40
0.8000000000000002
 40
0.8000000000000002
 40
0.8500000000000002
 40
0.8500000000000002
 40
0.8500000000000002
 40
0.8500000000000002
 40
0.9000000000000002
 40
0.9000000000000002
 40
0.9000000000000002
 40
0.9000000000000002
 40
0.9500000000000003
 40
0.9500000000000003
 40
0.9500000000000003
 40
0.9500000000000003
 40
1.0
 40
1.0
 40
1.0
 40
1.0
 10
-20.95636
 20
9.43548
 30
0.0
 10
-20.95636
 20
9.43548
 30
0.0
 10
-21.8896
 20
9.435590000000001
 30
0.0
 10
-21.8896
 20
9.435590000000001
 30
0.0
 10
-21.8896
 20
9.435590000000001
 30
0.0
 10
-21.983
 20
9.43214
 30
0.0
 10
-22.03204
 20
9.394770000000001
 30
0.0
 10
-22.02755
 20
9.316410000000001
 30
0.0
 10
-22.02755
 20
9.316410000000001
 30
0.0
 10
-22.02755
 20
9.316410000000001
 30
0.0
 10
-22.03776
 20
1.40433
 30
0.0
 10
-22.03776
 20
1.40433
 30
0.0
 10
-22.03776
 20
1.40433
 30
0.0
 10
-22.03785
 20
1.33715
 30
0.0
 10
-21.96868
 20
1.30164
 30
0.0
 10
-21.89392
 20
1.29779
 30
0.0
 10
-21.89392
 20
1.29779
 30
0.0
 10
-21.89392
 20
1.29779
 30
0.0
 10
-20.95484
 20
1.29662
 30
0.0
 10
-20.95484
 20
1.29662
 30
0.0
 10
-20.95484
 20
1.29662
 30
0.0
 10
-20.95484
 20
1.23549
 30
0.0
 10
-20.95484
 20
1.23532
 30
0.0
 10
-20.95484
 20
1.17418
 30
0.0
 10
-20.95484
 20
1.17418
 30
0.0
 10
-20.95484
 20
1.01006
 30
0.0
 10
-20.91645
 20
0.9967100000000001
 30
0.0
 10
-20.73101
 20
0.9967100000000001
 30
0.0
 10
-20.73101
 20
0.9967100000000001
 30
0.0
 10
-20.54571
 20
0.9967100000000001
 30
0.0
 10
-20.32331
 20
0.9967100000000001
 30
0.0
 10
-20.13801
 20
0.9967100000000001
 30
0.0
 10
-20.13801
 20
0.9967100000000001
 30
0.0
 10
-19.96716
 20
1.00325
 30
0.0
 10
-19.9089
 20
1.01552
 30
0.0
 10
-19.92198
 20
1.17418
 30
0.0
 10
-19.92198
 20
1.17418
 30
0.0
 10
-19.92198
 20
1.17418
 30
0.0
 10
-19.92198
 20
1.2992
 30
0.0
 10
-19.92198
 20
1.2992
 30
0.0
 10
-19.92198
 20
1.2992
 30
0.0
 10
-19.92198
 20
1.2992
 30
0.0
 10
-18.898
 20
1.2992
 30
0.0
 10
-18.898
 20
1.2992
 30
0.0
 10
-18.898
 20
1.2992
 30
0.0
 10
-18.80529
 20
1.29321
 30
0.0
 10
-18.7297
 20
1.3333
 30
0.0
 10
-18.73489
 20
1.41945
 30
0.0
 10
-18.73489
 20
1.41945
 30
0.0
 10
-18.73489
 20
1.41945
 30
0.0
 10
-18.75961
 20
9.262410000000001
 30
0.0
 10
-18.75961
 20
9.262410000000001
 30
0.0
 10
-18.75961
 20
9.262410000000001
 30
0.0
 10
-18.75064
 20
9.371630000000002
 30
0.0
 10
-18.7867
 20
9.443010000000001
 30
0.0
 10
-18.92176
 20
9.431220000000002
 30
0.0
 10
-18.92176
 20
9.431220000000002
 30
0.0
 10
-18.92176
 20
9.431220000000002
 30
0.0
 10
-19.91743
 20
9.431220000000002
 30
0.0
 10
-19.91743
 20
9.431220000000002
 30
0.0
 10
-19.91743
 20
9.431220000000002
 30
0.0
 10
-19.91755
 20
9.494730000000001
 30
0.0
 10
-19.91766
 20
9.517740000000002
 30
0.0
 10
-19.91777
 20
9.58126
 30
0.0
 10
-19.91777
 20
9.58126
 30
0.0
 10
-19.91814
 20
9.695530000000002
 30
0.0
 10
-19.97952
 20
9.735300000000001
 30
0.0
 10
-20.12341
 20
9.735250000000001
 30
0.0
 10
-20.12341
 20
9.735250000000001
 30
0.0
 10
-20.34359
 20
9.735180000000002
 30
0.0
 10
-20.56785
 20
9.73512
 30
0.0
 10
-20.78802
 20
9.735060000000001
 30
0.0
 10
-20.78802
 20
9.735060000000001
 30
0.0
 10
-20.91297
 20
9.734990000000002
 30
0.0
 10
-20.95636
 20
9.70092
 30
0.0
 10
-20.95636
 20
9.574720000000001
 30
0.0
 10
-20.95636
 20
9.574720000000001
 30
0.0
 10
-20.95636
 20
9.574720000000001
 30
0.0
 10
-20.95636
 20
9.43548
 30
0.0
 10
-20.95636
 20
9.43548
 30
0.0
  0
SPLINE
  5
3B
330
1F
100
AcDbEntity
  8
Layer 1
 62
    22
370
     5
100
AcDbSpline
210
0.0
220
0.0
230
1.0
 70
    11
 71
     3
 72
   108
 73
   104
 74
     0
 42
0.0000000001
 43
0.0000000001
 40
0.0
 40
0.0
 40
0.0
 40
0.0
 40
0.0384615384615385
 40
0.0384615384615385
 40
0.0384615384615385
 40
0.0384615384615385
 40
0.0769230769230769
 40
0.0769230769230769
 40
0.0769230769230769
 40
0.0769230769230769
 40
0.1153846153846154
 40
0.1153846153846154
 40
0.1153846153846154
 40
0.1153846153846154
 40
0.1538461538461539
 40
0.1538461538461539
 40
0.1538461538461539
 40
0.1538461538461539
 40
0.1923076923076923
 40
0.1923076923076923
 40
0.1923076923076923
 40
0.1923076923076923
 40
0.2307692307692308
 40
0.2307692307692308
 40
0.2307692307692308
 40
0.2307692307692308
 40
0.2692307692307693
 40
0.2692307692307693
 40
0.2692307692307693
 40
0.2692307692307693
 40
0.3076923076923077
 40
0.3076923076923077
 40
0.3076923076923077
 40
0.3076923076923077
 40
0.3461538461538462
 40
0.3461538461538462
 40
0.3461538461538462
 40
0.3461538461538462
 40
0.3846153846153846
 40
0.3846153846153846
 40
0.3846153846153846
 40
0.3846153846153846
 40
0.423076923076923
 40
0.423076923076923
 40
0.423076923076923
 40
0.423076923076923
 40
0.4615384615384615
 40
0.4615384615384615
 40
0.4615384615384615
 40
0.4615384615384615
 40
0.4999999999999999
 40
0.4999999999999999
 40
0.4999999999999999
 40
0.4999999999999999
 40
0.5384615384615383
 40
0.5384615384615383
 40
0.5384615384615383
 40
0.5384615384615383
 40
0.5769230769230768
 40
0.5769230769230768
 40
0.5769230769230768
 40
0.5769230769230768
 40
0.6153846153846152
 40
0.6153846153846152
 40
0.6153846153846152
 40
0.6153846153846152
 40
0.6538461538461536
 40
0.6538461538461536
 40
0.6538461538461536
 40
0.6538461538461536
 40
0.6923076923076921
 40
0.6923076923076921
 40
0.6923076923076921
 40
0.6923076923076921
 40
0.7307692307692305
 40
0.7307692307692305
 40
0.7307692307692305
 40
0.7307692307692305
 40
0.7692307692307689
 40
0.7692307692307689
 40
0.7692307692307689
 40
0.7692307692307689
 40
0.8076923076923074
 40
0.8076923076923074
 40
0.8076923076923074
 40
0.8076923076923074
 40
0.8461538461538458
 40
0.8461538461538458
 40
0.8461538461538458
 40
0.8461538461538458
 40
0.8846153846153843
 40
0.8846153846153843
 40
0.8846153846153843
 40
0.8846153846153843
 40
0.9230769230769227
 40
0.9230769230769227
 40
0.9230769230769227
 40
0.9230769230769227
 40
0.9615384615384611
 40
0.9615384615384611
 40
0.9615384615384611
 40
0.9615384615384611
 40
1.0
 40
1.0
 40
1.0
 40
1.0
 10
-24.72076
 20
9.44101
 30
0.0
 10
-24.72076
 20
9.44101
 30
0.0
 10
-25.61655
 20
9.438350000000002
 30
0.0
 10
-25.61655
 20
9.438350000000002
 30
0.0
 10
-25.61655
 20
9.438350000000002
 30
0.0
 10
-25.74967
 20
9.43777
 30
0.0
 10
-25.80282
 20
9.400040000000001
 30
0.0
 10
-25.79613
 20
9.24835
 30
0.0
 10
-25.79613
 20
9.24835
 30
0.0
 10
-25.79613
 20
9.24835
 30
0.0
 10
-25.79343
 20
5.89379
 30
0.0
 10
-25.79343
 20
5.89379
 30
0.0
 10
-25.79343
 20
5.89379
 30
0.0
 10
-25.79343
 20
5.89379
 30
0.0
 10
-25.96553
 20
5.89379
 30
0.0
 10
-25.96553
 20
5.89379
 30
0.0
 10
-25.96553
 20
5.89379
 30
0.0
 10
-26.04842
 20
5.89379
 30
0.0
 10
-26.08886
 20
5.848960000000001
 30
0.0
 10
-26.08883
 20
5.783180000000001
 30
0.0
 10
-26.08883
 20
5.783180000000001
 30
0.0
 10
-26.08874
 20
5.554390000000001
 30
0.0
 10
-26.08865
 20
5.25189
 30
0.0
 10
-26.08857
 20
5.0231
 30
0.0
 10
-26.08857
 20
5.0231
 30
0.0
 10
-26.08851
 20
4.90934
 30
0.0
 10
-26.05522
 20
4.857690000000001
 30
0.0
 10
-25.94496
 20
4.858070000000001
 30
0.0
 10
-25.94496
 20
4.858070000000001
 30
0.0
 10
-25.94496
 20
4.858070000000001
 30
0.0
 10
-25.78777
 20
4.858400000000001
 30
0.0
 10
-25.78777
 20
4.858400000000001
 30
0.0
 10
-25.78777
 20
4.858400000000001
 30
0.0
 10
-25.78777
 20
3.73169
 30
0.0
 10
-25.78777
 20
2.6432
 30
0.0
 10
-25.78777
 20
1.51648
 30
0.0
 10
-25.78777
 20
1.51648
 30
0.0
 10
-25.78777
 20
1.31722
 30
0.0
 10
-25.76869
 20
1.2944
 30
0.0
 10
-25.55771
 20
1.2944
 30
0.0
 10
-25.55771
 20
1.2944
 30
0.0
 10
-25.55771
 20
1.2944
 30
0.0
 10
-24.71948
 20
1.2944
 30
0.0
 10
-24.71948
 20
1.2944
 30
0.0
 10
-24.71948
 20
1.2944
 30
0.0
 10
-24.71905
 20
1.23327
 30
0.0
 10
-24.71862
 20
1.23224
 30
0.0
 10
-24.71818
 20
1.1711
 30
0.0
 10
-24.71818
 20
1.1711
 30
0.0
 10
-24.71662
 20
1.00933
 30
0.0
 10
-24.68903
 20
0.9936
 30
0.0
 10
-24.51495
 20
0.9939000000000001
 30
0.0
 10
-24.51495
 20
0.9939000000000001
 30
0.0
 10
-24.33619
 20
0.9941300000000001
 30
0.0
 10
-24.11595
 20
0.9943600000000001
 30
0.0
 10
-23.93718
 20
0.9945900000000001
 30
0.0
 10
-23.93718
 20
0.9945900000000001
 30
0.0
 10
-23.74476
 20
0.9948800000000001
 30
0.0
 10
-23.67556
 20
1.01525
 30
0.0
 10
-23.6821
 20
1.15148
 30
0.0
 10
-23.6821
 20
1.15148
 30
0.0
 10
-23.6821
 20
1.15148
 30
0.0
 10
-23.6821
 20
1.3
 30
0.0
 10
-23.6821
 20
1.3
 30
0.0
 10
-23.6821
 20
1.3
 30
0.0
 10
-23.38568
 20
1.29506
 30
0.0
 10
-23.04208
 20
1.3032
 30
0.0
 10
-22.74565
 20
1.29825
 30
0.0
 10
-22.74565
 20
1.29825
 30
0.0
 10
-22.59052
 20
1.30722
 30
0.0
 10
-22.53804
 20
1.31828
 30
0.0
 10
-22.53811
 20
1.47619
 30
0.0
 10
-22.53811
 20
1.47619
 30
0.0
 10
-22.53811
 20
1.47619
 30
0.0
 10
-22.54071
 20
9.254900000000001
 30
0.0
 10
-22.54071
 20
9.254900000000001
 30
0.0
 10
-22.54071
 20
9.254900000000001
 30
0.0
 10
-22.54078
 20
9.411330000000001
 30
0.0
 10
-22.5542
 20
9.43951
 30
0.0
 10
-22.73898
 20
9.439710000000002
 30
0.0
 10
-22.73898
 20
9.439710000000002
 30
0.0
 10
-22.73898
 20
9.439710000000002
 30
0.0
 10
-23.68473
 20
9.440570000000001
 30
0.0
 10
-23.68473
 20
9.440570000000001
 30
0.0
 10
-23.68473
 20
9.440570000000001
 30
0.0
 10
-23.68471
 20
9.487670000000001
 30
0.0
 10
-23.68469
 20
9.514520000000001
 30
0.0
 10
-23.68466
 20
9.561630000000001
 30
0.0
 10
-23.68466
 20
9.561630000000001
 30
0.0
 10
-23.68454
 20
9.720940000000001
 30
0.0
 10
-23.7549
 20
9.736700000000001
 30
0.0
 10
-23.91211
 20
9.73616
 30
0.0
 10
-23.91211
 20
9.73616
 30
0.0
 10
-24.11268
 20
9.73569
 30
0.0
 10
-24.32437
 20
9.73522
 30
0.0
 10
-24.52493
 20
9.734760000000001
 30
0.0
 10
-24.52493
 20
9.734760000000001
 30
0.0
 10
-24.67263
 20
9.734260000000001
 30
0.0
 10
-24.72546
 20
9.715610000000002
 30
0.0
 10
-24.72002
 20
9.561660000000002
 30
0.0
 10
-24.72002
 20
9.561660000000002
 30
0.0
 10
-24.72002
 20
9.561660000000002
 30
0.0
 10
-24.72076
 20
9.44101
 30
0.0
 10
-24.72076
 20
9.44101
 30
0.0
  0
SPLINE
  5
3C
330
1F
100
AcDbEntity
  8
Layer 1
 62
    22
370
     5
100
AcDbSpline
210
0.0
220
0.0
230
1.0
 70
    11
 71
     3
 72
    52
 73
    48
 74
     0
 42
0.0000000001
 43
0.0000000001
 40
0.0
 40
0.0
 40
0.0
 40
0.0
 40
0.0833333333333333
 40
0.0833333333333333
 40
0.0833333333333333
 40
0.0833333333333333
 40
0.1666666666666667
 40
0.1666666666666667
 40
0.1666666666666667
 40
0.1666666666666667
 40
0.25
 40
0.25
 40
0.25
 40
0.25
 40
0.3333333333333333
 40
0.3333333333333333
 40
0.3333333333333333
 40
0.3333333333333333
 40
0.4166666666666666
 40
0.4166666666666666
 40
0.4166666666666666
 40
0.4166666666666666
 40
0.4999999999999999
 40
0.4999999999999999
 40
0.4999999999999999
 40
0.4999999999999999
 40
0.5833333333333333
 40
0.5833333333333333
 40
0.5833333333333333
 40
0.5833333333333333
 40
0.6666666666666666
 40
0.6666666666666666
 40
0.6666666666666666
 40
0.6666666666666666
 40
0.75
 40
0.75
 40
0.75
 40
0.75
 40
0.8333333333333334
 40
0.8333333333333334
 40
0.8333333333333334
 40
0.8333333333333334
 40
0.9166666666666667
 40
0.9166666666666667
 40
0.9166666666666667
 40
0.9166666666666667
 40
1.0
 40
1.0
 40
1.0
 40
1.0
 10
-17.48732
 20
-4.77834
 30
0.0
 10
-18.0866
 20
-7.887290000000001
 30
0.0
 10
-18.04964
 20
-9.900550000000001
 30
0.0
 10
-17.48732
 20
-12.93327
 30
0.0
 10
-17.48732
 20
-12.93327
 30
0.0
 10
-17.48732
 20
-12.93327
 30
0.0
 10
-2.16249
 20
-12.94025
 30
0.0
 10
-2.16249
 20
-12.94025
 30
0.0
 10
-2.16249
 20
-12.94025
 30
0.0
 10
-1.86574
 20
-12.9404
 30
0.0
 10
-1.80186
 20
-12.89556
 30
0.0
 10
-1.80186
 20
-12.65164
 30
0.0
 10
-1.80186
 20
-12.65164
 30
0.0
 10
-1.80186
 20
-12.65164
 30
0.0
 10
-1.80186
 20
-12.43087
 30
0.0
 10
-1.80186
 20
-12.43087
 30
0.0
 10
-1.80186
 20
-12.43087
 30
0.0
 10
-1.79694
 20
-12.22845
 30
0.0
 10
-1.86314
 20
-12.14967
 30
0.0
 10
-2.04932
 20
-12.14922
 30
0.0
 10
-2.04932
 20
-12.14922
 30
0.0
 10
-2.04932
 20
-12.14922
 30
0.0
 10
-2.30995
 20
-12.14885
 30
0.0
 10
-2.30995
 20
-12.14885
 30
0.0
 10
-2.30995
 20
-12.14885
 30
0.0
 10
-2.30995
 20
-12.14885
 30
0.0
 10
-2.334
 20
-5.577400000000001
 30
0.0
 10
-2.334
 20
-5.577400000000001
 30
0.0
 10
-2.334
 20
-5.577400000000001
 30
0.0
 10
-2.334
 20
-5.577400000000001
 30
0.0
 10
-2.06408
 20
-5.577400000000001
 30
0.0
 10
-2.06408
 20
-5.577400000000001
 30
0.0
 10
-2.06408
 20
-5.577400000000001
 30
0.0
 10
-1.90224
 20
-5.577400000000001
 30
0.0
 10
-1.79694
 20
-5.53814
 30
0.0
 10
-1.80186
 20
-5.334940000000001
 30
0.0
 10
-1.80186
 20
-5.334940000000001
 30
0.0
 10
-1.80186
 20
-5.334940000000001
 30
0.0
 10
-1.80186
 20
-5.089600000000001
 30
0.0
 10
-1.80186
 20
-5.089600000000001
 30
0.0
 10
-1.80186
 20
-5.089600000000001
 30
0.0
 10
-1.80186
 20
-4.818020000000001
 30
0.0
 10
-1.89011
 20
-4.78094
 30
0.0
 10
-2.18217
 20
-4.78087
 30
0.0
 10
-2.18217
 20
-4.78087
 30
0.0
 10
-2.18217
 20
-4.78087
 30
0.0
 10
-17.48732
 20
-4.77834
 30
0.0
 10
-17.48732
 20
-4.77834
 30
0.0
  0
SPLINE
  5
3D
330
1F
100
AcDbEntity
  8
Layer 1
 62
    22
370
     5
100
AcDbSpline
210
0.0
220
0.0
230
1.0
 70
    11
 71
     3
 72
    36
 73
    32
 74
     0
 42
0.0000000001
 43
0.0000000001
 40
0.0
 40
0.0
 40
0.0
 40
0.0
 40
0.125
 40
0.125
 40
0.125
 40
0.125
 40
0.25
 40
0.25
 40
0.25
 40
0.25
 40
0.375
 40
0.375
 40
0.375
 40
0.375
 40
0.5
 40
0.5
 40
0.5
 40
0.5
 40
0.625
 40
0.625
 40
0.625
 40
0.625
 40
0.75
 40
0.75
 40
0.75
 40
0.75
 40
0.875
 40
0.875
 40
0.875
 40
0.875
 40
1.0
 40
1.0
 40
1.0
 40
1.0
 10
-17.45408
 20
-9.243460000000001
 30
0.0
 10
-17.45408
 20
-9.243460000000001
 30
0.0
 10
-17.45408
 20
-8.458360000000001
 30
0.0
 10
-17.45408
 20
-8.458360000000001
 30
0.0
 10
-17.45408
 20
-8.458360000000001
 30
0.0
 10
-17.45408
 20
-8.38833
 30
0.0
 10
-17.4088
 20
-8.331040000000002
 30
0.0
 10
-17.35346
 20
-8.331040000000002
 30
0.0
 10
-17.35346
 20
-8.331040000000002
 30
0.0
 10
-17.35346
 20
-8.331040000000002
 30
0.0
 10
-17.23607
 20
-8.331040000000002
 30
0.0
 10
-17.23607
 20
-8.331040000000002
 30
0.0
 10
-17.23607
 20
-8.331040000000002
 30
0.0
 10
-17.18073
 20
-8.331040000000002
 30
0.0
 10
-17.13545
 20
-8.38833
 30
0.0
 10
-17.13545
 20
-8.458360000000001
 30
0.0
 10
-17.13545
 20
-8.458360000000001
 30
0.0
 10
-17.13545
 20
-8.458360000000001
 30
0.0
 10
-17.13545
 20
-9.243460000000001
 30
0.0
 10
-17.13545
 20
-9.243460000000001
 30
0.0
 10
-17.13545
 20
-9.243460000000001
 30
0.0
 10
-17.13545
 20
-9.313490000000002
 30
0.0
 10
-17.18073
 20
-9.37078
 30
0.0
 10
-17.23607
 20
-9.37078
 30
0.0
 10
-17.23607
 20
-9.37078
 30
0.0
 10
-17.23607
 20
-9.37078
 30
0.0
 10
-17.35346
 20
-9.37078
 30
0.0
 10
-17.35346
 20
-9.37078
 30
0.0
 10
-17.35346
 20
-9.37078
 30
0.0
 10
-17.4088
 20
-9.37078
 30
0.0
 10
-17.45408
 20
-9.313490000000002
 30
0.0
 10
-17.45408
 20
-9.243460000000001
 30
0.0
  0
SPLINE
  5
3E
330
1F
100
AcDbEntity
  8
Layer 1
 62
    22
370
     5
100
AcDbSpline
210
0.0
220
0.0
230
1.0
 70
    11
 71
     3
 72
    36
 73
    32
 74
     0
 42
0.0000000001
 43
0.0000000001
 40
0.0
 40
0.0
 40
0.0
 40
0.0
 40
0.125
 40
0.125
 40
0.125
 40
0.125
 40
0.25
 40
0.25
 40
0.25
 40
0.25
 40
0.375
 40
0.375
 40
0.375
 40
0.375
 40
0.5
 40
0.5
 40
0.5
 40
0.5
 40
0.625
 40
0.625
 40
0.625
 40
0.625
 40
0.75
 40
0.75
 40
0.75
 40
0.75
 40
0.875
 40
0.875
 40
0.875
 40
0.875
 40
1.0
 40
1.0
 40
1.0
 40
1.0
 10
-7.267390000000001
 20
-9.243460000000001
 30
0.0
 10
-7.267390000000001
 20
-9.243460000000001
 30
0.0
 10
-7.267390000000001
 20
-8.458360000000001
 30
0.0
 10
-7.267390000000001
 20
-8.458360000000001
 30
0.0
 10
-7.267390000000001
 20
-8.458360000000001
 30
0.0
 10
-7.267390000000001
 20
-8.38833
 30
0.0
 10
-7.222110000000001
 20
-8.331040000000002
 30
0.0
 10
-7.166770000000001
 20
-8.331040000000002
 30
0.0
 10
-7.166770000000001
 20
-8.331040000000002
 30
0.0
 10
-7.166770000000001
 20
-8.331040000000002
 30
0.0
 10
-7.04938
 20
-8.331040000000002
 30
0.0
 10
-7.04938
 20
-8.331040000000002
 30
0.0
 10
-7.04938
 20
-8.331040000000002
 30
0.0
 10
-6.994040000000001
 20
-8.331040000000002
 30
0.0
 10
-6.948760000000001
 20
-8.38833
 30
0.0
 10
-6.948760000000001
 20
-8.458360000000001
 30
0.0
 10
-6.948760000000001
 20
-8.458360000000001
 30
0.0
 10
-6.948760000000001
 20
-8.458360000000001
 30
0.0
 10
-6.948760000000001
 20
-9.243460000000001
 30
0.0
 10
-6.948760000000001
 20
-9.243460000000001
 30
0.0
 10
-6.948760000000001
 20
-9.243460000000001
 30
0.0
 10
-6.948760000000001
 20
-9.313490000000002
 30
0.0
 10
-6.994040000000001
 20
-9.37078
 30
0.0
 10
-7.04938
 20
-9.37078
 30
0.0
 10
-7.04938
 20
-9.37078
 30
0.0
 10
-7.04938
 20
-9.37078
 30
0.0
 10
-7.166770000000001
 20
-9.37078
 30
0.0
 10
-7.166770000000001
 20
-9.37078
 30
0.0
 10
-7.166770000000001
 20
-9.37078
 30
0.0
 10
-7.222110000000001
 20
-9.37078
 30
0.0
 10
-7.267390000000001
 20
-9.313490000000002
 30
0.0
 10
-7.267390000000001
 20
-9.243460000000001
 30
0.0
  0
SPLINE
  5
3F
330
1F
100
AcDbEntity
  8
Layer 1
 62
    22
370
     5
100
AcDbSpline
210
0.0
220
0.0
230
1.0
 70
    11
 71
     3
 72
    36
 73
    32
 74
     0
 42
0.0000000001
 43
0.0000000001
 40
0.0
 40
0.0
 40
0.0
 40
0.0
 40
0.125
 40
0.125
 40
0.125
 40
0.125
 40
0.25
 40
0.25
 40
0.25
 40
0.25
 40
0.375
 40
0.375
 40
0.375
 40
0.375
 40
0.5
 40
0.5
 40
0.5
 40
0.5
 40
0.625
 40
0.625
 40
0.625
 40
0.625
 40
0.75
 40
0.75
 40
0.75
 40
0.75
 40
0.875
 40
0.875
 40
0.875
 40
0.875
 40
1.0
 40
1.0
 40
1.0
 40
1.0
 10
-3.17609
 20
-9.249030000000001
 30
0.0
 10
-3.17609
 20
-9.249030000000001
 30
0.0
 10
-3.17609
 20
-8.463930000000001
 30
0.0
 10
-3.17609
 20
-8.463930000000001
 30
0.0
 10
-3.17609
 20
-8.463930000000001
 30
0.0
 10
-3.17609
 20
-8.3939
 30
0.0
 10
-3.13081
 20
-8.33661
 30
0.0
 10
-3.07547
 20
-8.33661
 30
0.0
 10
-3.07547
 20
-8.33661
 30
0.0
 10
-3.07547
 20
-8.33661
 30
0.0
 10
-2.95808
 20
-8.33661
 30
0.0
 10
-2.95808
 20
-8.33661
 30
0.0
 10
-2.95808
 20
-8.33661
 30
0.0
 10
-2.90274
 20
-8.33661
 30
0.0
 10
-2.85746
 20
-8.3939
 30
0.0
 10
-2.85746
 20
-8.463930000000001
 30
0.0
 10
-2.85746
 20
-8.463930000000001
 30
0.0
 10
-2.85746
 20
-8.463930000000001
 30
0.0
 10
-2.85746
 20
-9.249030000000001
 30
0.0
 10
-2.85746
 20
-9.249030000000001
 30
0.0
 10
-2.85746
 20
-9.249030000000001
 30
0.0
 10
-2.85746
 20
-9.31906
 30
0.0
 10
-2.90274
 20
-9.37635
 30
0.0
 10
-2.95808
 20
-9.37635
 30
0.0
 10
-2.95808
 20
-9.37635
 30
0.0
 10
-2.95808
 20
-9.37635
 30
0.0
 10
-3.07547
 20
-9.37635
 30
0.0
 10
-3.07547
 20
-9.37635
 30
0.0
 10
-3.07547
 20
-9.37635
 30
0.0
 10
-3.13081
 20
-9.37635
 30
0.0
 10
-3.17609
 20
-9.31906
 30
0.0
 10
-3.17609
 20
-9.249030000000001
 30
0.0
  0
SPLINE
  5
40
330
1F
100
AcDbEntity
  8
Layer 1
 62
    22
370
     5
100
AcDbSpline
210
0.0
220
0.0
230
1.0
 70
    11
 71
     3
 72
   100
 73
    96
 74
     0
 42
0.0000000001
 43
0.0000000001
 40
0.0
 40
0.0
 40
0.0
 40
0.0
 40
0.0416666666666667
 40
0.0416666666666667
 40
0.0416666666666667
 40
0.0416666666666667
 40
0.0833333333333333
 40
0.0833333333333333
 40
0.0833333333333333
 40
0.0833333333333333
 40
0.125
 40
0.125
 40
0.125
 40
0.125
 40
0.1666666666666667
 40
0.1666666666666667
 40
0.1666666666666667
 40
0.1666666666666667
 40
0.2083333333333333
 40
0.2083333333333333
 40
0.2083333333333333
 40
0.2083333333333333
 40
0.25
 40
0.25
 40
0.25
 40
0.25
 40
0.2916666666666666
 40
0.2916666666666666
 40
0.2916666666666666
 40
0.2916666666666666
 40
0.3333333333333333
 40
0.3333333333333333
 40
0.3333333333333333
 40
0.3333333333333333
 40
0.375
 40
0.375
 40
0.375
 40
0.375
 40
0.4166666666666667
 40
0.4166666666666667
 40
0.4166666666666667
 40
0.4166666666666667
 40
0.4583333333333334
 40
0.4583333333333334
 40
0.4583333333333334
 40
0.4583333333333334
 40
0.5
 40
0.5
 40
0.5
 40
0.5
 40
0.5416666666666666
 40
0.5416666666666666
 40
0.5416666666666666
 40
0.5416666666666666
 40
0.5833333333333333
 40
0.5833333333333333
 40
0.5833333333333333
 40
0.5833333333333333
 40
0.6249999999999999
 40
0.6249999999999999
 40
0.6249999999999999
 40
0.6249999999999999
 40
0.6666666666666665
 40
0.6666666666666665
 40
0.6666666666666665
 40
0.6666666666666665
 40
0.7083333333333332
 40
0.7083333333333332
 40
0.7083333333333332
 40
0.7083333333333332
 40
0.7499999999999998
 40
0.7499999999999998
 40
0.7499999999999998
 40
0.7499999999999998
 40
0.7916666666666664
 40
0.7916666666666664
 40
0.7916666666666664
 40
0.7916666666666664
 40
0.833333333333333
 40
0.833333333333333
 40
0.833333333333333
 40
0.833333333333333
 40
0.8749999999999997
 40
0.8749999999999997
 40
0.8749999999999997
 40
0.8749999999999997
 40
0.9166666666666663
 40
0.9166666666666663
 40
0.9166666666666663
 40
0.9166666666666663
 40
0.9583333333333329
 40
0.9583333333333329
 40
0.9583333333333329
 40
0.9583333333333329
 40
1.0
 40
1.0
 40
1.0
 40
1.0
 10
-17.33581
 20
4.320600000000001
 30
0.0
 10
-18.0816
 20
3.105750000000001
 30
0.0
 10
-18.10188
 20
2.41296
 30
0.0
 10
-17.36227
 20
0.8859
 30
0.0
 10
-17.36227
 20
0.8859
 30
0.0
 10
-17.36227
 20
0.8859
 30
0.0
 10
-2.14498
 20
0.8859
 30
0.0
 10
-2.14498
 20
0.8859
 30
0.0
 10
-2.14498
 20
0.8859
 30
0.0
 10
-1.9549
 20
0.8704600000000001
 30
0.0
 10
-1.85834
 20
0.9351800000000001
 30
0.0
 10
-1.8553
 20
1.08006
 30
0.0
 10
-1.8553
 20
1.08006
 30
0.0
 10
-1.8553
 20
1.08006
 30
0.0
 10
-1.85707
 20
4.04652
 30
0.0
 10
-1.85707
 20
4.04652
 30
0.0
 10
-1.85707
 20
4.04652
 30
0.0
 10
-1.85707
 20
4.04652
 30
0.0
 10
-2.26915
 20
4.047090000000001
 30
0.0
 10
-2.26915
 20
4.047090000000001
 30
0.0
 10
-2.26915
 20
4.047090000000001
 30
0.0
 10
-2.41998
 20
4.04706
 30
0.0
 10
-2.42306
 20
4.346310000000001
 30
0.0
 10
-2.26734
 20
4.346570000000001
 30
0.0
 10
-2.26734
 20
4.346570000000001
 30
0.0
 10
-2.26734
 20
4.346570000000001
 30
0.0
 10
-1.85744
 20
4.34724
 30
0.0
 10
-1.85744
 20
4.34724
 30
0.0
 10
-1.85744
 20
4.34724
 30
0.0
 10
-1.85744
 20
4.34724
 30
0.0
 10
-1.85374
 20
4.623480000000001
 30
0.0
 10
-1.85374
 20
4.623480000000001
 30
0.0
 10
-1.85374
 20
4.623480000000001
 30
0.0
 10
-1.84952
 20
4.733470000000001
 30
0.0
 10
-1.90616
 20
4.78261
 30
0.0
 10
-2.02363
 20
4.770910000000001
 30
0.0
 10
-2.02363
 20
4.770910000000001
 30
0.0
 10
-2.02363
 20
4.770910000000001
 30
0.0
 10
-2.86756
 20
4.769100000000001
 30
0.0
 10
-2.86756
 20
4.769100000000001
 30
0.0
 10
-2.86756
 20
4.769100000000001
 30
0.0
 10
-2.86756
 20
4.769100000000001
 30
0.0
 10
-2.86756
 20
2.87529
 30
0.0
 10
-2.86756
 20
2.87529
 30
0.0
 10
-2.86756
 20
2.87529
 30
0.0
 10
-2.86851
 20
2.51051
 30
0.0
 10
-3.16228
 20
2.53361
 30
0.0
 10
-3.16739
 20
2.88543
 30
0.0
 10
-3.16739
 20
2.88543
 30
0.0
 10
-3.16739
 20
2.88543
 30
0.0
 10
-3.16558
 20
4.526400000000001
 30
0.0
 10
-3.16558
 20
4.526400000000001
 30
0.0
 10
-3.16558
 20
4.526400000000001
 30
0.0
 10
-3.16558
 20
4.526400000000001
 30
0.0
 10
-6.989140000000001
 20
4.526400000000001
 30
0.0
 10
-6.989140000000001
 20
4.526400000000001
 30
0.0
 10
-6.989140000000001
 20
4.526400000000001
 30
0.0
 10
-6.989140000000001
 20
4.526400000000001
 30
0.0
 10
-6.989140000000001
 20
2.9677
 30
0.0
 10
-6.989140000000001
 20
2.9677
 30
0.0
 10
-6.989140000000001
 20
2.9677
 30
0.0
 10
-6.988210000000001
 20
2.6897
 30
0.0
 10
-7.2845
 20
2.69139
 30
0.0
 10
-7.28556
 20
2.97312
 30
0.0
 10
-7.28556
 20
2.97312
 30
0.0
 10
-7.28556
 20
2.97312
 30
0.0
 10
-7.28556
 20
4.35712
 30
0.0
 10
-7.28556
 20
4.35712
 30
0.0
 10
-7.28556
 20
4.35712
 30
0.0
 10
-7.28556
 20
4.35712
 30
0.0
 10
-14.59549
 20
4.35651
 30
0.0
 10
-14.59549
 20
4.35651
 30
0.0
 10
-14.59549
 20
4.35651
 30
0.0
 10
-14.85094
 20
4.60867
 30
0.0
 10
-15.19072
 20
4.82709
 30
0.0
 10
-15.61483
 20
5.0118
 30
0.0
 10
-15.61483
 20
5.0118
 30
0.0
 10
-16.14879
 20
5.100470000000001
 30
0.0
 10
-16.64062
 20
5.07584
 30
0.0
 10
-17.17454
 20
5.09623
 30
0.0
 10
-17.17454
 20
5.09623
 30
0.0
 10
-17.38048
 20
4.934500000000001
 30
0.0
 10
-17.27082
 20
4.64146
 30
0.0
 10
-17.25117
 20
4.622140000000001
 30
0.0
 10
-17.25117
 20
4.622140000000001
 30
0.0
 10
-17.25117
 20
4.622140000000001
 30
0.0
 10
-16.58563
 20
4.623480000000001
 30
0.0
 10
-16.58563
 20
4.623480000000001
 30
0.0
 10
-16.58563
 20
4.623480000000001
 30
0.0
 10
-16.34582
 20
4.621860000000001
 30
0.0
 10
-16.334
 20
4.32043
 30
0.0
 10
-16.55917
 20
4.32042
 30
0.0
 10
-16.55917
 20
4.32042
 30
0.0
 10
-16.55917
 20
4.32042
 30
0.0
 10
-17.33581
 20
4.320600000000001
 30
0.0
 10
-17.33581
 20
4.320600000000001
 30
0.0
  0
SPLINE
  5
41
330
1F
100
AcDbEntity
  8
Layer 1
 62
    22
370
     5
100
AcDbSpline
210
0.0
220
0.0
230
1.0
 70
    11
 71
     3
 72
    36
 73
    32
 74
     0
 42
0.0000000001
 43
0.0000000001
 40
0.0
 40
0.0
 40
0.0
 40
0.0
 40
0.125
 40
0.125
 40
0.125
 40
0.125
 40
0.25
 40
0.25
 40
0.25
 40
0.25
 40
0.375
 40
0.375
 40
0.375
 40
0.375
 40
0.5
 40
0.5
 40
0.5
 40
0.5
 40
0.625
 40
0.625
 40
0.625
 40
0.625
 40
0.75
 40
0.75
 40
0.75
 40
0.75
 40
0.875
 40
0.875
 40
0.875
 40
0.875
 40
1.0
 40
1.0
 40
1.0
 40
1.0
 10
-10.3114
 20
2.40333
 30
0.0
 10
-10.3114
 20
2.40333
 30
0.0
 10
-10.3114
 20
3.18843
 30
0.0
 10
-10.3114
 20
3.18843
 30
0.0
 10
-10.3114
 20
3.18843
 30
0.0
 10
-10.3114
 20
3.25846
 30
0.0
 10
-10.26612
 20
3.31575
 30
0.0
 10
-10.21078
 20
3.31575
 30
0.0
 10
-10.21078
 20
3.31575
 30
0.0
 10
-10.21078
 20
3.31575
 30
0.0
 10
-10.09339
 20
3.31575
 30
0.0
 10
-10.09339
 20
3.31575
 30
0.0
 10
-10.09339
 20
3.31575
 30
0.0
 10
-10.03805
 20
3.31575
 30
0.0
 10
-9.99277
 20
3.25846
 30
0.0
 10
-9.99277
 20
3.18843
 30
0.0
 10
-9.99277
 20
3.18843
 30
0.0
 10
-9.99277
 20
3.18843
 30
0.0
 10
-9.99277
 20
2.40333
 30
0.0
 10
-9.99277
 20
2.40333
 30
0.0
 10
-9.99277
 20
2.40333
 30
0.0
 10
-9.99277
 20
2.3333
 30
0.0
 10
-10.03805
 20
2.27601
 30
0.0
 10
-10.09339
 20
2.27601
 30
0.0
 10
-10.09339
 20
2.27601
 30
0.0
 10
-10.09339
 20
2.27601
 30
0.0
 10
-10.21078
 20
2.27601
 30
0.0
 10
-10.21078
 20
2.27601
 30
0.0
 10
-10.21078
 20
2.27601
 30
0.0
 10
-10.26612
 20
2.27601
 30
0.0
 10
-10.3114
 20
2.3333
 30
0.0
 10
-10.3114
 20
2.40333
 30
0.0
  0
SPLINE
  5
42
330
1F
100
AcDbEntity
  8
Layer 1
 62
    22
370
     5
100
AcDbSpline
210
0.0
220
0.0
230
1.0
 70
    11
 71
     3
 72
    36
 73
    32
 74
     0
 42
0.0000000001
 43
0.0000000001
 40
0.0
 40
0.0
 40
0.0
 40
0.0
 40
0.125
 40
0.125
 40
0.125
 40
0.125
 40
0.25
 40
0.25
 40
0.25
 40
0.25
 40
0.375
 40
0.375
 40
0.375
 40
0.375
 40
0.5
 40
0.5
 40
0.5
 40
0.5
 40
0.625
 40
0.625
 40
0.625
 40
0.625
 40
0.75
 40
0.75
 40
0.75
 40
0.75
 40
0.875
 40
0.875
 40
0.875
 40
0.875
 40
1.0
 40
1.0
 40
1.0
 40
1.0
 10
-13.36376
 20
2.40333
 30
0.0
 10
-13.36376
 20
2.40333
 30
0.0
 10
-13.36376
 20
3.18843
 30
0.0
 10
-13.36376
 20
3.18843
 30
0.0
 10
-13.36376
 20
3.18843
 30
0.0
 10
-13.36376
 20
3.25846
 30
0.0
 10
-13.31848
 20
3.31575
 30
0.0
 10
-13.26314
 20
3.31575
 30
0.0
 10
-13.26314
 20
3.31575
 30
0.0
 10
-13.26314
 20
3.31575
 30
0.0
 10
-13.14575
 20
3.31575
 30
0.0
 10
-13.14575
 20
3.31575
 30
0.0
 10
-13.14575
 20
3.31575
 30
0.0
 10
-13.09041
 20
3.31575
 30
0.0
 10
-13.04513
 20
3.25846
 30
0.0
 10
-13.04513
 20
3.18843
 30
0.0
 10
-13.04513
 20
3.18843
 30
0.0
 10
-13.04513
 20
3.18843
 30
0.0
 10
-13.04513
 20
2.40333
 30
0.0
 10
-13.04513
 20
2.40333
 30
0.0
 10
-13.04513
 20
2.40333
 30
0.0
 10
-13.04513
 20
2.3333
 30
0.0
 10
-13.09041
 20
2.27601
 30
0.0
 10
-13.14575
 20
2.27601
 30
0.0
 10
-13.14575
 20
2.27601
 30
0.0
 10
-13.14575
 20
2.27601
 30
0.0
 10
-13.26314
 20
2.27601
 30
0.0
 10
-13.26314
 20
2.27601
 30
0.0
 10
-13.26314
 20
2.27601
 30
0.0
 10
-13.31848
 20
2.27601
 30
0.0
 10
-13.36376
 20
2.3333
 30
0.0
 10
-13.36376
 20
2.40333
 30
0.0
  0
SPLINE
  5
43
330
1F
100
AcDbEntity
  8
Layer 1
 62
    22
370
     5
100
AcDbSpline
210
0.0
220
0.0
230
1.0
 70
    11
 71
     3
 72
    36
 73
    32
 74
     0
 42
0.0000000001
 43
0.0000000001
 40
0.0
 40
0.0
 40
0.0
 40
0.0
 40
0.125
 40
0.125
 40
0.125
 40
0.125
 40
0.25
 40
0.25
 40
0.25
 40
0.25
 40
0.375
 40
0.375
 40
0.375
 40
0.375
 40
0.5
 40
0.5
 40
0.5
 40
0.5
 40
0.625
 40
0.625
 40
0.625
 40
0.625
 40
0.75
 40
0.75
 40
0.75
 40
0.75
 40
0.875
 40
0.875
 40
0.875
 40
0.875
 40
1.0
 40
1.0
 40
1.0
 40
1.0
 10
-17.45308
 20
2.40333
 30
0.0
 10
-17.45308
 20
2.40333
 30
0.0
 10
-17.45308
 20
3.18843
 30
0.0
 10
-17.45308
 20
3.18843
 30
0.0
 10
-17.45308
 20
3.18843
 30
0.0
 10
-17.45308
 20
3.25846
 30
0.0
 10
-17.4078
 20
3.31575
 30
0.0
 10
-17.35246
 20
3.31575
 30
0.0
 10
-17.35246
 20
3.31575
 30
0.0
 10
-17.35246
 20
3.31575
 30
0.0
 10
-17.23507
 20
3.31575
 30
0.0
 10
-17.23507
 20
3.31575
 30
0.0
 10
-17.23507
 20
3.31575
 30
0.0
 10
-17.17973
 20
3.31575
 30
0.0
 10
-17.13445
 20
3.25846
 30
0.0
 10
-17.13445
 20
3.18843
 30
0.0
 10
-17.13445
 20
3.18843
 30
0.0
 10
-17.13445
 20
3.18843
 30
0.0
 10
-17.13445
 20
2.40333
 30
0.0
 10
-17.13445
 20
2.40333
 30
0.0
 10
-17.13445
 20
2.40333
 30
0.0
 10
-17.13445
 20
2.3333
 30
0.0
 10
-17.17973
 20
2.27601
 30
0.0
 10
-17.23507
 20
2.27601
 30
0.0
 10
-17.23507
 20
2.27601
 30
0.0
 10
-17.23507
 20
2.27601
 30
0.0
 10
-17.35246
 20
2.27601
 30
0.0
 10
-17.35246
 20
2.27601
 30
0.0
 10
-17.35246
 20
2.27601
 30
0.0
 10
-17.4078
 20
2.27601
 30
0.0
 10
-17.45308
 20
2.3333
 30
0.0
 10
-17.45308
 20
2.40333
 30
0.0
  0
SPLINE
  5
44
330
1F
100
AcDbEntity
  8
Layer 1
 62
    22
370
     5
100
AcDbSpline
210
0.0
220
0.0
230
1.0
 70
    11
 71
     3
 72
   100
 73
    96
 74
     0
 42
0.0000000001
 43
0.0000000001
 40
0.0
 40
0.0
 40
0.0
 40
0.0
 40
0.0416666666666667
 40
0.0416666666666667
 40
0.0416666666666667
 40
0.0416666666666667
 40
0.0833333333333333
 40
0.0833333333333333
 40
0.0833333333333333
 40
0.0833333333333333
 40
0.125
 40
0.125
 40
0.125
 40
0.125
 40
0.1666666666666667
 40
0.1666666666666667
 40
0.1666666666666667
 40
0.1666666666666667
 40
0.2083333333333333
 40
0.2083333333333333
 40
0.2083333333333333
 40
0.2083333333333333
 40
0.25
 40
0.25
 40
0.25
 40
0.25
 40
0.2916666666666666
 40
0.2916666666666666
 40
0.2916666666666666
 40
0.2916666666666666
 40
0.3333333333333333
 40
0.3333333333333333
 40
0.3333333333333333
 40
0.3333333333333333
 40
0.375
 40
0.375
 40
0.375
 40
0.375
 40
0.4166666666666667
 40
0.4166666666666667
 40
0.4166666666666667
 40
0.4166666666666667
 40
0.4583333333333334
 40
0.4583333333333334
 40
0.4583333333333334
 40
0.4583333333333334
 40
0.5
 40
0.5
 40
0.5
 40
0.5
 40
0.5416666666666666
 40
0.5416666666666666
 40
0.5416666666666666
 40
0.5416666666666666
 40
0.5833333333333333
 40
0.5833333333333333
 40
0.5833333333333333
 40
0.5833333333333333
 40
0.6249999999999999
 40
0.6249999999999999
 40
0.6249999999999999
 40
0.6249999999999999
 40
0.6666666666666665
 40
0.6666666666666665
 40
0.6666666666666665
 40
0.6666666666666665
 40
0.7083333333333332
 40
0.7083333333333332
 40
0.7083333333333332
 40
0.7083333333333332
 40
0.7499999999999998
 40
0.7499999999999998
 40
0.7499999999999998
 40
0.7499999999999998
 40
0.7916666666666664
 40
0.7916666666666664
 40
0.7916666666666664
 40
0.7916666666666664
 40
0.833333333333333
 40
0.833333333333333
 40
0.833333333333333
 40
0.833333333333333
 40
0.8749999999999997
 40
0.8749999999999997
 40
0.8749999999999997
 40
0.8749999999999997
 40
0.9166666666666663
 40
0.9166666666666663
 40
0.9166666666666663
 40
0.9166666666666663
 40
0.9583333333333329
 40
0.9583333333333329
 40
0.9583333333333329
 40
0.9583333333333329
 40
1.0
 40
1.0
 40
1.0
 40
1.0
 10
-17.33581
 20
-3.4207
 30
0.0
 10
-18.0816
 20
-2.20585
 30
0.0
 10
-18.10188
 20
-1.51306
 30
0.0
 10
-17.36227
 20
0.014
 30
0.0
 10
-17.36227
 20
0.014
 30
0.0
 10
-17.36227
 20
0.014
 30
0.0
 10
-2.14498
 20
0.014
 30
0.0
 10
-2.14498
 20
0.014
 30
0.0
 10
-2.14498
 20
0.014
 30
0.0
 10
-1.9549
 20
0.02944
 30
0.0
 10
-1.85834
 20
-0.03528
 30
0.0
 10
-1.8553
 20
-0.18016
 30
0.0
 10
-1.8553
 20
-0.18016
 30
0.0
 10
-1.8553
 20
-0.18016
 30
0.0
 10
-1.85707
 20
-3.14662
 30
0.0
 10
-1.85707
 20
-3.14662
 30
0.0
 10
-1.85707
 20
-3.14662
 30
0.0
 10
-1.85707
 20
-3.14662
 30
0.0
 10
-2.26915
 20
-3.14719
 30
0.0
 10
-2.26915
 20
-3.14719
 30
0.0
 10
-2.26915
 20
-3.14719
 30
0.0
 10
-2.41998
 20
-3.14716
 30
0.0
 10
-2.42306
 20
-3.44641
 30
0.0
 10
-2.26734
 20
-3.44667
 30
0.0
 10
-2.26734
 20
-3.44667
 30
0.0
 10
-2.26734
 20
-3.44667
 30
0.0
 10
-1.85744
 20
-3.44734
 30
0.0
 10
-1.85744
 20
-3.44734
 30
0.0
 10
-1.85744
 20
-3.44734
 30
0.0
 10
-1.85744
 20
-3.44734
 30
0.0
 10
-1.85374
 20
-3.72358
 30
0.0
 10
-1.85374
 20
-3.72358
 30
0.0
 10
-1.85374
 20
-3.72358
 30
0.0
 10
-1.84952
 20
-3.83357
 30
0.0
 10
-1.90616
 20
-3.88271
 30
0.0
 10
-2.02363
 20
-3.871010000000001
 30
0.0
 10
-2.02363
 20
-3.871010000000001
 30
0.0
 10
-2.02363
 20
-3.871010000000001
 30
0.0
 10
-2.86756
 20
-3.8692
 30
0.0
 10
-2.86756
 20
-3.8692
 30
0.0
 10
-2.86756
 20
-3.8692
 30
0.0
 10
-2.86756
 20
-3.8692
 30
0.0
 10
-2.86756
 20
-1.97539
 30
0.0
 10
-2.86756
 20
-1.97539
 30
0.0
 10
-2.86756
 20
-1.97539
 30
0.0
 10
-2.86851
 20
-1.61061
 30
0.0
 10
-3.16228
 20
-1.63371
 30
0.0
 10
-3.16739
 20
-1.98553
 30
0.0
 10
-3.16739
 20
-1.98553
 30
0.0
 10
-3.16739
 20
-1.98553
 30
0.0
 10
-3.16558
 20
-3.626500000000001
 30
0.0
 10
-3.16558
 20
-3.626500000000001
 30
0.0
 10
-3.16558
 20
-3.626500000000001
 30
0.0
 10
-3.16558
 20
-3.626500000000001
 30
0.0
 10
-6.989140000000001
 20
-3.626500000000001
 30
0.0
 10
-6.989140000000001
 20
-3.626500000000001
 30
0.0
 10
-6.989140000000001
 20
-3.626500000000001
 30
0.0
 10
-6.989140000000001
 20
-3.626500000000001
 30
0.0
 10
-6.989140000000001
 20
-2.0678
 30
0.0
 10
-6.989140000000001
 20
-2.0678
 30
0.0
 10
-6.989140000000001
 20
-2.0678
 30
0.0
 10
-6.988210000000001
 20
-1.7898
 30
0.0
 10
-7.2845
 20
-1.79149
 30
0.0
 10
-7.28556
 20
-2.07322
 30
0.0
 10
-7.28556
 20
-2.07322
 30
0.0
 10
-7.28556
 20
-2.07322
 30
0.0
 10
-7.28556
 20
-3.45722
 30
0.0
 10
-7.28556
 20
-3.45722
 30
0.0
 10
-7.28556
 20
-3.45722
 30
0.0
 10
-7.28556
 20
-3.45722
 30
0.0
 10
-14.59549
 20
-3.45661
 30
0.0
 10
-14.59549
 20
-3.45661
 30
0.0
 10
-14.59549
 20
-3.45661
 30
0.0
 10
-14.85094
 20
-3.70877
 30
0.0
 10
-15.19072
 20
-3.92719
 30
0.0
 10
-15.61483
 20
-4.1119
 30
0.0
 10
-15.61483
 20
-4.1119
 30
0.0
 10
-16.14879
 20
-4.20057
 30
0.0
 10
-16.64062
 20
-4.175940000000001
 30
0.0
 10
-17.17454
 20
-4.196330000000001
 30
0.0
 10
-17.17454
 20
-4.196330000000001
 30
0.0
 10
-17.38048
 20
-4.0346
 30
0.0
 10
-17.27082
 20
-3.74156
 30
0.0
 10
-17.25117
 20
-3.72224
 30
0.0
 10
-17.25117
 20
-3.72224
 30
0.0
 10
-17.25117
 20
-3.72224
 30
0.0
 10
-16.58563
 20
-3.72358
 30
0.0
 10
-16.58563
 20
-3.72358
 30
0.0
 10
-16.58563
 20
-3.72358
 30
0.0
 10
-16.34582
 20
-3.72196
 30
0.0
 10
-16.334
 20
-3.42053
 30
0.0
 10
-16.55917
 20
-3.42052
 30
0.0
 10
-16.55917
 20
-3.42052
 30
0.0
 10
-16.55917
 20
-3.42052
 30
0.0
 10
-17.33581
 20
-3.4207
 30
0.0
 10
-17.33581
 20
-3.4207
 30
0.0
  0
SPLINE
  5
45
330
1F
100
AcDbEntity
  8
Layer 1
 62
    22
370
     5
100
AcDbSpline
210
0.0
220
0.0
230
1.0
 70
    11
 71
     3
 72
    36
 73
    32
 74
     0
 42
0.0000000001
 43
0.0000000001
 40
0.0
 40
0.0
 40
0.0
 40
0.0
 40
0.125
 40
0.125
 40
0.125
 40
0.125
 40
0.25
 40
0.25
 40
0.25
 40
0.25
 40
0.375
 40
0.375
 40
0.375
 40
0.375
 40
0.5
 40
0.5
 40
0.5
 40
0.5
 40
0.625
 40
0.625
 40
0.625
 40
0.625
 40
0.75
 40
0.75
 40
0.75
 40
0.75
 40
0.875
 40
0.875
 40
0.875
 40
0.875
 40
1.0
 40
1.0
 40
1.0
 40
1.0
 10
-10.3114
 20
-1.50343
 30
0.0
 10
-10.3114
 20
-1.50343
 30
0.0
 10
-10.3114
 20
-2.28853
 30
0.0
 10
-10.3114
 20
-2.28853
 30
0.0
 10
-10.3114
 20
-2.28853
 30
0.0
 10
-10.3114
 20
-2.35856
 30
0.0
 10
-10.26612
 20
-2.41585
 30
0.0
 10
-10.21078
 20
-2.41585
 30
0.0
 10
-10.21078
 20
-2.41585
 30
0.0
 10
-10.21078
 20
-2.41585
 30
0.0
 10
-10.09339
 20
-2.41585
 30
0.0
 10
-10.09339
 20
-2.41585
 30
0.0
 10
-10.09339
 20
-2.41585
 30
0.0
 10
-10.03805
 20
-2.41585
 30
0.0
 10
-9.99277
 20
-2.35856
 30
0.0
 10
-9.99277
 20
-2.28853
 30
0.0
 10
-9.99277
 20
-2.28853
 30
0.0
 10
-9.99277
 20
-2.28853
 30
0.0
 10
-9.99277
 20
-1.50343
 30
0.0
 10
-9.99277
 20
-1.50343
 30
0.0
 10
-9.99277
 20
-1.50343
 30
0.0
 10
-9.99277
 20
-1.4334
 30
0.0
 10
-10.03805
 20
-1.37611
 30
0.0
 10
-10.09339
 20
-1.37611
 30
0.0
 10
-10.09339
 20
-1.37611
 30
0.0
 10
-10.09339
 20
-1.37611
 30
0.0
 10
-10.21078
 20
-1.37611
 30
0.0
 10
-10.21078
 20
-1.37611
 30
0.0
 10
-10.21078
 20
-1.37611
 30
0.0
 10
-10.26612
 20
-1.37611
 30
0.0
 10
-10.3114
 20
-1.4334
 30
0.0
 10
-10.3114
 20
-1.50343
 30
0.0
  0
SPLINE
  5
46
330
1F
100
AcDbEntity
  8
Layer 1
 62
    22
370
     5
100
AcDbSpline
210
0.0
220
0.0
230
1.0
 70
    11
 71
     3
 72
    36
 73
    32
 74
     0
 42
0.0000000001
 43
0.0000000001
 40
0.0
 40
0.0
 40
0.0
 40
0.0
 40
0.125
 40
0.125
 40
0.125
 40
0.125
 40
0.25
 40
0.25
 40
0.25
 40
0.25
 40
0.375
 40
0.375
 40
0.375
 40
0.375
 40
0.5
 40
0.5
 40
0.5
 40
0.5
 40
0.625
 40
0.625
 40
0.625
 40
0.625
 40
0.75
 40
0.75
 40
0.75
 40
0.75
 40
0.875
 40
0.875
 40
0.875
 40
0.875
 40
1.0
 40
1.0
 40
1.0
 40
1.0
 10
-13.36376
 20
-1.50343
 30
0.0
 10
-13.36376
 20
-1.50343
 30
0.0
 10
-13.36376
 20
-2.28853
 30
0.0
 10
-13.36376
 20
-2.28853
 30
0.0
 10
-13.36376
 20
-2.28853
 30
0.0
 10
-13.36376
 20
-2.35856
 30
0.0
 10
-13.31848
 20
-2.41585
 30
0.0
 10
-13.26314
 20
-2.41585
 30
0.0
 10
-13.26314
 20
-2.41585
 30
0.0
 10
-13.26314
 20
-2.41585
 30
0.0
 10
-13.14575
 20
-2.41585
 30
0.0
 10
-13.14575
 20
-2.41585
 30
0.0
 10
-13.14575
 20
-2.41585
 30
0.0
 10
-13.09041
 20
-2.41585
 30
0.0
 10
-13.04513
 20
-2.35856
 30
0.0
 10
-13.04513
 20
-2.28853
 30
0.0
 10
-13.04513
 20
-2.28853
 30
0.0
 10
-13.04513
 20
-2.28853
 30
0.0
 10
-13.04513
 20
-1.50343
 30
0.0
 10
-13.04513
 20
-1.50343
 30
0.0
 10
-13.04513
 20
-1.50343
 30
0.0
 10
-13.04513
 20
-1.4334
 30
0.0
 10
-13.09041
 20
-1.37611
 30
0.0
 10
-13.14575
 20
-1.37611
 30
0.0
 10
-13.14575
 20
-1.37611
 30
0.0
 10
-13.14575
 20
-1.37611
 30
0.0
 10
-13.26314
 20
-1.37611
 30
0.0
 10
-13.26314
 20
-1.37611
 30
0.0
 10
-13.26314
 20
-1.37611
 30
0.0
 10
-13.31848
 20
-1.37611
 30
0.0
 10
-13.36376
 20
-1.4334
 30
0.0
 10
-13.36376
 20
-1.50343
 30
0.0
  0
SPLINE
  5
47
330
1F
100
AcDbEntity
  8
Layer 1
 62
    22
370
     5
100
AcDbSpline
210
0.0
220
0.0
230
1.0
 70
    11
 71
     3
 72
    36
 73
    32
 74
     0
 42
0.0000000001
 43
0.0000000001
 40
0.0
 40
0.0
 40
0.0
 40
0.0
 40
0.125
 40
0.125
 40
0.125
 40
0.125
 40
0.25
 40
0.25
 40
0.25
 40
0.25
 40
0.375
 40
0.375
 40
0.375
 40
0.375
 40
0.5
 40
0.5
 40
0.5
 40
0.5
 40
0.625
 40
0.625
 40
0.625
 40
0.625
 40
0.75
 40
0.75
 40
0.75
 40
0.75
 40
0.875
 40
0.875
 40
0.875
 40
0.875
 40
1.0
 40
1.0
 40
1.0
 40
1.0
 10
-17.45308
 20
-1.50343
 30
0.0
 10
-17.45308
 20
-1.50343
 30
0.0
 10
-17.45308
 20
-2.28853
 30
0.0
 10
-17.45308
 20
-2.28853
 30
0.0
 10
-17.45308
 20
-2.28853
 30
0.0
 10
-17.45308
 20
-2.35856
 30
0.0
 10
-17.4078
 20
-2.41585
 30
0.0
 10
-17.35246
 20
-2.41585
 30
0.0
 10
-17.35246
 20
-2.41585
 30
0.0
 10
-17.35246
 20
-2.41585
 30
0.0
 10
-17.23507
 20
-2.41585
 30
0.0
 10
-17.23507
 20
-2.41585
 30
0.0
 10
-17.23507
 20
-2.41585
 30
0.0
 10
-17.17973
 20
-2.41585
 30
0.0
 10
-17.13445
 20
-2.35856
 30
0.0
 10
-17.13445
 20
-2.28853
 30
0.0
 10
-17.13445
 20
-2.28853
 30
0.0
 10
-17.13445
 20
-2.28853
 30
0.0
 10
-17.13445
 20
-1.50343
 30
0.0
 10
-17.13445
 20
-1.50343
 30
0.0
 10
-17.13445
 20
-1.50343
 30
0.0
 10
-17.13445
 20
-1.4334
 30
0.0
 10
-17.17973
 20
-1.37611
 30
0.0
 10
-17.23507
 20
-1.37611
 30
0.0
 10
-17.23507
 20
-1.37611
 30
0.0
 10
-17.23507
 20
-1.37611
 30
0.0
 10
-17.35246
 20
-1.37611
 30
0.0
 10
-17.35246
 20
-1.37611
 30
0.0
 10
-17.35246
 20
-1.37611
 30
0.0
 10
-17.4078
 20
-1.37611
 30
0.0
 10
-17.45308
 20
-1.4334
 30
0.0
 10
-17.45308
 20
-1.50343
 30
0.0
  0
SPLINE
  5
48
330
1F
100
AcDbEntity
  8
Layer 1
 62
    22
370
     5
100
AcDbSpline
210
0.0
220
0.0
230
1.0
 70
    11
 71
     3
 72
    84
 73
    80
 74
     0
 42
0.0000000001
 43
0.0000000001
 40
0.0
 40
0.0
 40
0.0
 40
0.0
 40
0.05
 40
0.05
 40
0.05
 40
0.05
 40
0.1
 40
0.1
 40
0.1
 40
0.1
 40
0.15
 40
0.15
 40
0.15
 40
0.15
 40
0.2
 40
0.2
 40
0.2
 40
0.2
 40
0.25
 40
0.25
 40
0.25
 40
0.25
 40
0.3
 40
0.3
 40
0.3
 40
0.3
 40
0.35
 40
0.35
 40
0.35
 40
0.35
 40
0.4
 40
0.4
 40
0.4
 40
0.4
 40
0.45
 40
0.45
 40
0.45
 40
0.45
 40
0.4999999999999999
 40
0.4999999999999999
 40
0.4999999999999999
 40
0.4999999999999999
 40
0.5499999999999999
 40
0.5499999999999999
 40
0.5499999999999999
 40
0.5499999999999999
 40
0.6
 40
0.6
 40
0.6
 40
0.6
 40
0.65
 40
0.65
 40
0.65
 40
0.65
 40
0.7000000000000001
 40
0.7000000000000001
 40
0.7000000000000001
 40
0.7000000000000001
 40
0.7500000000000001
 40
0.7500000000000001
 40
0.7500000000000001
 40
0.7500000000000001
 40
0.8000000000000002
 40
0.8000000000000002
 40
0.8000000000000002
 40
0.8000000000000002
 40
0.8500000000000002
 40
0.8500000000000002
 40
0.8500000000000002
 40
0.8500000000000002
 40
0.9000000000000002
 40
0.9000000000000002
 40
0.9000000000000002
 40
0.9000000000000002
 40
0.9500000000000003
 40
0.9500000000000003
 40
0.9500000000000003
 40
0.9500000000000003
 40
1.0
 40
1.0
 40
1.0
 40
1.0
 10
-10.80587
 20
10.81357
 30
0.0
 10
-10.80587
 20
10.81357
 30
0.0
 10
-7.257090000000001
 20
10.81408
 30
0.0
 10
-7.257090000000001
 20
10.81408
 30
0.0
 10
-7.257090000000001
 20
10.81408
 30
0.0
 10
-7.257180000000001
 20
10.76491
 30
0.0
 10
-7.257260000000001
 20
10.71573
 30
0.0
 10
-7.257340000000001
 20
10.66655
 30
0.0
 10
-7.257340000000001
 20
10.66655
 30
0.0
 10
-7.261880000000001
 20
10.55157
 30
0.0
 10
-7.23338
 20
10.50457
 30
0.0
 10
-7.129480000000001
 20
10.50883
 30
0.0
 10
-7.129480000000001
 20
10.50883
 30
0.0
 10
-6.9179
 20
10.50883
 30
0.0
 10
-6.57174
 20
10.50883
 30
0.0
 10
-6.360160000000001
 20
10.50883
 30
0.0
 10
-6.360160000000001
 20
10.50883
 30
0.0
 10
-6.239940000000001
 20
10.50883
 30
0.0
 10
-6.22451
 20
10.53525
 30
0.0
 10
-6.224250000000001
 20
10.66655
 30
0.0
 10
-6.224250000000001
 20
10.66655
 30
0.0
 10
-6.224250000000001
 20
10.66655
 30
0.0
 10
-6.224040000000001
 20
10.81408
 30
0.0
 10
-6.224040000000001
 20
10.81408
 30
0.0
 10
-6.224040000000001
 20
10.81408
 30
0.0
 10
-6.224040000000001
 20
10.81408
 30
0.0
 10
-2.71518
 20
10.81408
 30
0.0
 10
-2.71518
 20
10.81408
 30
0.0
 10
-2.71518
 20
10.81408
 30
0.0
 10
-2.71518
 20
10.81408
 30
0.0
 10
-2.7179
 20
12.39007
 30
0.0
 10
-2.7179
 20
12.39007
 30
0.0
 10
-2.7179
 20
12.39007
 30
0.0
 10
-2.71103
 20
12.63572
 30
0.0
 10
-2.41765
 20
12.6242
 30
0.0
 10
-2.41167
 20
12.38922
 30
0.0
 10
-2.41167
 20
12.38922
 30
0.0
 10
-2.41167
 20
12.38922
 30
0.0
 10
-2.41167
 20
10.50747
 30
0.0
 10
-2.41167
 20
10.50747
 30
0.0
 10
-2.41167
 20
10.50747
 30
0.0
 10
-1.97901
 20
10.54623
 30
0.0
 10
-1.89839
 20
10.56241
 30
0.0
 10
-1.82342
 20
10.78462
 30
0.0
 10
-1.82342
 20
10.78462
 30
0.0
 10
-1.82342
 20
10.78462
 30
0.0
 10
-1.82172
 20
14.20072
 30
0.0
 10
-1.82172
 20
14.20072
 30
0.0
 10
-1.82172
 20
14.20072
 30
0.0
 10
-1.79508
 20
14.34408
 30
0.0
 10
-1.86263
 20
14.43093
 30
0.0
 10
-2.02437
 20
14.46127
 30
0.0
 10
-2.02437
 20
14.46127
 30
0.0
 10
-4.81677
 20
14.59323
 30
0.0
 10
-7.84358
 20
14.59476
 30
0.0
 10
-11.37522
 20
14.40337
 30
0.0
 10
-11.37522
 20
14.40337
 30
0.0
 10
-11.5774
 20
14.35174
 30
0.0
 10
-11.6739
 20
14.26489
 30
0.0
 10
-11.66472
 20
14.14282
 30
0.0
 10
-11.66472
 20
14.14282
 30
0.0
 10
-11.66472
 20
14.14282
 30
0.0
 10
-11.66472
 20
10.75567
 30
0.0
 10
-11.66472
 20
10.75567
 30
0.0
 10
-11.66472
 20
10.75567
 30
0.0
 10
-11.58595
 20
10.50463
 30
0.0
 10
-11.48729
 20
10.52493
 30
0.0
 10
-11.10204
 20
10.50833
 30
0.0
 10
-11.10204
 20
10.50833
 30
0.0
 10
-11.10204
 20
10.50833
 30
0.0
 10
-11.10449
 20
12.38746
 30
0.0
 10
-11.10449
 20
12.38746
 30
0.0
 10
-11.10449
 20
12.38746
 30
0.0
 10
-11.10378
 20
12.61618
 30
0.0
 10
-10.80018
 20
12.62103
 30
0.0
 10
-10.80081
 20
12.39261
 30
0.0
 10
-10.80081
 20
12.39261
 30
0.0
 10
-10.80081
 20
12.39261
 30
0.0
 10
-10.80587
 20
10.81357
 30
0.0
 10
-10.80587
 20
10.81357
 30
0.0
  0
SPLINE
  5
49
330
1F
100
AcDbEntity
  8
Layer 1
 62
    22
370
     5
100
AcDbSpline
210
0.0
220
0.0
230
1.0
 70
    11
 71
     3
 72
    20
 73
    16
 74
     0
 42
0.0000000001
 43
0.0000000001
 40
0.0
 40
0.0
 40
0.0
 40
0.0
 40
0.25
 40
0.25
 40
0.25
 40
0.25
 40
0.5
 40
0.5
 40
0.5
 40
0.5
 40
0.75
 40
0.75
 40
0.75
 40
0.75
 40
1.0
 40
1.0
 40
1.0
 40
1.0
 10
-10.811
 20
13.869
 30
0.0
 10
-10.811
 20
13.97943
 30
0.0
 10
-10.72143
 20
14.069
 30
0.0
 10
-10.611
 20
14.069
 30
0.0
 10
-10.611
 20
14.069
 30
0.0
 10
-10.50057
 20
14.069
 30
0.0
 10
-10.411
 20
13.97943
 30
0.0
 10
-10.411
 20
13.869
 30
0.0
 10
-10.411
 20
13.869
 30
0.0
 10
-10.411
 20
13.75857
 30
0.0
 10
-10.50057
 20
13.669
 30
0.0
 10
-10.611
 20
13.669
 30
0.0
 10
-10.611
 20
13.669
 30
0.0
 10
-10.72143
 20
13.669
 30
0.0
 10
-10.811
 20
13.75857
 30
0.0
 10
-10.811
 20
13.869
 30
0.0
  0
SPLINE
  5
4A
330
1F
100
AcDbEntity
  8
Layer 1
 62
    22
370
     5
100
AcDbSpline
210
0.0
220
0.0
230
1.0
 70
    11
 71
     3
 72
    20
 73
    16
 74
     0
 42
0.0000000001
 43
0.0000000001
 40
0.0
 40
0.0
 40
0.0
 40
0.0
 40
0.25
 40
0.25
 40
0.25
 40
0.25
 40
0.5
 40
0.5
 40
0.5
 40
0.5
 40
0.75
 40
0.75
 40
0.75
 40
0.75
 40
1.0
 40
1.0
 40
1.0
 40
1.0
 10
-3.06044
 20
13.92684
 30
0.0
 10
-3.06044
 20
14.03727
 30
0.0
 10
-2.97087
 20
14.12684
 30
0.0
 10
-2.86044
 20
14.12684
 30
0.0
 10
-2.86044
 20
14.12684
 30
0.0
 10
-2.75001
 20
14.12684
 30
0.0
 10
-2.66044
 20
14.03727
 30
0.0
 10
-2.66044
 20
13.92684
 30
0.0
 10
-2.66044
 20
13.92684
 30
0.0
 10
-2.66044
 20
13.81641
 30
0.0
 10
-2.75001
 20
13.72684
 30
0.0
 10
-2.86044
 20
13.72684
 30
0.0
 10
-2.86044
 20
13.72684
 30
0.0
 10
-2.97087
 20
13.72684
 30
0.0
 10
-3.06044
 20
13.81641
 30
0.0
 10
-3.06044
 20
13.92684
 30
0.0
  0
SPLINE
  5
4B
330
1F
100
AcDbEntity
  8
Layer 1
 62
    22
370
     5
100
AcDbSpline
210
0.0
220
0.0
230
1.0
 70
    11
 71
     3
 72
    36
 73
    32
 74
     0
 42
0.0000000001
 43
0.0000000001
 40
0.0
 40
0.0
 40
0.0
 40
0.0
 40
0.125
 40
0.125
 40
0.125
 40
0.125
 40
0.25
 40
0.25
 40
0.25
 40
0.25
 40
0.375
 40
0.375
 40
0.375
 40
0.375
 40
0.5
 40
0.5
 40
0.5
 40
0.5
 40
0.625
 40
0.625
 40
0.625
 40
0.625
 40
0.75
 40
0.75
 40
0.75
 40
0.75
 40
0.875
 40
0.875
 40
0.875
 40
0.875
 40
1.0
 40
1.0
 40
1.0
 40
1.0
 10
-6.887300000000001
 20
11.95711
 30
0.0
 10
-6.887300000000001
 20
11.95711
 30
0.0
 10
-6.887300000000001
 20
12.74221
 30
0.0
 10
-6.887300000000001
 20
12.74221
 30
0.0
 10
-6.887300000000001
 20
12.74221
 30
0.0
 10
-6.887300000000001
 20
12.81224
 30
0.0
 10
-6.842020000000001
 20
12.86953
 30
0.0
 10
-6.786680000000001
 20
12.86953
 30
0.0
 10
-6.786680000000001
 20
12.86953
 30
0.0
 10
-6.786680000000001
 20
12.86953
 30
0.0
 10
-6.66929
 20
12.86953
 30
0.0
 10
-6.66929
 20
12.86953
 30
0.0
 10
-6.66929
 20
12.86953
 30
0.0
 10
-6.613950000000001
 20
12.86953
 30
0.0
 10
-6.568670000000001
 20
12.81224
 30
0.0
 10
-6.568670000000001
 20
12.74221
 30
0.0
 10
-6.568670000000001
 20
12.74221
 30
0.0
 10
-6.568670000000001
 20
12.74221
 30
0.0
 10
-6.568670000000001
 20
11.95711
 30
0.0
 10
-6.568670000000001
 20
11.95711
 30
0.0
 10
-6.568670000000001
 20
11.95711
 30
0.0
 10
-6.568670000000001
 20
11.88708
 30
0.0
 10
-6.613950000000001
 20
11.82979
 30
0.0
 10
-6.66929
 20
11.82979
 30
0.0
 10
-6.66929
 20
11.82979
 30
0.0
 10
-6.66929
 20
11.82979
 30
0.0
 10
-6.786680000000001
 20
11.82979
 30
0.0
 10
-6.786680000000001
 20
11.82979
 30
0.0
 10
-6.786680000000001
 20
11.82979
 30
0.0
 10
-6.842020000000001
 20
11.82979
 30
0.0
 10
-6.887300000000001
 20
11.88708
 30
0.0
 10
-6.887300000000001
 20
11.95711
 30
0.0
  0
SPLINE
  5
4C
330
1F
100
AcDbEntity
  8
Layer 1
 62
    22
370
     5
100
AcDbSpline
210
0.0
220
0.0
230
1.0
 70
    11
 71
     3
 72
   104
 73
   100
 74
     0
 42
0.0000000001
 43
0.0000000001
 40
0.0
 40
0.0
 40
0.0
 40
0.0
 40
0.04
 40
0.04
 40
0.04
 40
0.04
 40
0.08
 40
0.08
 40
0.08
 40
0.08
 40
0.12
 40
0.12
 40
0.12
 40
0.12
 40
0.16
 40
0.16
 40
0.16
 40
0.16
 40
0.2
 40
0.2
 40
0.2
 40
0.2
 40
0.24
 40
0.24
 40
0.24
 40
0.24
 40
0.28
 40
0.28
 40
0.28
 40
0.28
 40
0.32
 40
0.32
 40
0.32
 40
0.32
 40
0.36
 40
0.36
 40
0.36
 40
0.36
 40
0.4
 40
0.4
 40
0.4
 40
0.4
 40
0.44
 40
0.44
 40
0.44
 40
0.44
 40
0.4799999999999999
 40
0.4799999999999999
 40
0.4799999999999999
 40
0.4799999999999999
 40
0.5199999999999999
 40
0.5199999999999999
 40
0.5199999999999999
 40
0.5199999999999999
 40
0.5599999999999999
 40
0.5599999999999999
 40
0.5599999999999999
 40
0.5599999999999999
 40
0.6
 40
0.6
 40
0.6
 40
0.6
 40
0.64
 40
0.64
 40
0.64
 40
0.64
 40
0.6800000000000001
 40
0.6800000000000001
 40
0.6800000000000001
 40
0.6800000000000001
 40
0.7200000000000001
 40
0.7200000000000001
 40
0.7200000000000001
 40
0.7200000000000001
 40
0.7600000000000001
 40
0.7600000000000001
 40
0.7600000000000001
 40
0.7600000000000001
 40
0.8000000000000002
 40
0.8000000000000002
 40
0.8000000000000002
 40
0.8000000000000002
 40
0.8400000000000002
 40
0.8400000000000002
 40
0.8400000000000002
 40
0.8400000000000002
 40
0.8800000000000002
 40
0.8800000000000002
 40
0.8800000000000002
 40
0.8800000000000002
 40
0.9200000000000003
 40
0.9200000000000003
 40
0.9200000000000003
 40
0.9200000000000003
 40
0.9600000000000003
 40
0.9600000000000003
 40
0.9600000000000003
 40
0.9600000000000003
 40
1.0
 40
1.0
 40
1.0
 40
1.0
 10
22.31786
 20
0.21606
 30
0.0
 10
22.22928
 20
0.21724
 30
0.0
 10
22.17249
 20
0.31242
 30
0.0
 10
22.17275
 20
0.51527
 30
0.0
 10
22.17275
 20
0.51527
 30
0.0
 10
22.17275
 20
0.51527
 30
0.0
 10
20.39676
 20
0.5109
 30
0.0
 10
20.39676
 20
0.5109
 30
0.0
 10
20.39676
 20
0.5109
 30
0.0
 10
20.11569
 20
0.8478000000000001
 30
0.0
 10
20.00655
 20
1.21909
 30
0.0
 10
19.97556
 20
1.60602
 30
0.0
 10
19.97556
 20
1.60602
 30
0.0
 10
19.90623
 20
2.00243
 30
0.0
 10
20.01258
 20
2.35492
 30
0.0
 10
20.14404
 20
2.70114
 30
0.0
 10
20.14404
 20
2.70114
 30
0.0
 10
20.71864
 20
3.524680000000001
 30
0.0
 10
21.22333
 20
5.010870000000001
 30
0.0
 10
20.43888
 20
6.15498
 30
0.0
 10
20.43888
 20
6.15498
 30
0.0
 10
19.74461
 20
6.22541
 30
0.0
 10
19.98197
 20
7.175190000000001
 30
0.0
 10
20.6916
 20
6.807840000000001
 30
0.0
 10
20.6916
 20
6.807840000000001
 30
0.0
 10
21.01095
 20
6.538060000000001
 30
0.0
 10
21.31304
 20
5.82488
 30
0.0
 10
21.31647
 20
5.578620000000001
 30
0.0
 10
21.31647
 20
5.578620000000001
 30
0.0
 10
21.51781
 20
4.451110000000001
 30
0.0
 10
21.44572
 20
4.24767
 30
0.0
 10
21.05886
 20
3.16446
 30
0.0
 10
21.05886
 20
3.16446
 30
0.0
 10
20.96258
 20
2.88689
 30
0.0
 10
21.06521
 20
2.82182
 30
0.0
 10
21.33264
 20
2.9328
 30
0.0
 10
21.33264
 20
2.9328
 30
0.0
 10
21.91852
 20
3.1912
 30
0.0
 10
22.30896
 20
3.335890000000001
 30
0.0
 10
22.69663
 20
3.33637
 30
0.0
 10
22.69663
 20
3.33637
 30
0.0
 10
23.0843
 20
3.335890000000001
 30
0.0
 10
23.47474
 20
3.1912
 30
0.0
 10
24.06062
 20
2.9328
 30
0.0
 10
24.06062
 20
2.9328
 30
0.0
 10
24.32805
 20
2.82182
 30
0.0
 10
24.43068
 20
2.88689
 30
0.0
 10
24.3344
 20
3.16446
 30
0.0
 10
24.3344
 20
3.16446
 30
0.0
 10
24.03665
 20
4.247660000000001
 30
0.0
 10
24.02397
 20
4.451090000000001
 30
0.0
 10
24.07679
 20
5.578620000000001
 30
0.0
 10
24.07679
 20
5.578620000000001
 30
0.0
 10
24.08022
 20
5.82488
 30
0.0
 10
24.38231
 20
6.538060000000001
 30
0.0
 10
24.70166
 20
6.807840000000001
 30
0.0
 10
24.70166
 20
6.807840000000001
 30
0.0
 10
25.41129
 20
7.175190000000001
 30
0.0
 10
25.64865
 20
6.22541
 30
0.0
 10
24.95438
 20
6.15498
 30
0.0
 10
24.95438
 20
6.15498
 30
0.0
 10
24.41049
 20
4.681010000000001
 30
0.0
 10
24.75498
 20
3.435740000000001
 30
0.0
 10
25.16045
 20
2.58278
 30
0.0
 10
25.16045
 20
2.58278
 30
0.0
 10
25.29191
 20
2.23656
 30
0.0
 10
25.30949
 20
2.00243
 30
0.0
 10
25.24016
 20
1.60602
 30
0.0
 10
25.24016
 20
1.60602
 30
0.0
 10
25.20917
 20
1.21909
 30
0.0
 10
25.15921
 20
0.8478000000000001
 30
0.0
 10
24.87814
 20
0.5109
 30
0.0
 10
24.87814
 20
0.5109
 30
0.0
 10
24.87814
 20
0.5109
 30
0.0
 10
24.7073
 20
0.5106700000000001
 30
0.0
 10
24.7073
 20
0.5106700000000001
 30
0.0
 10
24.7073
 20
0.5106700000000001
 30
0.0
 10
24.7073
 20
0.5106700000000001
 30
0.0
 10
24.70851
 20
1.26927
 30
0.0
 10
24.70851
 20
1.26927
 30
0.0
 10
24.70851
 20
1.26927
 30
0.0
 10
24.70851
 20
1.26927
 30
0.0
 10
24.39471
 20
1.26937
 30
0.0
 10
24.39471
 20
1.26937
 30
0.0
 10
24.39471
 20
1.26937
 30
0.0
 10
24.39471
 20
1.26937
 30
0.0
 10
24.39411
 20
0.50754
 30
0.0
 10
24.39411
 20
0.50754
 30
0.0
 10
24.39411
 20
0.50754
 30
0.0
 10
24.39411
 20
0.50754
 30
0.0
 10
23.16039
 20
0.50859
 30
0.0
 10
23.16039
 20
0.50859
 30
0.0
 10
23.16039
 20
0.50859
 30
0.0
 10
23.16065
 20
0.30574
 30
0.0
 10
23.10386
 20
0.21724
 30
0.0
 10
23.01528
 20
0.21606
 30
0.0
 10
23.01528
 20
0.21606
 30
0.0
 10
23.01528
 20
0.21606
 30
0.0
 10
22.31786
 20
0.21606
 30
0.0
 10
22.31786
 20
0.21606
 30
0.0
  0
SPLINE
  5
4D
330
1F
100
AcDbEntity
  8
Layer 1
 62
    22
370
     5
100
AcDbSpline
210
0.0
220
0.0
230
1.0
 70
    11
 71
     3
 72
    36
 73
    32
 74
     0
 42
0.0000000001
 43
0.0000000001
 40
0.0
 40
0.0
 40
0.0
 40
0.0
 40
0.125
 40
0.125
 40
0.125
 40
0.125
 40
0.25
 40
0.25
 40
0.25
 40
0.25
 40
0.375
 40
0.375
 40
0.375
 40
0.375
 40
0.5
 40
0.5
 40
0.5
 40
0.5
 40
0.625
 40
0.625
 40
0.625
 40
0.625
 40
0.75
 40
0.75
 40
0.75
 40
0.75
 40
0.875
 40
0.875
 40
0.875
 40
0.875
 40
1.0
 40
1.0
 40
1.0
 40
1.0
 10
22.32498
 20
2.28362
 30
0.0
 10
22.32498
 20
2.28362
 30
0.0
 10
23.07984
 20
2.28362
 30
0.0
 10
23.07984
 20
2.28362
 30
0.0
 10
23.07984
 20
2.28362
 30
0.0
 10
23.14717
 20
2.28362
 30
0.0
 10
23.20225
 20
2.23834
 30
0.0
 10
23.20225
 20
2.183
 30
0.0
 10
23.20225
 20
2.183
 30
0.0
 10
23.20225
 20
2.183
 30
0.0
 10
23.20225
 20
2.06561
 30
0.0
 10
23.20225
 20
2.06561
 30
0.0
 10
23.20225
 20
2.06561
 30
0.0
 10
23.20225
 20
2.01027
 30
0.0
 10
23.14717
 20
1.96499
 30
0.0
 10
23.07984
 20
1.96499
 30
0.0
 10
23.07984
 20
1.96499
 30
0.0
 10
23.07984
 20
1.96499
 30
0.0
 10
22.32498
 20
1.96499
 30
0.0
 10
22.32498
 20
1.96499
 30
0.0
 10
22.32498
 20
1.96499
 30
0.0
 10
22.25765
 20
1.96499
 30
0.0
 10
22.20257
 20
2.01027
 30
0.0
 10
22.20257
 20
2.06561
 30
0.0
 10
22.20257
 20
2.06561
 30
0.0
 10
22.20257
 20
2.06561
 30
0.0
 10
22.20257
 20
2.183
 30
0.0
 10
22.20257
 20
2.183
 30
0.0
 10
22.20257
 20
2.183
 30
0.0
 10
22.20257
 20
2.23834
 30
0.0
 10
22.25765
 20
2.28362
 30
0.0
 10
22.32498
 20
2.28362
 30
0.0
  0
SPLINE
  5
4E
330
1F
100
AcDbEntity
  8
Layer 1
 62
    22
370
     5
100
AcDbSpline
210
0.0
220
0.0
230
1.0
 70
    11
 71
     3
 72
   104
 73
   100
 74
     0
 42
0.0000000001
 43
0.0000000001
 40
0.0
 40
0.0
 40
0.0
 40
0.0
 40
0.04
 40
0.04
 40
0.04
 40
0.04
 40
0.08
 40
0.08
 40
0.08
 40
0.08
 40
0.12
 40
0.12
 40
0.12
 40
0.12
 40
0.16
 40
0.16
 40
0.16
 40
0.16
 40
0.2
 40
0.2
 40
0.2
 40
0.2
 40
0.24
 40
0.24
 40
0.24
 40
0.24
 40
0.28
 40
0.28
 40
0.28
 40
0.28
 40
0.32
 40
0.32
 40
0.32
 40
0.32
 40
0.36
 40
0.36
 40
0.36
 40
0.36
 40
0.4
 40
0.4
 40
0.4
 40
0.4
 40
0.44
 40
0.44
 40
0.44
 40
0.44
 40
0.4799999999999999
 40
0.4799999999999999
 40
0.4799999999999999
 40
0.4799999999999999
 40
0.5199999999999999
 40
0.5199999999999999
 40
0.5199999999999999
 40
0.5199999999999999
 40
0.5599999999999999
 40
0.5599999999999999
 40
0.5599999999999999
 40
0.5599999999999999
 40
0.6
 40
0.6
 40
0.6
 40
0.6
 40
0.64
 40
0.64
 40
0.64
 40
0.64
 40
0.6800000000000001
 40
0.6800000000000001
 40
0.6800000000000001
 40
0.6800000000000001
 40
0.7200000000000001
 40
0.7200000000000001
 40
0.7200000000000001
 40
0.7200000000000001
 40
0.7600000000000001
 40
0.7600000000000001
 40
0.7600000000000001
 40
0.7600000000000001
 40
0.8000000000000002
 40
0.8000000000000002
 40
0.8000000000000002
 40
0.8000000000000002
 40
0.8400000000000002
 40
0.8400000000000002
 40
0.8400000000000002
 40
0.8400000000000002
 40
0.8800000000000002
 40
0.8800000000000002
 40
0.8800000000000002
 40
0.8800000000000002
 40
0.9200000000000003
 40
0.9200000000000003
 40
0.9200000000000003
 40
0.9200000000000003
 40
0.9600000000000003
 40
0.9600000000000003
 40
0.9600000000000003
 40
0.9600000000000003
 40
1.0
 40
1.0
 40
1.0
 40
1.0
 10
21.88011
 20
7.57026
 30
0.0
 10
21.79153
 20
7.571440000000001
 30
0.0
 10
21.73474
 20
7.666620000000001
 30
0.0
 10
21.735
 20
7.869470000000001
 30
0.0
 10
21.735
 20
7.869470000000001
 30
0.0
 10
21.735
 20
7.869470000000001
 30
0.0
 10
19.95901
 20
7.865100000000001
 30
0.0
 10
19.95901
 20
7.865100000000001
 30
0.0
 10
19.95901
 20
7.865100000000001
 30
0.0
 10
19.67794
 20
8.202
 30
0.0
 10
19.5688
 20
8.57329
 30
0.0
 10
19.53781
 20
8.960220000000001
 30
0.0
 10
19.53781
 20
8.960220000000001
 30
0.0
 10
19.46848
 20
9.356630000000001
 30
0.0
 10
19.57483
 20
9.70912
 30
0.0
 10
19.70629
 20
10.05534
 30
0.0
 10
19.70629
 20
10.05534
 30
0.0
 10
20.28089
 20
10.87888
 30
0.0
 10
20.78558
 20
12.36507
 30
0.0
 10
20.00113
 20
13.50918
 30
0.0
 10
20.00113
 20
13.50918
 30
0.0
 10
19.30686
 20
13.57961
 30
0.0
 10
19.54422
 20
14.52939
 30
0.0
 10
20.25385
 20
14.16204
 30
0.0
 10
20.25385
 20
14.16204
 30
0.0
 10
20.5732
 20
13.89226
 30
0.0
 10
20.87529
 20
13.17908
 30
0.0
 10
20.87872
 20
12.93282
 30
0.0
 10
20.87872
 20
12.93282
 30
0.0
 10
21.08006
 20
11.80531
 30
0.0
 10
21.00797
 20
11.60187
 30
0.0
 10
20.62111
 20
10.51866
 30
0.0
 10
20.62111
 20
10.51866
 30
0.0
 10
20.52483
 20
10.24109
 30
0.0
 10
20.62746
 20
10.17602
 30
0.0
 10
20.89489
 20
10.287
 30
0.0
 10
20.89489
 20
10.287
 30
0.0
 10
21.48077
 20
10.5454
 30
0.0
 10
21.87121
 20
10.69009
 30
0.0
 10
22.25888
 20
10.69057
 30
0.0
 10
22.25888
 20
10.69057
 30
0.0
 10
22.64655
 20
10.69009
 30
0.0
 10
23.03699
 20
10.5454
 30
0.0
 10
23.62287
 20
10.287
 30
0.0
 10
23.62287
 20
10.287
 30
0.0
 10
23.8903
 20
10.17602
 30
0.0
 10
23.99293
 20
10.24109
 30
0.0
 10
23.89665
 20
10.51866
 30
0.0
 10
23.89665
 20
10.51866
 30
0.0
 10
23.5989
 20
11.60186
 30
0.0
 10
23.58622
 20
11.80529
 30
0.0
 10
23.63904
 20
12.93282
 30
0.0
 10
23.63904
 20
12.93282
 30
0.0
 10
23.64247
 20
13.17908
 30
0.0
 10
23.94456
 20
13.89226
 30
0.0
 10
24.26391
 20
14.16204
 30
0.0
 10
24.26391
 20
14.16204
 30
0.0
 10
24.97354
 20
14.52939
 30
0.0
 10
25.2109
 20
13.57961
 30
0.0
 10
24.51663
 20
13.50918
 30
0.0
 10
24.51663
 20
13.50918
 30
0.0
 10
23.97274
 20
12.03521
 30
0.0
 10
24.31723
 20
10.78994
 30
0.0
 10
24.7227
 20
9.93698
 30
0.0
 10
24.7227
 20
9.93698
 30
0.0
 10
24.85416
 20
9.590760000000001
 30
0.0
 10
24.87174
 20
9.356630000000001
 30
0.0
 10
24.80241
 20
8.960220000000001
 30
0.0
 10
24.80241
 20
8.960220000000001
 30
0.0
 10
24.77142
 20
8.57329
 30
0.0
 10
24.72146
 20
8.202
 30
0.0
 10
24.44039
 20
7.865100000000001
 30
0.0
 10
24.44039
 20
7.865100000000001
 30
0.0
 10
24.44039
 20
7.865100000000001
 30
0.0
 10
24.26955
 20
7.864870000000001
 30
0.0
 10
24.26955
 20
7.864870000000001
 30
0.0
 10
24.26955
 20
7.864870000000001
 30
0.0
 10
24.26955
 20
7.864870000000001
 30
0.0
 10
24.27076
 20
8.623470000000001
 30
0.0
 10
24.27076
 20
8.623470000000001
 30
0.0
 10
24.27076
 20
8.623470000000001
 30
0.0
 10
24.27076
 20
8.623470000000001
 30
0.0
 10
23.95696
 20
8.623570000000001
 30
0.0
 10
23.95696
 20
8.623570000000001
 30
0.0
 10
23.95696
 20
8.623570000000001
 30
0.0
 10
23.95696
 20
8.623570000000001
 30
0.0
 10
23.95636
 20
7.861740000000001
 30
0.0
 10
23.95636
 20
7.861740000000001
 30
0.0
 10
23.95636
 20
7.861740000000001
 30
0.0
 10
23.95636
 20
7.861740000000001
 30
0.0
 10
22.72264
 20
7.86279
 30
0.0
 10
22.72264
 20
7.86279
 30
0.0
 10
22.72264
 20
7.86279
 30
0.0
 10
22.7229
 20
7.659940000000001
 30
0.0
 10
22.66611
 20
7.571440000000001
 30
0.0
 10
22.57753
 20
7.57026
 30
0.0
 10
22.57753
 20
7.57026
 30
0.0
 10
22.57753
 20
7.57026
 30
0.0
 10
21.88011
 20
7.57026
 30
0.0
 10
21.88011
 20
7.57026
 30
0.0
  0
SPLINE
  5
4F
330
1F
100
AcDbEntity
  8
Layer 1
 62
    22
370
     5
100
AcDbSpline
210
0.0
220
0.0
230
1.0
 70
    11
 71
     3
 72
    36
 73
    32
 74
     0
 42
0.0000000001
 43
0.0000000001
 40
0.0
 40
0.0
 40
0.0
 40
0.0
 40
0.125
 40
0.125
 40
0.125
 40
0.125
 40
0.25
 40
0.25
 40
0.25
 40
0.25
 40
0.375
 40
0.375
 40
0.375
 40
0.375
 40
0.5
 40
0.5
 40
0.5
 40
0.5
 40
0.625
 40
0.625
 40
0.625
 40
0.625
 40
0.75
 40
0.75
 40
0.75
 40
0.75
 40
0.875
 40
0.875
 40
0.875
 40
0.875
 40
1.0
 40
1.0
 40
1.0
 40
1.0
 10
21.88723
 20
9.637820000000001
 30
0.0
 10
21.88723
 20
9.637820000000001
 30
0.0
 10
22.64209
 20
9.637820000000001
 30
0.0
 10
22.64209
 20
9.637820000000001
 30
0.0
 10
22.64209
 20
9.637820000000001
 30
0.0
 10
22.70942
 20
9.637820000000001
 30
0.0
 10
22.7645
 20
9.592540000000001
 30
0.0
 10
22.7645
 20
9.5372
 30
0.0
 10
22.7645
 20
9.5372
 30
0.0
 10
22.7645
 20
9.5372
 30
0.0
 10
22.7645
 20
9.41981
 30
0.0
 10
22.7645
 20
9.41981
 30
0.0
 10
22.7645
 20
9.41981
 30
0.0
 10
22.7645
 20
9.364470000000001
 30
0.0
 10
22.70942
 20
9.319190000000001
 30
0.0
 10
22.64209
 20
9.319190000000001
 30
0.0
 10
22.64209
 20
9.319190000000001
 30
0.0
 10
22.64209
 20
9.319190000000001
 30
0.0
 10
21.88723
 20
9.319190000000001
 30
0.0
 10
21.88723
 20
9.319190000000001
 30
0.0
 10
21.88723
 20
9.319190000000001
 30
0.0
 10
21.8199
 20
9.319190000000001
 30
0.0
 10
21.76482
 20
9.364470000000001
 30
0.0
 10
21.76482
 20
9.41981
 30
0.0
 10
21.76482
 20
9.41981
 30
0.0
 10
21.76482
 20
9.41981
 30
0.0
 10
21.76482
 20
9.5372
 30
0.0
 10
21.76482
 20
9.5372
 30
0.0
 10
21.76482
 20
9.5372
 30
0.0
 10
21.76482
 20
9.592540000000001
 30
0.0
 10
21.8199
 20
9.637820000000001
 30
0.0
 10
21.88723
 20
9.637820000000001
 30
0.0
  0
SPLINE
  5
50
330
1F
100
AcDbEntity
  8
Layer 1
 62
    22
370
     5
100
AcDbSpline
210
0.0
220
0.0
230
1.0
 70
    11
 71
     3
 72
    28
 73
    24
 74
     0
 42
0.0000000001
 43
0.0000000001
 40
0.0
 40
0.0
 40
0.0
 40
0.0
 40
0.1666666666666667
 40
0.1666666666666667
 40
0.1666666666666667
 40
0.1666666666666667
 40
0.3333333333333333
 40
0.3333333333333333
 40
0.3333333333333333
 40
0.3333333333333333
 40
0.5
 40
0.5
 40
0.5
 40
0.5
 40
0.6666666666666666
 40
0.6666666666666666
 40
0.6666666666666666
 40
0.6666666666666666
 40
0.8333333333333333
 40
0.8333333333333333
 40
0.8333333333333333
 40
0.8333333333333333
 40
1.0
 40
1.0
 40
1.0
 40
1.0
 10
17.06904
 20
-2.13568
 30
0.0
 10
17.06904
 20
-2.13568
 30
0.0
 10
16.26804
 20
-2.13568
 30
0.0
 10
16.26804
 20
-2.13568
 30
0.0
 10
16.26804
 20
-2.13568
 30
0.0
 10
16.26804
 20
-2.13568
 30
0.0
 10
16.26831
 20
-1.71268
 30
0.0
 10
16.26831
 20
-1.71268
 30
0.0
 10
16.26831
 20
-1.71268
 30
0.0
 10
16.26831
 20
-1.71268
 30
0.0
 10
16.04304
 20
-1.71268
 30
0.0
 10
16.04304
 20
-1.71268
 30
0.0
 10
16.04304
 20
-1.71268
 30
0.0
 10
16.04881
 20
-0.75412
 30
0.0
 10
17.27588
 20
-0.7705700000000001
 30
0.0
 10
17.27442
 20
-1.71349
 30
0.0
 10
17.27442
 20
-1.71349
 30
0.0
 10
17.27442
 20
-1.71349
 30
0.0
 10
17.06958
 20
-1.71376
 30
0.0
 10
17.06958
 20
-1.71376
 30
0.0
 10
17.06958
 20
-1.71376
 30
0.0
 10
17.06958
 20
-1.71376
 30
0.0
 10
17.06904
 20
-2.13568
 30
0.0
 10
17.06904
 20
-2.13568
 30
0.0
  0
SPLINE
  5
51
330
1F
100
AcDbEntity
  8
Layer 1
 62
    22
370
     5
100
AcDbSpline
210
0.0
220
0.0
230
1.0
 70
    11
 71
     3
 72
    28
 73
    24
 74
     0
 42
0.0000000001
 43
0.0000000001
 40
0.0
 40
0.0
 40
0.0
 40
0.0
 40
0.1666666666666667
 40
0.1666666666666667
 40
0.1666666666666667
 40
0.1666666666666667
 40
0.3333333333333333
 40
0.3333333333333333
 40
0.3333333333333333
 40
0.3333333333333333
 40
0.5
 40
0.5
 40
0.5
 40
0.5
 40
0.6666666666666666
 40
0.6666666666666666
 40
0.6666666666666666
 40
0.6666666666666666
 40
0.8333333333333333
 40
0.8333333333333333
 40
0.8333333333333333
 40
0.8333333333333333
 40
1.0
 40
1.0
 40
1.0
 40
1.0
 10
15.23049
 20
-2.22323
 30
0.0
 10
15.23049
 20
-2.22323
 30
0.0
 10
14.42949
 20
-2.22323
 30
0.0
 10
14.42949
 20
-2.22323
 30
0.0
 10
14.42949
 20
-2.22323
 30
0.0
 10
14.42949
 20
-2.22323
 30
0.0
 10
14.42976
 20
-1.80023
 30
0.0
 10
14.42976
 20
-1.80023
 30
0.0
 10
14.42976
 20
-1.80023
 30
0.0
 10
14.42976
 20
-1.80023
 30
0.0
 10
14.20449
 20
-1.80023
 30
0.0
 10
14.20449
 20
-1.80023
 30
0.0
 10
14.20449
 20
-1.80023
 30
0.0
 10
14.21026
 20
-0.84167
 30
0.0
 10
15.43733
 20
-0.8581200000000001
 30
0.0
 10
15.43587
 20
-1.80104
 30
0.0
 10
15.43587
 20
-1.80104
 30
0.0
 10
15.43587
 20
-1.80104
 30
0.0
 10
15.23103
 20
-1.80131
 30
0.0
 10
15.23103
 20
-1.80131
 30
0.0
 10
15.23103
 20
-1.80131
 30
0.0
 10
15.23103
 20
-1.80131
 30
0.0
 10
15.23049
 20
-2.22323
 30
0.0
 10
15.23049
 20
-2.22323
 30
0.0
  0
SPLINE
  5
52
330
1F
100
AcDbEntity
  8
Layer 1
 62
    22
370
     5
100
AcDbSpline
210
0.0
220
0.0
230
1.0
 70
    11
 71
     3
 72
    60
 73
    56
 74
     0
 42
0.0000000001
 43
0.0000000001
 40
0.0
 40
0.0
 40
0.0
 40
0.0
 40
0.0714285714285714
 40
0.0714285714285714
 40
0.0714285714285714
 40
0.0714285714285714
 40
0.1428571428571429
 40
0.1428571428571429
 40
0.1428571428571429
 40
0.1428571428571429
 40
0.2142857142857143
 40
0.2142857142857143
 40
0.2142857142857143
 40
0.2142857142857143
 40
0.2857142857142857
 40
0.2857142857142857
 40
0.2857142857142857
 40
0.2857142857142857
 40
0.3571428571428571
 40
0.3571428571428571
 40
0.3571428571428571
 40
0.3571428571428571
 40
0.4285714285714285
 40
0.4285714285714285
 40
0.4285714285714285
 40
0.4285714285714285
 40
0.4999999999999999
 40
0.4999999999999999
 40
0.4999999999999999
 40
0.4999999999999999
 40
0.5714285714285713
 40
0.5714285714285713
 40
0.5714285714285713
 40
0.5714285714285713
 40
0.6428571428571427
 40
0.6428571428571427
 40
0.6428571428571427
 40
0.6428571428571427
 40
0.7142857142857141
 40
0.7142857142857141
 40
0.7142857142857141
 40
0.7142857142857141
 40
0.7857142857142855
 40
0.7857142857142855
 40
0.7857142857142855
 40
0.7857142857142855
 40
0.8571428571428569
 40
0.8571428571428569
 40
0.8571428571428569
 40
0.8571428571428569
 40
0.9285714285714283
 40
0.9285714285714283
 40
0.9285714285714283
 40
0.9285714285714283
 40
1.0
 40
1.0
 40
1.0
 40
1.0
 10
6.89876
 20
6.83823
 30
0.0
 10
6.89876
 20
6.83823
 30
0.0
 10
17.37779
 20
6.83823
 30
0.0
 10
17.37779
 20
6.83823
 30
0.0
 10
17.37779
 20
6.83823
 30
0.0
 10
17.37779
 20
6.83823
 30
0.0
 10
17.37859
 20
5.73662
 30
0.0
 10
17.37859
 20
5.73662
 30
0.0
 10
17.37859
 20
5.73662
 30
0.0
 10
17.3792
 20
5.488460000000001
 30
0.0
 10
17.65097
 20
5.50171
 30
0.0
 10
17.65488
 20
5.74349
 30
0.0
 10
17.65488
 20
5.74349
 30
0.0
 10
17.65488
 20
5.74349
 30
0.0
 10
17.65416
 20
6.842960000000001
 30
0.0
 10
17.65416
 20
6.842960000000001
 30
0.0
 10
17.65416
 20
6.842960000000001
 30
0.0
 10
17.85076
 20
6.84773
 30
0.0
 10
18.18147
 20
6.842890000000001
 30
0.0
 10
18.19106
 20
6.59553
 30
0.0
 10
18.19106
 20
6.59553
 30
0.0
 10
18.19106
 20
6.59553
 30
0.0
 10
18.19097
 20
5.298310000000001
 30
0.0
 10
18.19097
 20
5.298310000000001
 30
0.0
 10
18.19097
 20
5.298310000000001
 30
0.0
 10
18.19094
 20
5.08162
 30
0.0
 10
18.10651
 20
5.018470000000001
 30
0.0
 10
17.92095
 20
5.01846
 30
0.0
 10
17.92095
 20
5.01846
 30
0.0
 10
17.92095
 20
5.01846
 30
0.0
 10
6.38586
 20
5.018000000000001
 30
0.0
 10
6.38586
 20
5.018000000000001
 30
0.0
 10
6.38586
 20
5.018000000000001
 30
0.0
 10
6.16406
 20
5.018000000000001
 30
0.0
 10
6.084840000000001
 20
5.078950000000001
 30
0.0
 10
6.09309
 20
5.29419
 30
0.0
 10
6.09309
 20
5.29419
 30
0.0
 10
6.09309
 20
5.29419
 30
0.0
 10
6.093000000000001
 20
6.59553
 30
0.0
 10
6.093000000000001
 20
6.59553
 30
0.0
 10
6.093000000000001
 20
6.59553
 30
0.0
 10
6.092680000000001
 20
6.848520000000001
 30
0.0
 10
6.429360000000001
 20
6.852300000000001
 30
0.0
 10
6.63351
 20
6.837160000000001
 30
0.0
 10
6.63351
 20
6.837160000000001
 30
0.0
 10
6.63351
 20
6.837160000000001
 30
0.0
 10
6.63351
 20
5.74242
 30
0.0
 10
6.63351
 20
5.74242
 30
0.0
 10
6.63351
 20
5.74242
 30
0.0
 10
6.631590000000001
 20
5.501550000000001
 30
0.0
 10
6.899680000000001
 20
5.48545
 30
0.0
 10
6.8992
 20
5.74608
 30
0.0
 10
6.8992
 20
5.74608
 30
0.0
 10
6.8992
 20
5.74608
 30
0.0
 10
6.89876
 20
6.83823
 30
0.0
 10
6.89876
 20
6.83823
 30
0.0
  0
SPLINE
  5
53
330
1F
100
AcDbEntity
  8
Layer 1
 62
    22
370
     5
100
AcDbSpline
210
0.0
220
0.0
230
1.0
 70
    11
 71
     3
 72
    88
 73
    84
 74
     0
 42
0.0000000001
 43
0.0000000001
 40
0.0
 40
0.0
 40
0.0
 40
0.0
 40
0.0476190476190476
 40
0.0476190476190476
 40
0.0476190476190476
 40
0.0476190476190476
 40
0.0952380952380952
 40
0.0952380952380952
 40
0.0952380952380952
 40
0.0952380952380952
 40
0.1428571428571429
 40
0.1428571428571429
 40
0.1428571428571429
 40
0.1428571428571429
 40
0.1904761904761905
 40
0.1904761904761905
 40
0.1904761904761905
 40
0.1904761904761905
 40
0.2380952380952381
 40
0.2380952380952381
 40
0.2380952380952381
 40
0.2380952380952381
 40
0.2857142857142857
 40
0.2857142857142857
 40
0.2857142857142857
 40
0.2857142857142857
 40
0.3333333333333333
 40
0.3333333333333333
 40
0.3333333333333333
 40
0.3333333333333333
 40
0.3809523809523809
 40
0.3809523809523809
 40
0.3809523809523809
 40
0.3809523809523809
 40
0.4285714285714286
 40
0.4285714285714286
 40
0.4285714285714286
 40
0.4285714285714286
 40
0.4761904761904762
 40
0.4761904761904762
 40
0.4761904761904762
 40
0.4761904761904762
 40
0.5238095238095237
 40
0.5238095238095237
 40
0.5238095238095237
 40
0.5238095238095237
 40
0.5714285714285714
 40
0.5714285714285714
 40
0.5714285714285714
 40
0.5714285714285714
 40
0.6190476190476191
 40
0.6190476190476191
 40
0.6190476190476191
 40
0.6190476190476191
 40
0.6666666666666667
 40
0.6666666666666667
 40
0.6666666666666667
 40
0.6666666666666667
 40
0.7142857142857144
 40
0.7142857142857144
 40
0.7142857142857144
 40
0.7142857142857144
 40
0.7619047619047621
 40
0.7619047619047621
 40
0.7619047619047621
 40
0.7619047619047621
 40
0.8095238095238098
 40
0.8095238095238098
 40
0.8095238095238098
 40
0.8095238095238098
 40
0.8571428571428574
 40
0.8571428571428574
 40
0.8571428571428574
 40
0.8571428571428574
 40
0.9047619047619051
 40
0.9047619047619051
 40
0.9047619047619051
 40
0.9047619047619051
 40
0.9523809523809528
 40
0.9523809523809528
 40
0.9523809523809528
 40
0.9523809523809528
 40
1.0
 40
1.0
 40
1.0
 40
1.0
 10
17.88206
 20
-13.32899
 30
0.0
 10
17.88206
 20
-13.32899
 30
0.0
 10
18.22659
 20
-13.32889
 30
0.0
 10
18.22659
 20
-13.32889
 30
0.0
 10
18.22659
 20
-13.32889
 30
0.0
 10
18.37612
 20
-13.32882
 30
0.0
 10
18.42672
 20
-13.22626
 30
0.0
 10
18.42675
 20
-13.12914
 30
0.0
 10
18.42675
 20
-13.12914
 30
0.0
 10
18.42675
 20
-13.12914
 30
0.0
 10
18.42685
 20
-12.36876
 30
0.0
 10
18.42685
 20
-12.36876
 30
0.0
 10
18.42685
 20
-12.36876
 30
0.0
 10
18.42688
 20
-12.26544
 30
0.0
 10
18.34897
 20
-12.16888
 30
0.0
 10
18.22755
 20
-12.16902
 30
0.0
 10
18.22755
 20
-12.16902
 30
0.0
 10
18.22755
 20
-12.16902
 30
0.0
 10
16.65842
 20
-12.16538
 30
0.0
 10
16.65842
 20
-12.16538
 30
0.0
 10
16.65842
 20
-12.16538
 30
0.0
 10
16.65842
 20
-12.16538
 30
0.0
 10
16.65924
 20
-11.96779
 30
0.0
 10
16.65924
 20
-11.96779
 30
0.0
 10
16.65924
 20
-11.96779
 30
0.0
 10
16.66219
 20
-11.84963
 30
0.0
 10
16.64046
 20
-11.83346
 30
0.0
 10
16.48369
 20
-11.83347
 30
0.0
 10
16.48369
 20
-11.83347
 30
0.0
 10
16.38617
 20
-11.83347
 30
0.0
 10
15.9785
 20
-11.83515
 30
0.0
 10
15.881
 20
-11.83354
 30
0.0
 10
15.881
 20
-11.83354
 30
0.0
 10
15.70546
 20
-11.83063
 30
0.0
 10
15.67406
 20
-11.8405
 30
0.0
 10
15.67415
 20
-11.9678
 30
0.0
 10
15.67415
 20
-11.9678
 30
0.0
 10
15.67415
 20
-11.9678
 30
0.0
 10
15.67416
 20
-12.16495
 30
0.0
 10
15.67416
 20
-12.16495
 30
0.0
 10
15.67416
 20
-12.16495
 30
0.0
 10
15.67416
 20
-12.16495
 30
0.0
 10
14.54397
 20
-12.17039
 30
0.0
 10
14.54397
 20
-12.17039
 30
0.0
 10
14.54397
 20
-12.17039
 30
0.0
 10
14.40989
 20
-12.17039
 30
0.0
 10
14.3408
 20
-12.23124
 30
0.0
 10
14.34087
 20
-12.37198
 30
0.0
 10
14.34087
 20
-12.37198
 30
0.0
 10
14.34087
 20
-12.37198
 30
0.0
 10
14.34102
 20
-12.77189
 30
0.0
 10
14.34102
 20
-12.77189
 30
0.0
 10
14.34102
 20
-12.77189
 30
0.0
 10
14.34112
 20
-12.88952
 30
0.0
 10
14.40317
 20
-12.97082
 30
0.0
 10
14.54397
 20
-12.97082
 30
0.0
 10
14.54397
 20
-12.97082
 30
0.0
 10
14.54397
 20
-12.97082
 30
0.0
 10
14.69911
 20
-12.97082
 30
0.0
 10
14.69911
 20
-12.97082
 30
0.0
 10
14.69911
 20
-12.97082
 30
0.0
 10
14.69911
 20
-12.97082
 30
0.0
 10
14.69905
 20
-13.12792
 30
0.0
 10
14.69905
 20
-13.12792
 30
0.0
 10
14.69905
 20
-13.12792
 30
0.0
 10
14.69895
 20
-13.24503
 30
0.0
 10
14.77604
 20
-13.32883
 30
0.0
 10
14.90259
 20
-13.32886
 30
0.0
 10
14.90259
 20
-13.32886
 30
0.0
 10
14.90259
 20
-13.32886
 30
0.0
 10
17.5822
 20
-13.32914
 30
0.0
 10
17.5822
 20
-13.32914
 30
0.0
 10
17.5822
 20
-13.32914
 30
0.0
 10
17.5822
 20
-13.32914
 30
0.0
 10
17.5822
 20
-12.80234
 30
0.0
 10
17.5822
 20
-12.80234
 30
0.0
 10
17.5822
 20
-12.80234
 30
0.0
 10
17.58519
 20
-12.53018
 30
0.0
 10
17.88399
 20
-12.54753
 30
0.0
 10
17.88123
 20
-12.78128
 30
0.0
 10
17.88123
 20
-12.78128
 30
0.0
 10
17.88123
 20
-12.78128
 30
0.0
 10
17.88206
 20
-13.32899
 30
0.0
 10
17.88206
 20
-13.32899
 30
0.0
  0
SPLINE
  5
54
330
1F
100
AcDbEntity
  8
Layer 1
 62
    22
370
     5
100
AcDbSpline
210
0.0
220
0.0
230
1.0
 70
    11
 71
     3
 72
    88
 73
    84
 74
     0
 42
0.0000000001
 43
0.0000000001
 40
0.0
 40
0.0
 40
0.0
 40
0.0
 40
0.0476190476190476
 40
0.0476190476190476
 40
0.0476190476190476
 40
0.0476190476190476
 40
0.0952380952380952
 40
0.0952380952380952
 40
0.0952380952380952
 40
0.0952380952380952
 40
0.1428571428571429
 40
0.1428571428571429
 40
0.1428571428571429
 40
0.1428571428571429
 40
0.1904761904761905
 40
0.1904761904761905
 40
0.1904761904761905
 40
0.1904761904761905
 40
0.2380952380952381
 40
0.2380952380952381
 40
0.2380952380952381
 40
0.2380952380952381
 40
0.2857142857142857
 40
0.2857142857142857
 40
0.2857142857142857
 40
0.2857142857142857
 40
0.3333333333333333
 40
0.3333333333333333
 40
0.3333333333333333
 40
0.3333333333333333
 40
0.3809523809523809
 40
0.3809523809523809
 40
0.3809523809523809
 40
0.3809523809523809
 40
0.4285714285714286
 40
0.4285714285714286
 40
0.4285714285714286
 40
0.4285714285714286
 40
0.4761904761904762
 40
0.4761904761904762
 40
0.4761904761904762
 40
0.4761904761904762
 40
0.5238095238095237
 40
0.5238095238095237
 40
0.5238095238095237
 40
0.5238095238095237
 40
0.5714285714285714
 40
0.5714285714285714
 40
0.5714285714285714
 40
0.5714285714285714
 40
0.6190476190476191
 40
0.6190476190476191
 40
0.6190476190476191
 40
0.6190476190476191
 40
0.6666666666666667
 40
0.6666666666666667
 40
0.6666666666666667
 40
0.6666666666666667
 40
0.7142857142857144
 40
0.7142857142857144
 40
0.7142857142857144
 40
0.7142857142857144
 40
0.7619047619047621
 40
0.7619047619047621
 40
0.7619047619047621
 40
0.7619047619047621
 40
0.8095238095238098
 40
0.8095238095238098
 40
0.8095238095238098
 40
0.8095238095238098
 40
0.8571428571428574
 40
0.8571428571428574
 40
0.8571428571428574
 40
0.8571428571428574
 40
0.9047619047619051
 40
0.9047619047619051
 40
0.9047619047619051
 40
0.9047619047619051
 40
0.9523809523809528
 40
0.9523809523809528
 40
0.9523809523809528
 40
0.9523809523809528
 40
1.0
 40
1.0
 40
1.0
 40
1.0
 10
23.57281
 20
-13.32899
 30
0.0
 10
23.57281
 20
-13.32899
 30
0.0
 10
23.91734
 20
-13.32889
 30
0.0
 10
23.91734
 20
-13.32889
 30
0.0
 10
23.91734
 20
-13.32889
 30
0.0
 10
24.06687
 20
-13.32882
 30
0.0
 10
24.11747
 20
-13.22626
 30
0.0
 10
24.1175
 20
-13.12914
 30
0.0
 10
24.1175
 20
-13.12914
 30
0.0
 10
24.1175
 20
-13.12914
 30
0.0
 10
24.1176
 20
-12.36876
 30
0.0
 10
24.1176
 20
-12.36876
 30
0.0
 10
24.1176
 20
-12.36876
 30
0.0
 10
24.11763
 20
-12.26544
 30
0.0
 10
24.03972
 20
-12.16888
 30
0.0
 10
23.9183
 20
-12.16902
 30
0.0
 10
23.9183
 20
-12.16902
 30
0.0
 10
23.9183
 20
-12.16902
 30
0.0
 10
22.34917
 20
-12.16538
 30
0.0
 10
22.34917
 20
-12.16538
 30
0.0
 10
22.34917
 20
-12.16538
 30
0.0
 10
22.34917
 20
-12.16538
 30
0.0
 10
22.34999
 20
-11.96779
 30
0.0
 10
22.34999
 20
-11.96779
 30
0.0
 10
22.34999
 20
-11.96779
 30
0.0
 10
22.35294
 20
-11.84963
 30
0.0
 10
22.33121
 20
-11.83346
 30
0.0
 10
22.17444
 20
-11.83347
 30
0.0
 10
22.17444
 20
-11.83347
 30
0.0
 10
22.07692
 20
-11.83347
 30
0.0
 10
21.66925
 20
-11.83515
 30
0.0
 10
21.57175
 20
-11.83354
 30
0.0
 10
21.57175
 20
-11.83354
 30
0.0
 10
21.39621
 20
-11.83063
 30
0.0
 10
21.36481
 20
-11.8405
 30
0.0
 10
21.3649
 20
-11.9678
 30
0.0
 10
21.3649
 20
-11.9678
 30
0.0
 10
21.3649
 20
-11.9678
 30
0.0
 10
21.36491
 20
-12.16495
 30
0.0
 10
21.36491
 20
-12.16495
 30
0.0
 10
21.36491
 20
-12.16495
 30
0.0
 10
21.36491
 20
-12.16495
 30
0.0
 10
20.23472
 20
-12.17039
 30
0.0
 10
20.23472
 20
-12.17039
 30
0.0
 10
20.23472
 20
-12.17039
 30
0.0
 10
20.10064
 20
-12.17039
 30
0.0
 10
20.03155
 20
-12.23124
 30
0.0
 10
20.03162
 20
-12.37198
 30
0.0
 10
20.03162
 20
-12.37198
 30
0.0
 10
20.03162
 20
-12.37198
 30
0.0
 10
20.03177
 20
-12.77189
 30
0.0
 10
20.03177
 20
-12.77189
 30
0.0
 10
20.03177
 20
-12.77189
 30
0.0
 10
20.03187
 20
-12.88952
 30
0.0
 10
20.09392
 20
-12.97082
 30
0.0
 10
20.23472
 20
-12.97082
 30
0.0
 10
20.23472
 20
-12.97082
 30
0.0
 10
20.23472
 20
-12.97082
 30
0.0
 10
20.38986
 20
-12.97082
 30
0.0
 10
20.38986
 20
-12.97082
 30
0.0
 10
20.38986
 20
-12.97082
 30
0.0
 10
20.38986
 20
-12.97082
 30
0.0
 10
20.3898
 20
-13.12792
 30
0.0
 10
20.3898
 20
-13.12792
 30
0.0
 10
20.3898
 20
-13.12792
 30
0.0
 10
20.3897
 20
-13.24503
 30
0.0
 10
20.46679
 20
-13.32883
 30
0.0
 10
20.59334
 20
-13.32886
 30
0.0
 10
20.59334
 20
-13.32886
 30
0.0
 10
20.59334
 20
-13.32886
 30
0.0
 10
23.27295
 20
-13.32914
 30
0.0
 10
23.27295
 20
-13.32914
 30
0.0
 10
23.27295
 20
-13.32914
 30
0.0
 10
23.27295
 20
-13.32914
 30
0.0
 10
23.27295
 20
-12.80234
 30
0.0
 10
23.27295
 20
-12.80234
 30
0.0
 10
23.27295
 20
-12.80234
 30
0.0
 10
23.27594
 20
-12.53018
 30
0.0
 10
23.57474
 20
-12.54753
 30
0.0
 10
23.57198
 20
-12.78128
 30
0.0
 10
23.57198
 20
-12.78128
 30
0.0
 10
23.57198
 20
-12.78128
 30
0.0
 10
23.57281
 20
-13.32899
 30
0.0
 10
23.57281
 20
-13.32899
 30
0.0
  0
SPLINE
  5
55
330
1F
100
AcDbEntity
  8
Layer 1
 62
    22
370
     5
100
AcDbSpline
210
0.0
220
0.0
230
1.0
 70
    11
 71
     3
 72
    88
 73
    84
 74
     0
 42
0.0000000001
 43
0.0000000001
 40
0.0
 40
0.0
 40
0.0
 40
0.0
 40
0.0476190476190476
 40
0.0476190476190476
 40
0.0476190476190476
 40
0.0476190476190476
 40
0.0952380952380952
 40
0.0952380952380952
 40
0.0952380952380952
 40
0.0952380952380952
 40
0.1428571428571429
 40
0.1428571428571429
 40
0.1428571428571429
 40
0.1428571428571429
 40
0.1904761904761905
 40
0.1904761904761905
 40
0.1904761904761905
 40
0.1904761904761905
 40
0.2380952380952381
 40
0.2380952380952381
 40
0.2380952380952381
 40
0.2380952380952381
 40
0.2857142857142857
 40
0.2857142857142857
 40
0.2857142857142857
 40
0.2857142857142857
 40
0.3333333333333333
 40
0.3333333333333333
 40
0.3333333333333333
 40
0.3333333333333333
 40
0.3809523809523809
 40
0.3809523809523809
 40
0.3809523809523809
 40
0.3809523809523809
 40
0.4285714285714286
 40
0.4285714285714286
 40
0.4285714285714286
 40
0.4285714285714286
 40
0.4761904761904762
 40
0.4761904761904762
 40
0.4761904761904762
 40
0.4761904761904762
 40
0.5238095238095237
 40
0.5238095238095237
 40
0.5238095238095237
 40
0.5238095238095237
 40
0.5714285714285714
 40
0.5714285714285714
 40
0.5714285714285714
 40
0.5714285714285714
 40
0.6190476190476191
 40
0.6190476190476191
 40
0.6190476190476191
 40
0.6190476190476191
 40
0.6666666666666667
 40
0.6666666666666667
 40
0.6666666666666667
 40
0.6666666666666667
 40
0.7142857142857144
 40
0.7142857142857144
 40
0.7142857142857144
 40
0.7142857142857144
 40
0.7619047619047621
 40
0.7619047619047621
 40
0.7619047619047621
 40
0.7619047619047621
 40
0.8095238095238098
 40
0.8095238095238098
 40
0.8095238095238098
 40
0.8095238095238098
 40
0.8571428571428574
 40
0.8571428571428574
 40
0.8571428571428574
 40
0.8571428571428574
 40
0.9047619047619051
 40
0.9047619047619051
 40
0.9047619047619051
 40
0.9047619047619051
 40
0.9523809523809528
 40
0.9523809523809528
 40
0.9523809523809528
 40
0.9523809523809528
 40
1.0
 40
1.0
 40
1.0
 40
1.0
 10
17.79451
 20
-11.22779
 30
0.0
 10
17.79451
 20
-11.22779
 30
0.0
 10
18.13904
 20
-11.22769
 30
0.0
 10
18.13904
 20
-11.22769
 30
0.0
 10
18.13904
 20
-11.22769
 30
0.0
 10
18.28857
 20
-11.22762
 30
0.0
 10
18.33917
 20
-11.12506
 30
0.0
 10
18.3392
 20
-11.02794
 30
0.0
 10
18.3392
 20
-11.02794
 30
0.0
 10
18.3392
 20
-11.02794
 30
0.0
 10
18.3393
 20
-10.26756
 30
0.0
 10
18.3393
 20
-10.26756
 30
0.0
 10
18.3393
 20
-10.26756
 30
0.0
 10
18.33933
 20
-10.16424
 30
0.0
 10
18.26142
 20
-10.06768
 30
0.0
 10
18.14
 20
-10.06782
 30
0.0
 10
18.14
 20
-10.06782
 30
0.0
 10
18.14
 20
-10.06782
 30
0.0
 10
16.57087
 20
-10.06418
 30
0.0
 10
16.57087
 20
-10.06418
 30
0.0
 10
16.57087
 20
-10.06418
 30
0.0
 10
16.57087
 20
-10.06418
 30
0.0
 10
16.57169
 20
-9.86659
 30
0.0
 10
16.57169
 20
-9.86659
 30
0.0
 10
16.57169
 20
-9.86659
 30
0.0
 10
16.57464
 20
-9.748430000000001
 30
0.0
 10
16.55291
 20
-9.73226
 30
0.0
 10
16.39614
 20
-9.732270000000002
 30
0.0
 10
16.39614
 20
-9.732270000000002
 30
0.0
 10
16.29862
 20
-9.732270000000002
 30
0.0
 10
15.89095
 20
-9.73395
 30
0.0
 10
15.79345
 20
-9.732340000000001
 30
0.0
 10
15.79345
 20
-9.732340000000001
 30
0.0
 10
15.61791
 20
-9.729430000000001
 30
0.0
 10
15.58651
 20
-9.7393
 30
0.0
 10
15.5866
 20
-9.8666
 30
0.0
 10
15.5866
 20
-9.8666
 30
0.0
 10
15.5866
 20
-9.8666
 30
0.0
 10
15.58661
 20
-10.06375
 30
0.0
 10
15.58661
 20
-10.06375
 30
0.0
 10
15.58661
 20
-10.06375
 30
0.0
 10
15.58661
 20
-10.06375
 30
0.0
 10
14.45642
 20
-10.06919
 30
0.0
 10
14.45642
 20
-10.06919
 30
0.0
 10
14.45642
 20
-10.06919
 30
0.0
 10
14.32234
 20
-10.06919
 30
0.0
 10
14.25325
 20
-10.13004
 30
0.0
 10
14.25332
 20
-10.27078
 30
0.0
 10
14.25332
 20
-10.27078
 30
0.0
 10
14.25332
 20
-10.27078
 30
0.0
 10
14.25347
 20
-10.67069
 30
0.0
 10
14.25347
 20
-10.67069
 30
0.0
 10
14.25347
 20
-10.67069
 30
0.0
 10
14.25357
 20
-10.78832
 30
0.0
 10
14.31562
 20
-10.86962
 30
0.0
 10
14.45642
 20
-10.86962
 30
0.0
 10
14.45642
 20
-10.86962
 30
0.0
 10
14.45642
 20
-10.86962
 30
0.0
 10
14.61156
 20
-10.86962
 30
0.0
 10
14.61156
 20
-10.86962
 30
0.0
 10
14.61156
 20
-10.86962
 30
0.0
 10
14.61156
 20
-10.86962
 30
0.0
 10
14.6115
 20
-11.02672
 30
0.0
 10
14.6115
 20
-11.02672
 30
0.0
 10
14.6115
 20
-11.02672
 30
0.0
 10
14.6114
 20
-11.14383
 30
0.0
 10
14.68849
 20
-11.22763
 30
0.0
 10
14.81504
 20
-11.22766
 30
0.0
 10
14.81504
 20
-11.22766
 30
0.0
 10
14.81504
 20
-11.22766
 30
0.0
 10
17.49465
 20
-11.22794
 30
0.0
 10
17.49465
 20
-11.22794
 30
0.0
 10
17.49465
 20
-11.22794
 30
0.0
 10
17.49465
 20
-11.22794
 30
0.0
 10
17.49465
 20
-10.70114
 30
0.0
 10
17.49465
 20
-10.70114
 30
0.0
 10
17.49465
 20
-10.70114
 30
0.0
 10
17.49764
 20
-10.42898
 30
0.0
 10
17.79644
 20
-10.44633
 30
0.0
 10
17.79368
 20
-10.68008
 30
0.0
 10
17.79368
 20
-10.68008
 30
0.0
 10
17.79368
 20
-10.68008
 30
0.0
 10
17.79451
 20
-11.22779
 30
0.0
 10
17.79451
 20
-11.22779
 30
0.0
  0
SPLINE
  5
56
330
1F
100
AcDbEntity
  8
Layer 1
 62
    22
370
     5
100
AcDbSpline
210
0.0
220
0.0
230
1.0
 70
    11
 71
     3
 72
    88
 73
    84
 74
     0
 42
0.0000000001
 43
0.0000000001
 40
0.0
 40
0.0
 40
0.0
 40
0.0
 40
0.0476190476190476
 40
0.0476190476190476
 40
0.0476190476190476
 40
0.0476190476190476
 40
0.0952380952380952
 40
0.0952380952380952
 40
0.0952380952380952
 40
0.0952380952380952
 40
0.1428571428571429
 40
0.1428571428571429
 40
0.1428571428571429
 40
0.1428571428571429
 40
0.1904761904761905
 40
0.1904761904761905
 40
0.1904761904761905
 40
0.1904761904761905
 40
0.2380952380952381
 40
0.2380952380952381
 40
0.2380952380952381
 40
0.2380952380952381
 40
0.2857142857142857
 40
0.2857142857142857
 40
0.2857142857142857
 40
0.2857142857142857
 40
0.3333333333333333
 40
0.3333333333333333
 40
0.3333333333333333
 40
0.3333333333333333
 40
0.3809523809523809
 40
0.3809523809523809
 40
0.3809523809523809
 40
0.3809523809523809
 40
0.4285714285714286
 40
0.4285714285714286
 40
0.4285714285714286
 40
0.4285714285714286
 40
0.4761904761904762
 40
0.4761904761904762
 40
0.4761904761904762
 40
0.4761904761904762
 40
0.5238095238095237
 40
0.5238095238095237
 40
0.5238095238095237
 40
0.5238095238095237
 40
0.5714285714285714
 40
0.5714285714285714
 40
0.5714285714285714
 40
0.5714285714285714
 40
0.6190476190476191
 40
0.6190476190476191
 40
0.6190476190476191
 40
0.6190476190476191
 40
0.6666666666666667
 40
0.6666666666666667
 40
0.6666666666666667
 40
0.6666666666666667
 40
0.7142857142857144
 40
0.7142857142857144
 40
0.7142857142857144
 40
0.7142857142857144
 40
0.7619047619047621
 40
0.7619047619047621
 40
0.7619047619047621
 40
0.7619047619047621
 40
0.8095238095238098
 40
0.8095238095238098
 40
0.8095238095238098
 40
0.8095238095238098
 40
0.8571428571428574
 40
0.8571428571428574
 40
0.8571428571428574
 40
0.8571428571428574
 40
0.9047619047619051
 40
0.9047619047619051
 40
0.9047619047619051
 40
0.9047619047619051
 40
0.9523809523809528
 40
0.9523809523809528
 40
0.9523809523809528
 40
0.9523809523809528
 40
1.0
 40
1.0
 40
1.0
 40
1.0
 10
23.48526
 20
-11.22779
 30
0.0
 10
23.48526
 20
-11.22779
 30
0.0
 10
23.82979
 20
-11.22769
 30
0.0
 10
23.82979
 20
-11.22769
 30
0.0
 10
23.82979
 20
-11.22769
 30
0.0
 10
23.97932
 20
-11.22762
 30
0.0
 10
24.02992
 20
-11.12506
 30
0.0
 10
24.02995
 20
-11.02794
 30
0.0
 10
24.02995
 20
-11.02794
 30
0.0
 10
24.02995
 20
-11.02794
 30
0.0
 10
24.03005
 20
-10.26756
 30
0.0
 10
24.03005
 20
-10.26756
 30
0.0
 10
24.03005
 20
-10.26756
 30
0.0
 10
24.03008
 20
-10.16424
 30
0.0
 10
23.95217
 20
-10.06768
 30
0.0
 10
23.83075
 20
-10.06782
 30
0.0
 10
23.83075
 20
-10.06782
 30
0.0
 10
23.83075
 20
-10.06782
 30
0.0
 10
22.26162
 20
-10.06418
 30
0.0
 10
22.26162
 20
-10.06418
 30
0.0
 10
22.26162
 20
-10.06418
 30
0.0
 10
22.26162
 20
-10.06418
 30
0.0
 10
22.26244
 20
-9.86659
 30
0.0
 10
22.26244
 20
-9.86659
 30
0.0
 10
22.26244
 20
-9.86659
 30
0.0
 10
22.26539
 20
-9.748430000000001
 30
0.0
 10
22.24366
 20
-9.73226
 30
0.0
 10
22.08689
 20
-9.732270000000002
 30
0.0
 10
22.08689
 20
-9.732270000000002
 30
0.0
 10
21.98937
 20
-9.732270000000002
 30
0.0
 10
21.5817
 20
-9.73395
 30
0.0
 10
21.4842
 20
-9.732340000000001
 30
0.0
 10
21.4842
 20
-9.732340000000001
 30
0.0
 10
21.30866
 20
-9.729430000000001
 30
0.0
 10
21.27726
 20
-9.7393
 30
0.0
 10
21.27735
 20
-9.8666
 30
0.0
 10
21.27735
 20
-9.8666
 30
0.0
 10
21.27735
 20
-9.8666
 30
0.0
 10
21.27736
 20
-10.06375
 30
0.0
 10
21.27736
 20
-10.06375
 30
0.0
 10
21.27736
 20
-10.06375
 30
0.0
 10
21.27736
 20
-10.06375
 30
0.0
 10
20.14717
 20
-10.06919
 30
0.0
 10
20.14717
 20
-10.06919
 30
0.0
 10
20.14717
 20
-10.06919
 30
0.0
 10
20.01309
 20
-10.06919
 30
0.0
 10
19.944
 20
-10.13004
 30
0.0
 10
19.94407
 20
-10.27078
 30
0.0
 10
19.94407
 20
-10.27078
 30
0.0
 10
19.94407
 20
-10.27078
 30
0.0
 10
19.94422
 20
-10.67069
 30
0.0
 10
19.94422
 20
-10.67069
 30
0.0
 10
19.94422
 20
-10.67069
 30
0.0
 10
19.94432
 20
-10.78832
 30
0.0
 10
20.00637
 20
-10.86962
 30
0.0
 10
20.14717
 20
-10.86962
 30
0.0
 10
20.14717
 20
-10.86962
 30
0.0
 10
20.14717
 20
-10.86962
 30
0.0
 10
20.30231
 20
-10.86962
 30
0.0
 10
20.30231
 20
-10.86962
 30
0.0
 10
20.30231
 20
-10.86962
 30
0.0
 10
20.30231
 20
-10.86962
 30
0.0
 10
20.30225
 20
-11.02672
 30
0.0
 10
20.30225
 20
-11.02672
 30
0.0
 10
20.30225
 20
-11.02672
 30
0.0
 10
20.30215
 20
-11.14383
 30
0.0
 10
20.37924
 20
-11.22763
 30
0.0
 10
20.50579
 20
-11.22766
 30
0.0
 10
20.50579
 20
-11.22766
 30
0.0
 10
20.50579
 20
-11.22766
 30
0.0
 10
23.1854
 20
-11.22794
 30
0.0
 10
23.1854
 20
-11.22794
 30
0.0
 10
23.1854
 20
-11.22794
 30
0.0
 10
23.1854
 20
-11.22794
 30
0.0
 10
23.1854
 20
-10.70114
 30
0.0
 10
23.1854
 20
-10.70114
 30
0.0
 10
23.1854
 20
-10.70114
 30
0.0
 10
23.18839
 20
-10.42898
 30
0.0
 10
23.48719
 20
-10.44633
 30
0.0
 10
23.48443
 20
-10.68008
 30
0.0
 10
23.48443
 20
-10.68008
 30
0.0
 10
23.48443
 20
-10.68008
 30
0.0
 10
23.48526
 20
-11.22779
 30
0.0
 10
23.48526
 20
-11.22779
 30
0.0
  0
SPLINE
  5
57
330
1F
100
AcDbEntity
  8
Layer 1
 62
    22
370
     5
100
AcDbSpline
210
0.0
220
0.0
230
1.0
 70
    11
 71
     3
 72
    36
 73
    32
 74
     0
 42
0.0000000001
 43
0.0000000001
 40
0.0
 40
0.0
 40
0.0
 40
0.0
 40
0.125
 40
0.125
 40
0.125
 40
0.125
 40
0.25
 40
0.25
 40
0.25
 40
0.25
 40
0.375
 40
0.375
 40
0.375
 40
0.375
 40
0.5
 40
0.5
 40
0.5
 40
0.5
 40
0.625
 40
0.625
 40
0.625
 40
0.625
 40
0.75
 40
0.75
 40
0.75
 40
0.75
 40
0.875
 40
0.875
 40
0.875
 40
0.875
 40
1.0
 40
1.0
 40
1.0
 40
1.0
 10
16.25401
 20
-8.460510000000001
 30
0.0
 10
16.25401
 20
-8.460510000000001
 30
0.0
 10
16.80691
 20
-8.460510000000001
 30
0.0
 10
16.80691
 20
-8.460510000000001
 30
0.0
 10
16.80691
 20
-8.460510000000001
 30
0.0
 10
16.87694
 20
-8.460510000000001
 30
0.0
 10
16.93423
 20
-8.50581
 30
0.0
 10
16.93423
 20
-8.56113
 30
0.0
 10
16.93423
 20
-8.56113
 30
0.0
 10
16.93423
 20
-8.56113
 30
0.0
 10
16.93423
 20
-8.678520000000001
 30
0.0
 10
16.93423
 20
-8.678520000000001
 30
0.0
 10
16.93423
 20
-8.678520000000001
 30
0.0
 10
16.93423
 20
-8.733840000000001
 30
0.0
 10
16.87692
 20
-8.77914
 30
0.0
 10
16.80691
 20
-8.77914
 30
0.0
 10
16.80691
 20
-8.77914
 30
0.0
 10
16.80691
 20
-8.77914
 30
0.0
 10
16.25401
 20
-8.77914
 30
0.0
 10
16.25401
 20
-8.77914
 30
0.0
 10
16.25401
 20
-8.77914
 30
0.0
 10
16.184
 20
-8.77914
 30
0.0
 10
16.12669
 20
-8.73386
 30
0.0
 10
16.12669
 20
-8.678520000000001
 30
0.0
 10
16.12669
 20
-8.678520000000001
 30
0.0
 10
16.12669
 20
-8.678520000000001
 30
0.0
 10
16.12669
 20
-8.56113
 30
0.0
 10
16.12669
 20
-8.56113
 30
0.0
 10
16.12669
 20
-8.56113
 30
0.0
 10
16.12669
 20
-8.505790000000001
 30
0.0
 10
16.18398
 20
-8.460510000000001
 30
0.0
 10
16.25401
 20
-8.460510000000001
 30
0.0
  0
SPLINE
  5
58
330
1F
100
AcDbEntity
  8
Layer 1
 62
    22
370
     5
100
AcDbSpline
210
0.0
220
0.0
230
1.0
 70
    11
 71
     3
 72
    40
 73
    36
 74
     0
 42
0.0000000001
 43
0.0000000001
 40
0.0
 40
0.0
 40
0.0
 40
0.0
 40
0.1111111111111111
 40
0.1111111111111111
 40
0.1111111111111111
 40
0.1111111111111111
 40
0.2222222222222222
 40
0.2222222222222222
 40
0.2222222222222222
 40
0.2222222222222222
 40
0.3333333333333333
 40
0.3333333333333333
 40
0.3333333333333333
 40
0.3333333333333333
 40
0.4444444444444444
 40
0.4444444444444444
 40
0.4444444444444444
 40
0.4444444444444444
 40
0.5555555555555556
 40
0.5555555555555556
 40
0.5555555555555556
 40
0.5555555555555556
 40
0.6666666666666667
 40
0.6666666666666667
 40
0.6666666666666667
 40
0.6666666666666667
 40
0.7777777777777779
 40
0.7777777777777779
 40
0.7777777777777779
 40
0.7777777777777779
 40
0.8888888888888891
 40
0.8888888888888891
 40
0.8888888888888891
 40
0.8888888888888891
 40
1.0
 40
1.0
 40
1.0
 40
1.0
 10
14.12619
 20
-7.977510000000001
 30
0.0
 10
14.12619
 20
-7.977510000000001
 30
0.0
 10
18.86858
 20
-7.977510000000001
 30
0.0
 10
18.86858
 20
-7.977510000000001
 30
0.0
 10
18.86858
 20
-7.977510000000001
 30
0.0
 10
18.96358
 20
-7.977510000000001
 30
0.0
 10
19.06819
 20
-8.09862
 30
0.0
 10
19.06819
 20
-8.178520000000001
 30
0.0
 10
19.06819
 20
-8.178520000000001
 30
0.0
 10
19.06819
 20
-8.178520000000001
 30
0.0
 10
19.06819
 20
-9.188140000000001
 30
0.0
 10
19.06819
 20
-9.188140000000001
 30
0.0
 10
19.06819
 20
-9.188140000000001
 30
0.0
 10
19.06819
 20
-9.286510000000002
 30
0.0
 10
18.96837
 20
-9.388530000000001
 30
0.0
 10
18.86755
 20
-9.388530000000001
 30
0.0
 10
18.86755
 20
-9.388530000000001
 30
0.0
 10
18.86755
 20
-9.388530000000001
 30
0.0
 10
14.12928
 20
-9.388530000000001
 30
0.0
 10
14.12928
 20
-9.388530000000001
 30
0.0
 10
14.12928
 20
-9.388530000000001
 30
0.0
 10
14.02859
 20
-9.388530000000001
 30
0.0
 10
13.92955
 20
-9.288400000000001
 30
0.0
 10
13.92955
 20
-9.189170000000001
 30
0.0
 10
13.92955
 20
-9.189170000000001
 30
0.0
 10
13.92955
 20
-9.189170000000001
 30
0.0
 10
13.92955
 20
-8.174370000000002
 30
0.0
 10
13.92955
 20
-8.174370000000002
 30
0.0
 10
13.92955
 20
-8.174370000000002
 30
0.0
 10
13.92955
 20
-8.174370000000002
 30
0.0
 10
13.92955
 20
-8.124930000000001
 30
0.0
 10
13.92955
 20
-8.124930000000001
 30
0.0
 10
13.92955
 20
-8.124930000000001
 30
0.0
 10
13.92955
 20
-8.035440000000001
 30
0.0
 10
14.03453
 20
-7.977510000000001
 30
0.0
 10
14.12619
 20
-7.977510000000001
 30
0.0
  0
SPLINE
  5
59
330
1F
100
AcDbEntity
  8
Layer 1
 62
    22
370
     5
100
AcDbSpline
210
0.0
220
0.0
230
1.0
 70
    11
 71
     3
 72
    36
 73
    32
 74
     0
 42
0.0000000001
 43
0.0000000001
 40
0.0
 40
0.0
 40
0.0
 40
0.0
 40
0.125
 40
0.125
 40
0.125
 40
0.125
 40
0.25
 40
0.25
 40
0.25
 40
0.25
 40
0.375
 40
0.375
 40
0.375
 40
0.375
 40
0.5
 40
0.5
 40
0.5
 40
0.5
 40
0.625
 40
0.625
 40
0.625
 40
0.625
 40
0.75
 40
0.75
 40
0.75
 40
0.75
 40
0.875
 40
0.875
 40
0.875
 40
0.875
 40
1.0
 40
1.0
 40
1.0
 40
1.0
 10
14.45468
 20
-8.921010000000001
 30
0.0
 10
14.45468
 20
-8.921010000000001
 30
0.0
 10
14.45468
 20
-8.39987
 30
0.0
 10
14.45468
 20
-8.39987
 30
0.0
 10
14.45468
 20
-8.39987
 30
0.0
 10
14.45468
 20
-8.333020000000001
 30
0.0
 10
14.49996
 20
-8.278320000000001
 30
0.0
 10
14.5553
 20
-8.278320000000001
 30
0.0
 10
14.5553
 20
-8.278320000000001
 30
0.0
 10
14.5553
 20
-8.278320000000001
 30
0.0
 10
14.67269
 20
-8.278320000000001
 30
0.0
 10
14.67269
 20
-8.278320000000001
 30
0.0
 10
14.67269
 20
-8.278320000000001
 30
0.0
 10
14.72803
 20
-8.278320000000001
 30
0.0
 10
14.77331
 20
-8.333030000000001
 30
0.0
 10
14.77331
 20
-8.39987
 30
0.0
 10
14.77331
 20
-8.39987
 30
0.0
 10
14.77331
 20
-8.39987
 30
0.0
 10
14.77331
 20
-8.921010000000001
 30
0.0
 10
14.77331
 20
-8.921010000000001
 30
0.0
 10
14.77331
 20
-8.921010000000001
 30
0.0
 10
14.77331
 20
-8.98785
 30
0.0
 10
14.72801
 20
-9.04256
 30
0.0
 10
14.67269
 20
-9.04256
 30
0.0
 10
14.67269
 20
-9.04256
 30
0.0
 10
14.67269
 20
-9.04256
 30
0.0
 10
14.5553
 20
-9.04256
 30
0.0
 10
14.5553
 20
-9.04256
 30
0.0
 10
14.5553
 20
-9.04256
 30
0.0
 10
14.49998
 20
-9.04256
 30
0.0
 10
14.45468
 20
-8.987860000000001
 30
0.0
 10
14.45468
 20
-8.921010000000001
 30
0.0
  0
SPLINE
  5
5A
330
1F
100
AcDbEntity
  8
Layer 1
 62
    22
370
     5
100
AcDbSpline
210
0.0
220
0.0
230
1.0
 70
    11
 71
     3
 72
    36
 73
    32
 74
     0
 42
0.0000000001
 43
0.0000000001
 40
0.0
 40
0.0
 40
0.0
 40
0.0
 40
0.125
 40
0.125
 40
0.125
 40
0.125
 40
0.25
 40
0.25
 40
0.25
 40
0.25
 40
0.375
 40
0.375
 40
0.375
 40
0.375
 40
0.5
 40
0.5
 40
0.5
 40
0.5
 40
0.625
 40
0.625
 40
0.625
 40
0.625
 40
0.75
 40
0.75
 40
0.75
 40
0.75
 40
0.875
 40
0.875
 40
0.875
 40
0.875
 40
1.0
 40
1.0
 40
1.0
 40
1.0
 10
18.24548
 20
-8.90385
 30
0.0
 10
18.24548
 20
-8.90385
 30
0.0
 10
18.24548
 20
-8.38907
 30
0.0
 10
18.24548
 20
-8.38907
 30
0.0
 10
18.24548
 20
-8.38907
 30
0.0
 10
18.24548
 20
-8.323030000000001
 30
0.0
 10
18.29076
 20
-8.269
 30
0.0
 10
18.3461
 20
-8.269
 30
0.0
 10
18.3461
 20
-8.269
 30
0.0
 10
18.3461
 20
-8.269
 30
0.0
 10
18.46349
 20
-8.269
 30
0.0
 10
18.46349
 20
-8.269
 30
0.0
 10
18.46349
 20
-8.269
 30
0.0
 10
18.51883
 20
-8.269
 30
0.0
 10
18.56411
 20
-8.32305
 30
0.0
 10
18.56411
 20
-8.38907
 30
0.0
 10
18.56411
 20
-8.38907
 30
0.0
 10
18.56411
 20
-8.38907
 30
0.0
 10
18.56411
 20
-8.90385
 30
0.0
 10
18.56411
 20
-8.90385
 30
0.0
 10
18.56411
 20
-8.90385
 30
0.0
 10
18.56411
 20
-8.96987
 30
0.0
 10
18.51881
 20
-9.02392
 30
0.0
 10
18.46349
 20
-9.02392
 30
0.0
 10
18.46349
 20
-9.02392
 30
0.0
 10
18.46349
 20
-9.02392
 30
0.0
 10
18.3461
 20
-9.02392
 30
0.0
 10
18.3461
 20
-9.02392
 30
0.0
 10
18.3461
 20
-9.02392
 30
0.0
 10
18.29078
 20
-9.02392
 30
0.0
 10
18.24548
 20
-8.969890000000001
 30
0.0
 10
18.24548
 20
-8.90385
 30
0.0
  0
SPLINE
  5
5B
330
1F
100
AcDbEntity
  8
Layer 1
 62
    22
370
     5
100
AcDbSpline
210
0.0
220
0.0
230
1.0
 70
    11
 71
     3
 72
    36
 73
    32
 74
     0
 42
0.0000000001
 43
0.0000000001
 40
0.0
 40
0.0
 40
0.0
 40
0.0
 40
0.125
 40
0.125
 40
0.125
 40
0.125
 40
0.25
 40
0.25
 40
0.25
 40
0.25
 40
0.375
 40
0.375
 40
0.375
 40
0.375
 40
0.5
 40
0.5
 40
0.5
 40
0.5
 40
0.625
 40
0.625
 40
0.625
 40
0.625
 40
0.75
 40
0.75
 40
0.75
 40
0.75
 40
0.875
 40
0.875
 40
0.875
 40
0.875
 40
1.0
 40
1.0
 40
1.0
 40
1.0
 10
21.94476
 20
-8.460510000000001
 30
0.0
 10
21.94476
 20
-8.460510000000001
 30
0.0
 10
22.49766
 20
-8.460510000000001
 30
0.0
 10
22.49766
 20
-8.460510000000001
 30
0.0
 10
22.49766
 20
-8.460510000000001
 30
0.0
 10
22.56769
 20
-8.460510000000001
 30
0.0
 10
22.62498
 20
-8.50581
 30
0.0
 10
22.62498
 20
-8.56113
 30
0.0
 10
22.62498
 20
-8.56113
 30
0.0
 10
22.62498
 20
-8.56113
 30
0.0
 10
22.62498
 20
-8.678520000000001
 30
0.0
 10
22.62498
 20
-8.678520000000001
 30
0.0
 10
22.62498
 20
-8.678520000000001
 30
0.0
 10
22.62498
 20
-8.733840000000001
 30
0.0
 10
22.56767
 20
-8.77914
 30
0.0
 10
22.49766
 20
-8.77914
 30
0.0
 10
22.49766
 20
-8.77914
 30
0.0
 10
22.49766
 20
-8.77914
 30
0.0
 10
21.94476
 20
-8.77914
 30
0.0
 10
21.94476
 20
-8.77914
 30
0.0
 10
21.94476
 20
-8.77914
 30
0.0
 10
21.87475
 20
-8.77914
 30
0.0
 10
21.81744
 20
-8.73386
 30
0.0
 10
21.81744
 20
-8.678520000000001
 30
0.0
 10
21.81744
 20
-8.678520000000001
 30
0.0
 10
21.81744
 20
-8.678520000000001
 30
0.0
 10
21.81744
 20
-8.56113
 30
0.0
 10
21.81744
 20
-8.56113
 30
0.0
 10
21.81744
 20
-8.56113
 30
0.0
 10
21.81744
 20
-8.505790000000001
 30
0.0
 10
21.87473
 20
-8.460510000000001
 30
0.0
 10
21.94476
 20
-8.460510000000001
 30
0.0
  0
SPLINE
  5
5C
330
1F
100
AcDbEntity
  8
Layer 1
 62
    22
370
     5
100
AcDbSpline
210
0.0
220
0.0
230
1.0
 70
    11
 71
     3
 72
    40
 73
    36
 74
     0
 42
0.0000000001
 43
0.0000000001
 40
0.0
 40
0.0
 40
0.0
 40
0.0
 40
0.1111111111111111
 40
0.1111111111111111
 40
0.1111111111111111
 40
0.1111111111111111
 40
0.2222222222222222
 40
0.2222222222222222
 40
0.2222222222222222
 40
0.2222222222222222
 40
0.3333333333333333
 40
0.3333333333333333
 40
0.3333333333333333
 40
0.3333333333333333
 40
0.4444444444444444
 40
0.4444444444444444
 40
0.4444444444444444
 40
0.4444444444444444
 40
0.5555555555555556
 40
0.5555555555555556
 40
0.5555555555555556
 40
0.5555555555555556
 40
0.6666666666666667
 40
0.6666666666666667
 40
0.6666666666666667
 40
0.6666666666666667
 40
0.7777777777777779
 40
0.7777777777777779
 40
0.7777777777777779
 40
0.7777777777777779
 40
0.8888888888888891
 40
0.8888888888888891
 40
0.8888888888888891
 40
0.8888888888888891
 40
1.0
 40
1.0
 40
1.0
 40
1.0
 10
19.81694
 20
-7.977510000000001
 30
0.0
 10
19.81694
 20
-7.977510000000001
 30
0.0
 10
24.55933
 20
-7.977510000000001
 30
0.0
 10
24.55933
 20
-7.977510000000001
 30
0.0
 10
24.55933
 20
-7.977510000000001
 30
0.0
 10
24.65433
 20
-7.977510000000001
 30
0.0
 10
24.75894
 20
-8.09862
 30
0.0
 10
24.75894
 20
-8.178520000000001
 30
0.0
 10
24.75894
 20
-8.178520000000001
 30
0.0
 10
24.75894
 20
-8.178520000000001
 30
0.0
 10
24.75894
 20
-9.188140000000001
 30
0.0
 10
24.75894
 20
-9.188140000000001
 30
0.0
 10
24.75894
 20
-9.188140000000001
 30
0.0
 10
24.75894
 20
-9.286510000000002
 30
0.0
 10
24.65912
 20
-9.388530000000001
 30
0.0
 10
24.5583
 20
-9.388530000000001
 30
0.0
 10
24.5583
 20
-9.388530000000001
 30
0.0
 10
24.5583
 20
-9.388530000000001
 30
0.0
 10
19.82003
 20
-9.388530000000001
 30
0.0
 10
19.82003
 20
-9.388530000000001
 30
0.0
 10
19.82003
 20
-9.388530000000001
 30
0.0
 10
19.71934
 20
-9.388530000000001
 30
0.0
 10
19.6203
 20
-9.288400000000001
 30
0.0
 10
19.6203
 20
-9.189170000000001
 30
0.0
 10
19.6203
 20
-9.189170000000001
 30
0.0
 10
19.6203
 20
-9.189170000000001
 30
0.0
 10
19.6203
 20
-8.174370000000002
 30
0.0
 10
19.6203
 20
-8.174370000000002
 30
0.0
 10
19.6203
 20
-8.174370000000002
 30
0.0
 10
19.6203
 20
-8.174370000000002
 30
0.0
 10
19.6203
 20
-8.124930000000001
 30
0.0
 10
19.6203
 20
-8.124930000000001
 30
0.0
 10
19.6203
 20
-8.124930000000001
 30
0.0
 10
19.6203
 20
-8.035440000000001
 30
0.0
 10
19.72528
 20
-7.977510000000001
 30
0.0
 10
19.81694
 20
-7.977510000000001
 30
0.0
  0
SPLINE
  5
5D
330
1F
100
AcDbEntity
  8
Layer 1
 62
    22
370
     5
100
AcDbSpline
210
0.0
220
0.0
230
1.0
 70
    11
 71
     3
 72
    36
 73
    32
 74
     0
 42
0.0000000001
 43
0.0000000001
 40
0.0
 40
0.0
 40
0.0
 40
0.0
 40
0.125
 40
0.125
 40
0.125
 40
0.125
 40
0.25
 40
0.25
 40
0.25
 40
0.25
 40
0.375
 40
0.375
 40
0.375
 40
0.375
 40
0.5
 40
0.5
 40
0.5
 40
0.5
 40
0.625
 40
0.625
 40
0.625
 40
0.625
 40
0.75
 40
0.75
 40
0.75
 40
0.75
 40
0.875
 40
0.875
 40
0.875
 40
0.875
 40
1.0
 40
1.0
 40
1.0
 40
1.0
 10
20.14543
 20
-8.921010000000001
 30
0.0
 10
20.14543
 20
-8.921010000000001
 30
0.0
 10
20.14543
 20
-8.39987
 30
0.0
 10
20.14543
 20
-8.39987
 30
0.0
 10
20.14543
 20
-8.39987
 30
0.0
 10
20.14543
 20
-8.333020000000001
 30
0.0
 10
20.19071
 20
-8.278320000000001
 30
0.0
 10
20.24605
 20
-8.278320000000001
 30
0.0
 10
20.24605
 20
-8.278320000000001
 30
0.0
 10
20.24605
 20
-8.278320000000001
 30
0.0
 10
20.36344
 20
-8.278320000000001
 30
0.0
 10
20.36344
 20
-8.278320000000001
 30
0.0
 10
20.36344
 20
-8.278320000000001
 30
0.0
 10
20.41878
 20
-8.278320000000001
 30
0.0
 10
20.46406
 20
-8.333030000000001
 30
0.0
 10
20.46406
 20
-8.39987
 30
0.0
 10
20.46406
 20
-8.39987
 30
0.0
 10
20.46406
 20
-8.39987
 30
0.0
 10
20.46406
 20
-8.921010000000001
 30
0.0
 10
20.46406
 20
-8.921010000000001
 30
0.0
 10
20.46406
 20
-8.921010000000001
 30
0.0
 10
20.46406
 20
-8.98785
 30
0.0
 10
20.41876
 20
-9.04256
 30
0.0
 10
20.36344
 20
-9.04256
 30
0.0
 10
20.36344
 20
-9.04256
 30
0.0
 10
20.36344
 20
-9.04256
 30
0.0
 10
20.24605
 20
-9.04256
 30
0.0
 10
20.24605
 20
-9.04256
 30
0.0
 10
20.24605
 20
-9.04256
 30
0.0
 10
20.19073
 20
-9.04256
 30
0.0
 10
20.14543
 20
-8.987860000000001
 30
0.0
 10
20.14543
 20
-8.921010000000001
 30
0.0
  0
SPLINE
  5
5E
330
1F
100
AcDbEntity
  8
Layer 1
 62
    22
370
     5
100
AcDbSpline
210
0.0
220
0.0
230
1.0
 70
    11
 71
     3
 72
    36
 73
    32
 74
     0
 42
0.0000000001
 43
0.0000000001
 40
0.0
 40
0.0
 40
0.0
 40
0.0
 40
0.125
 40
0.125
 40
0.125
 40
0.125
 40
0.25
 40
0.25
 40
0.25
 40
0.25
 40
0.375
 40
0.375
 40
0.375
 40
0.375
 40
0.5
 40
0.5
 40
0.5
 40
0.5
 40
0.625
 40
0.625
 40
0.625
 40
0.625
 40
0.75
 40
0.75
 40
0.75
 40
0.75
 40
0.875
 40
0.875
 40
0.875
 40
0.875
 40
1.0
 40
1.0
 40
1.0
 40
1.0
 10
23.93623
 20
-8.90385
 30
0.0
 10
23.93623
 20
-8.90385
 30
0.0
 10
23.93623
 20
-8.38907
 30
0.0
 10
23.93623
 20
-8.38907
 30
0.0
 10
23.93623
 20
-8.38907
 30
0.0
 10
23.93623
 20
-8.323030000000001
 30
0.0
 10
23.98151
 20
-8.269
 30
0.0
 10
24.03685
 20
-8.269
 30
0.0
 10
24.03685
 20
-8.269
 30
0.0
 10
24.03685
 20
-8.269
 30
0.0
 10
24.15424
 20
-8.269
 30
0.0
 10
24.15424
 20
-8.269
 30
0.0
 10
24.15424
 20
-8.269
 30
0.0
 10
24.20958
 20
-8.269
 30
0.0
 10
24.25486
 20
-8.32305
 30
0.0
 10
24.25486
 20
-8.38907
 30
0.0
 10
24.25486
 20
-8.38907
 30
0.0
 10
24.25486
 20
-8.38907
 30
0.0
 10
24.25486
 20
-8.90385
 30
0.0
 10
24.25486
 20
-8.90385
 30
0.0
 10
24.25486
 20
-8.90385
 30
0.0
 10
24.25486
 20
-8.96987
 30
0.0
 10
24.20956
 20
-9.02392
 30
0.0
 10
24.15424
 20
-9.02392
 30
0.0
 10
24.15424
 20
-9.02392
 30
0.0
 10
24.15424
 20
-9.02392
 30
0.0
 10
24.03685
 20
-9.02392
 30
0.0
 10
24.03685
 20
-9.02392
 30
0.0
 10
24.03685
 20
-9.02392
 30
0.0
 10
23.98153
 20
-9.02392
 30
0.0
 10
23.93623
 20
-8.969890000000001
 30
0.0
 10
23.93623
 20
-8.90385
 30
0.0
  0
SPLINE
  5
5F
330
1F
100
AcDbEntity
  8
Layer 1
 62
    22
370
     5
100
AcDbSpline
210
0.0
220
0.0
230
1.0
 70
    11
 71
     3
 72
    36
 73
    32
 74
     0
 42
0.0000000001
 43
0.0000000001
 40
0.0
 40
0.0
 40
0.0
 40
0.0
 40
0.125
 40
0.125
 40
0.125
 40
0.125
 40
0.25
 40
0.25
 40
0.25
 40
0.25
 40
0.375
 40
0.375
 40
0.375
 40
0.375
 40
0.5
 40
0.5
 40
0.5
 40
0.5
 40
0.625
 40
0.625
 40
0.625
 40
0.625
 40
0.75
 40
0.75
 40
0.75
 40
0.75
 40
0.875
 40
0.875
 40
0.875
 40
0.875
 40
1.0
 40
1.0
 40
1.0
 40
1.0
 10
17.17517
 20
11.165
 30
0.0
 10
17.17517
 20
11.165
 30
0.0
 10
17.17517
 20
10.43839
 30
0.0
 10
17.17517
 20
10.43839
 30
0.0
 10
17.17517
 20
10.43839
 30
0.0
 10
17.17517
 20
10.37358
 30
0.0
 10
17.12989
 20
10.32056
 30
0.0
 10
17.07455
 20
10.32056
 30
0.0
 10
17.07455
 20
10.32056
 30
0.0
 10
17.07455
 20
10.32056
 30
0.0
 10
16.95716
 20
10.32056
 30
0.0
 10
16.95716
 20
10.32056
 30
0.0
 10
16.95716
 20
10.32056
 30
0.0
 10
16.90182
 20
10.32056
 30
0.0
 10
16.85654
 20
10.37358
 30
0.0
 10
16.85654
 20
10.43839
 30
0.0
 10
16.85654
 20
10.43839
 30
0.0
 10
16.85654
 20
10.43839
 30
0.0
 10
16.85654
 20
11.165
 30
0.0
 10
16.85654
 20
11.165
 30
0.0
 10
16.85654
 20
11.165
 30
0.0
 10
16.85654
 20
11.22981
 30
0.0
 10
16.90182
 20
11.28283
 30
0.0
 10
16.95716
 20
11.28283
 30
0.0
 10
16.95716
 20
11.28283
 30
0.0
 10
16.95716
 20
11.28283
 30
0.0
 10
17.07455
 20
11.28283
 30
0.0
 10
17.07455
 20
11.28283
 30
0.0
 10
17.07455
 20
11.28283
 30
0.0
 10
17.12989
 20
11.28283
 30
0.0
 10
17.17517
 20
11.22981
 30
0.0
 10
17.17517
 20
11.165
 30
0.0
  0
SPLINE
  5
60
330
1F
100
AcDbEntity
  8
Layer 1
 62
    22
370
     5
100
AcDbSpline
210
0.0
220
0.0
230
1.0
 70
    11
 71
     3
 72
    36
 73
    32
 74
     0
 42
0.0000000001
 43
0.0000000001
 40
0.0
 40
0.0
 40
0.0
 40
0.0
 40
0.125
 40
0.125
 40
0.125
 40
0.125
 40
0.25
 40
0.25
 40
0.25
 40
0.25
 40
0.375
 40
0.375
 40
0.375
 40
0.375
 40
0.5
 40
0.5
 40
0.5
 40
0.5
 40
0.625
 40
0.625
 40
0.625
 40
0.625
 40
0.75
 40
0.75
 40
0.75
 40
0.75
 40
0.875
 40
0.875
 40
0.875
 40
0.875
 40
1.0
 40
1.0
 40
1.0
 40
1.0
 10
6.453550000000001
 20
11.16233
 30
0.0
 10
6.453550000000001
 20
11.16233
 30
0.0
 10
6.453550000000001
 20
10.4192
 30
0.0
 10
6.453550000000001
 20
10.4192
 30
0.0
 10
6.453550000000001
 20
10.4192
 30
0.0
 10
6.453550000000001
 20
10.35292
 30
0.0
 10
6.408270000000001
 20
10.29869
 30
0.0
 10
6.352930000000001
 20
10.29869
 30
0.0
 10
6.352930000000001
 20
10.29869
 30
0.0
 10
6.352930000000001
 20
10.29869
 30
0.0
 10
6.23554
 20
10.29869
 30
0.0
 10
6.23554
 20
10.29869
 30
0.0
 10
6.23554
 20
10.29869
 30
0.0
 10
6.1802
 20
10.29869
 30
0.0
 10
6.13492
 20
10.35292
 30
0.0
 10
6.13492
 20
10.4192
 30
0.0
 10
6.13492
 20
10.4192
 30
0.0
 10
6.13492
 20
10.4192
 30
0.0
 10
6.13492
 20
11.16233
 30
0.0
 10
6.13492
 20
11.16233
 30
0.0
 10
6.13492
 20
11.16233
 30
0.0
 10
6.13492
 20
11.22861
 30
0.0
 10
6.1802
 20
11.28284
 30
0.0
 10
6.23554
 20
11.28284
 30
0.0
 10
6.23554
 20
11.28284
 30
0.0
 10
6.23554
 20
11.28284
 30
0.0
 10
6.352930000000001
 20
11.28284
 30
0.0
 10
6.352930000000001
 20
11.28284
 30
0.0
 10
6.352930000000001
 20
11.28284
 30
0.0
 10
6.408270000000001
 20
11.28284
 30
0.0
 10
6.453550000000001
 20
11.22861
 30
0.0
 10
6.453550000000001
 20
11.16233
 30
0.0
  0
SPLINE
  5
61
330
1F
100
AcDbEntity
  8
Layer 1
 62
    22
370
     5
100
AcDbSpline
210
0.0
220
0.0
230
1.0
 70
    11
 71
     3
 72
    36
 73
    32
 74
     0
 42
0.0000000001
 43
0.0000000001
 40
0.0
 40
0.0
 40
0.0
 40
0.0
 40
0.125
 40
0.125
 40
0.125
 40
0.125
 40
0.25
 40
0.25
 40
0.25
 40
0.25
 40
0.375
 40
0.375
 40
0.375
 40
0.375
 40
0.5
 40
0.5
 40
0.5
 40
0.5
 40
0.625
 40
0.625
 40
0.625
 40
0.625
 40
0.75
 40
0.75
 40
0.75
 40
0.75
 40
0.875
 40
0.875
 40
0.875
 40
0.875
 40
1.0
 40
1.0
 40
1.0
 40
1.0
 10
16.61665
 20
13.8244
 30
0.0
 10
17.48409
 20
13.83357
 30
0.0
 10
17.63545
 20
13.07359
 30
0.0
 10
17.64974
 20
12.8714
 30
0.0
 10
17.64974
 20
12.8714
 30
0.0
 10
17.50654
 20
11.08793
 30
0.0
 10
17.49867
 20
9.656890000000001
 30
0.0
 10
17.67545
 20
8.559000000000001
 30
0.0
 10
17.67545
 20
8.559000000000001
 30
0.0
 10
17.78164
 20
7.62999
 30
0.0
 10
16.77277
 20
7.786090000000001
 30
0.0
 10
16.70492
 20
7.715850000000001
 30
0.0
 10
16.70492
 20
7.715850000000001
 30
0.0
 10
13.35537
 20
7.43627
 30
0.0
 10
9.928660000000001
 20
7.44024
 30
0.0
 10
6.630500000000001
 20
7.698560000000001
 30
0.0
 10
6.630500000000001
 20
7.698560000000001
 30
0.0
 10
5.719550000000001
 20
7.693620000000001
 30
0.0
 10
5.61793
 20
8.124420000000001
 30
0.0
 10
5.679010000000001
 20
8.71475
 30
0.0
 10
5.679010000000001
 20
8.71475
 30
0.0
 10
5.83844
 20
9.955290000000002
 30
0.0
 10
5.828600000000001
 20
11.3656
 30
0.0
 10
5.713740000000001
 20
12.8118
 30
0.0
 10
5.713740000000001
 20
12.8118
 30
0.0
 10
5.70101
 20
12.86639
 30
0.0
 10
5.770770000000001
 20
13.79705
 30
0.0
 10
6.734640000000001
 20
13.80726
 30
0.0
 10
6.734640000000001
 20
13.80726
 30
0.0
 10
10.00831
 20
13.51292
 30
0.0
 10
13.33365
 20
13.51739
 30
0.0
 10
16.61665
 20
13.8244
 30
0.0
  0
SPLINE
  5
62
330
1F
100
AcDbEntity
  8
Layer 1
 62
    22
370
     5
100
AcDbSpline
210
0.0
220
0.0
230
1.0
 70
    11
 71
     3
 72
    84
 73
    80
 74
     0
 42
0.0000000001
 43
0.0000000001
 40
0.0
 40
0.0
 40
0.0
 40
0.0
 40
0.05
 40
0.05
 40
0.05
 40
0.05
 40
0.1
 40
0.1
 40
0.1
 40
0.1
 40
0.15
 40
0.15
 40
0.15
 40
0.15
 40
0.2
 40
0.2
 40
0.2
 40
0.2
 40
0.25
 40
0.25
 40
0.25
 40
0.25
 40
0.3
 40
0.3
 40
0.3
 40
0.3
 40
0.35
 40
0.35
 40
0.35
 40
0.35
 40
0.4
 40
0.4
 40
0.4
 40
0.4
 40
0.45
 40
0.45
 40
0.45
 40
0.45
 40
0.4999999999999999
 40
0.4999999999999999
 40
0.4999999999999999
 40
0.4999999999999999
 40
0.5499999999999999
 40
0.5499999999999999
 40
0.5499999999999999
 40
0.5499999999999999
 40
0.6
 40
0.6
 40
0.6
 40
0.6
 40
0.65
 40
0.65
 40
0.65
 40
0.65
 40
0.7000000000000001
 40
0.7000000000000001
 40
0.7000000000000001
 40
0.7000000000000001
 40
0.7500000000000001
 40
0.7500000000000001
 40
0.7500000000000001
 40
0.7500000000000001
 40
0.8000000000000002
 40
0.8000000000000002
 40
0.8000000000000002
 40
0.8000000000000002
 40
0.8500000000000002
 40
0.8500000000000002
 40
0.8500000000000002
 40
0.8500000000000002
 40
0.9000000000000002
 40
0.9000000000000002
 40
0.9000000000000002
 40
0.9000000000000002
 40
0.9500000000000003
 40
0.9500000000000003
 40
0.9500000000000003
 40
0.9500000000000003
 40
1.0
 40
1.0
 40
1.0
 40
1.0
 10
7.167230000000001
 20
1.15196
 30
0.0
 10
7.167230000000001
 20
1.15196
 30
0.0
 10
7.16579
 20
-0.05194
 30
0.0
 10
7.16579
 20
-0.05194
 30
0.0
 10
7.16579
 20
-0.05194
 30
0.0
 10
7.155030000000001
 20
-0.13976
 30
0.0
 10
7.235320000000001
 20
-0.2085
 30
0.0
 10
7.377790000000001
 20
-0.2009
 30
0.0
 10
7.377790000000001
 20
-0.2009
 30
0.0
 10
7.377790000000001
 20
-0.2009
 30
0.0
 10
17.39443
 20
-0.202
 30
0.0
 10
17.39443
 20
-0.202
 30
0.0
 10
17.39443
 20
-0.202
 30
0.0
 10
17.53192
 20
-0.21784
 30
0.0
 10
17.59304
 20
-0.1573
 30
0.0
 10
17.57779
 20
-0.02042
 30
0.0
 10
17.57779
 20
-0.02042
 30
0.0
 10
17.57779
 20
-0.02042
 30
0.0
 10
17.57491
 20
1.16149
 30
0.0
 10
17.57491
 20
1.16149
 30
0.0
 10
17.57491
 20
1.16149
 30
0.0
 10
17.631
 20
1.16173
 30
0.0
 10
17.68709
 20
1.1596
 30
0.0
 10
17.74318
 20
1.15985
 30
0.0
 10
17.74318
 20
1.15985
 30
0.0
 10
17.87851
 20
1.16069
 30
0.0
 10
17.90591
 20
1.19946
 30
0.0
 10
17.90485
 20
1.34283
 30
0.0
 10
17.90485
 20
1.34283
 30
0.0
 10
17.90394
 20
1.51849
 30
0.0
 10
17.90303
 20
1.78919
 30
0.0
 10
17.90212
 20
1.96486
 30
0.0
 10
17.90212
 20
1.96486
 30
0.0
 10
17.89753
 20
2.10893
 30
0.0
 10
17.879
 20
2.16488
 30
0.0
 10
17.73621
 20
2.16837
 30
0.0
 10
17.73621
 20
2.16837
 30
0.0
 10
17.73621
 20
2.16837
 30
0.0
 10
17.57779
 20
2.16837
 30
0.0
 10
17.57779
 20
2.16837
 30
0.0
 10
17.57779
 20
2.16837
 30
0.0
 10
17.57779
 20
2.16837
 30
0.0
 10
17.57491
 20
3.34854
 30
0.0
 10
17.57491
 20
3.34854
 30
0.0
 10
17.57491
 20
3.34854
 30
0.0
 10
17.60067
 20
3.465980000000001
 30
0.0
 10
17.54051
 20
3.52614
 30
0.0
 10
17.39443
 20
3.529020000000001
 30
0.0
 10
17.39443
 20
3.529020000000001
 30
0.0
 10
17.39443
 20
3.529020000000001
 30
0.0
 10
7.38351
 20
3.52042
 30
0.0
 10
7.38351
 20
3.52042
 30
0.0
 10
7.38351
 20
3.52042
 30
0.0
 10
7.234540000000001
 20
3.521830000000001
 30
0.0
 10
7.161980000000001
 20
3.44687
 30
0.0
 10
7.16579
 20
3.29554
 30
0.0
 10
7.16579
 20
3.29554
 30
0.0
 10
7.16579
 20
3.29554
 30
0.0
 10
7.164350000000001
 20
2.17487
 30
0.0
 10
7.164350000000001
 20
2.17487
 30
0.0
 10
7.164350000000001
 20
2.17487
 30
0.0
 10
7.109240000000001
 20
2.17462
 30
0.0
 10
7.05412
 20
2.17438
 30
0.0
 10
6.999000000000001
 20
2.17414
 30
0.0
 10
6.999000000000001
 20
2.17414
 30
0.0
 10
6.853700000000001
 20
2.17528
 30
0.0
 10
6.840490000000001
 20
2.14006
 30
0.0
 10
6.83635
 20
1.97501
 30
0.0
 10
6.83635
 20
1.97501
 30
0.0
 10
6.83635
 20
1.79906
 30
0.0
 10
6.83635
 20
1.50404
 30
0.0
 10
6.83635
 20
1.32809
 30
0.0
 10
6.83635
 20
1.32809
 30
0.0
 10
6.83635
 20
1.19363
 30
0.0
 10
6.857660000000001
 20
1.14989
 30
0.0
 10
7.00729
 20
1.15196
 30
0.0
 10
7.00729
 20
1.15196
 30
0.0
 10
7.00729
 20
1.15196
 30
0.0
 10
7.167230000000001
 20
1.15196
 30
0.0
 10
7.167230000000001
 20
1.15196
 30
0.0
  0
SPLINE
  5
63
330
1F
100
AcDbEntity
  8
Layer 1
 62
    22
370
     5
100
AcDbSpline
210
0.0
220
0.0
230
1.0
 70
    11
 71
     3
 72
    36
 73
    32
 74
     0
 42
0.0000000001
 43
0.0000000001
 40
0.0
 40
0.0
 40
0.0
 40
0.0
 40
0.125
 40
0.125
 40
0.125
 40
0.125
 40
0.25
 40
0.25
 40
0.25
 40
0.25
 40
0.375
 40
0.375
 40
0.375
 40
0.375
 40
0.5
 40
0.5
 40
0.5
 40
0.5
 40
0.625
 40
0.625
 40
0.625
 40
0.625
 40
0.75
 40
0.75
 40
0.75
 40
0.75
 40
0.875
 40
0.875
 40
0.875
 40
0.875
 40
1.0
 40
1.0
 40
1.0
 40
1.0
 10
12.23823
 20
1.28402
 30
0.0
 10
12.23823
 20
1.28402
 30
0.0
 10
12.23823
 20
2.03699
 30
0.0
 10
12.23823
 20
2.03699
 30
0.0
 10
12.23823
 20
2.03699
 30
0.0
 10
12.23823
 20
2.10702
 30
0.0
 10
12.28351
 20
2.16431
 30
0.0
 10
12.33885
 20
2.16431
 30
0.0
 10
12.33885
 20
2.16431
 30
0.0
 10
12.33885
 20
2.16431
 30
0.0
 10
12.45624
 20
2.16431
 30
0.0
 10
12.45624
 20
2.16431
 30
0.0
 10
12.45624
 20
2.16431
 30
0.0
 10
12.51158
 20
2.16431
 30
0.0
 10
12.55686
 20
2.10699
 30
0.0
 10
12.55686
 20
2.03699
 30
0.0
 10
12.55686
 20
2.03699
 30
0.0
 10
12.55686
 20
2.03699
 30
0.0
 10
12.55686
 20
1.28402
 30
0.0
 10
12.55686
 20
1.28402
 30
0.0
 10
12.55686
 20
1.28402
 30
0.0
 10
12.55686
 20
1.21402
 30
0.0
 10
12.51155
 20
1.1567
 30
0.0
 10
12.45624
 20
1.1567
 30
0.0
 10
12.45624
 20
1.1567
 30
0.0
 10
12.45624
 20
1.1567
 30
0.0
 10
12.33885
 20
1.1567
 30
0.0
 10
12.33885
 20
1.1567
 30
0.0
 10
12.33885
 20
1.1567
 30
0.0
 10
12.28354
 20
1.1567
 30
0.0
 10
12.23823
 20
1.21399
 30
0.0
 10
12.23823
 20
1.28402
 30
0.0
  0
SPLINE
  5
64
330
1F
100
AcDbEntity
  8
Layer 1
 62
    22
370
     5
100
AcDbSpline
210
0.0
220
0.0
230
1.0
 70
    11
 71
     3
 72
    36
 73
    32
 74
     0
 42
0.0000000001
 43
0.0000000001
 40
0.0
 40
0.0
 40
0.0
 40
0.0
 40
0.125
 40
0.125
 40
0.125
 40
0.125
 40
0.25
 40
0.25
 40
0.25
 40
0.25
 40
0.375
 40
0.375
 40
0.375
 40
0.375
 40
0.5
 40
0.5
 40
0.5
 40
0.5
 40
0.625
 40
0.625
 40
0.625
 40
0.625
 40
0.75
 40
0.75
 40
0.75
 40
0.75
 40
0.875
 40
0.875
 40
0.875
 40
0.875
 40
1.0
 40
1.0
 40
1.0
 40
1.0
 10
14.23371
 20
-2.64009
 30
0.0
 10
14.23371
 20
-2.64009
 30
0.0
 10
17.48091
 20
-2.64009
 30
0.0
 10
17.48091
 20
-2.64009
 30
0.0
 10
17.48091
 20
-2.64009
 30
0.0
 10
17.61621
 20
-2.64009
 30
0.0
 10
17.72691
 20
-2.75079
 30
0.0
 10
17.72691
 20
-2.88609
 30
0.0
 10
17.72691
 20
-2.88609
 30
0.0
 10
17.72691
 20
-2.88609
 30
0.0
 10
17.72691
 20
-7.461690000000001
 30
0.0
 10
17.72691
 20
-7.461690000000001
 30
0.0
 10
17.72691
 20
-7.461690000000001
 30
0.0
 10
17.72691
 20
-7.596990000000001
 30
0.0
 10
17.61621
 20
-7.70769
 30
0.0
 10
17.48091
 20
-7.70769
 30
0.0
 10
17.48091
 20
-7.70769
 30
0.0
 10
17.48091
 20
-7.70769
 30
0.0
 10
14.23371
 20
-7.70769
 30
0.0
 10
14.23371
 20
-7.70769
 30
0.0
 10
14.23371
 20
-7.70769
 30
0.0
 10
14.09841
 20
-7.70769
 30
0.0
 10
13.98771
 20
-7.596990000000001
 30
0.0
 10
13.98771
 20
-7.461690000000001
 30
0.0
 10
13.98771
 20
-7.461690000000001
 30
0.0
 10
13.98771
 20
-7.461690000000001
 30
0.0
 10
13.98771
 20
-2.88609
 30
0.0
 10
13.98771
 20
-2.88609
 30
0.0
 10
13.98771
 20
-2.88609
 30
0.0
 10
13.98771
 20
-2.75079
 30
0.0
 10
14.09841
 20
-2.64009
 30
0.0
 10
14.23371
 20
-2.64009
 30
0.0
  0
SPLINE
  5
65
330
1F
100
AcDbEntity
  8
Layer 1
 62
    22
370
     5
100
AcDbSpline
210
0.0
220
0.0
230
1.0
 70
    11
 71
     3
 72
    36
 73
    32
 74
     0
 42
0.0000000001
 43
0.0000000001
 40
0.0
 40
0.0
 40
0.0
 40
0.0
 40
0.125
 40
0.125
 40
0.125
 40
0.125
 40
0.25
 40
0.25
 40
0.25
 40
0.25
 40
0.375
 40
0.375
 40
0.375
 40
0.375
 40
0.5
 40
0.5
 40
0.5
 40
0.5
 40
0.625
 40
0.625
 40
0.625
 40
0.625
 40
0.75
 40
0.75
 40
0.75
 40
0.75
 40
0.875
 40
0.875
 40
0.875
 40
0.875
 40
1.0
 40
1.0
 40
1.0
 40
1.0
 10
15.05024
 20
-6.895960000000001
 30
0.0
 10
15.05024
 20
-6.895960000000001
 30
0.0
 10
15.81054
 20
-6.895960000000001
 30
0.0
 10
15.81054
 20
-6.895960000000001
 30
0.0
 10
15.81054
 20
-6.895960000000001
 30
0.0
 10
15.87835
 20
-6.895960000000001
 30
0.0
 10
15.93383
 20
-6.941240000000001
 30
0.0
 10
15.93383
 20
-6.996580000000001
 30
0.0
 10
15.93383
 20
-6.996580000000001
 30
0.0
 10
15.93383
 20
-6.996580000000001
 30
0.0
 10
15.93383
 20
-7.113970000000001
 30
0.0
 10
15.93383
 20
-7.113970000000001
 30
0.0
 10
15.93383
 20
-7.113970000000001
 30
0.0
 10
15.93383
 20
-7.16931
 30
0.0
 10
15.87835
 20
-7.21459
 30
0.0
 10
15.81054
 20
-7.21459
 30
0.0
 10
15.81054
 20
-7.21459
 30
0.0
 10
15.81054
 20
-7.21459
 30
0.0
 10
15.05024
 20
-7.21459
 30
0.0
 10
15.05024
 20
-7.21459
 30
0.0
 10
15.05024
 20
-7.21459
 30
0.0
 10
14.98243
 20
-7.21459
 30
0.0
 10
14.92695
 20
-7.16931
 30
0.0
 10
14.92695
 20
-7.113970000000001
 30
0.0
 10
14.92695
 20
-7.113970000000001
 30
0.0
 10
14.92695
 20
-7.113970000000001
 30
0.0
 10
14.92695
 20
-6.996580000000001
 30
0.0
 10
14.92695
 20
-6.996580000000001
 30
0.0
 10
14.92695
 20
-6.996580000000001
 30
0.0
 10
14.92695
 20
-6.941240000000001
 30
0.0
 10
14.98243
 20
-6.895960000000001
 30
0.0
 10
15.05024
 20
-6.895960000000001
 30
0.0
  0
SPLINE
  5
66
330
1F
100
AcDbEntity
  8
Layer 1
 62
    22
370
     5
100
AcDbSpline
210
0.0
220
0.0
230
1.0
 70
    11
 71
     3
 72
    36
 73
    32
 74
     0
 42
0.0000000001
 43
0.0000000001
 40
0.0
 40
0.0
 40
0.0
 40
0.0
 40
0.125
 40
0.125
 40
0.125
 40
0.125
 40
0.25
 40
0.25
 40
0.25
 40
0.25
 40
0.375
 40
0.375
 40
0.375
 40
0.375
 40
0.5
 40
0.5
 40
0.5
 40
0.5
 40
0.625
 40
0.625
 40
0.625
 40
0.625
 40
0.75
 40
0.75
 40
0.75
 40
0.75
 40
0.875
 40
0.875
 40
0.875
 40
0.875
 40
1.0
 40
1.0
 40
1.0
 40
1.0
 10
15.07939
 20
-3.13216
 30
0.0
 10
15.07939
 20
-3.13216
 30
0.0
 10
15.83595
 20
-3.13216
 30
0.0
 10
15.83595
 20
-3.13216
 30
0.0
 10
15.83595
 20
-3.13216
 30
0.0
 10
15.90342
 20
-3.13216
 30
0.0
 10
15.95863
 20
-3.17744
 30
0.0
 10
15.95863
 20
-3.23278
 30
0.0
 10
15.95863
 20
-3.23278
 30
0.0
 10
15.95863
 20
-3.23278
 30
0.0
 10
15.95863
 20
-3.35017
 30
0.0
 10
15.95863
 20
-3.35017
 30
0.0
 10
15.95863
 20
-3.35017
 30
0.0
 10
15.95863
 20
-3.405510000000001
 30
0.0
 10
15.90342
 20
-3.450790000000001
 30
0.0
 10
15.83595
 20
-3.450790000000001
 30
0.0
 10
15.83595
 20
-3.450790000000001
 30
0.0
 10
15.83595
 20
-3.450790000000001
 30
0.0
 10
15.07939
 20
-3.450790000000001
 30
0.0
 10
15.07939
 20
-3.450790000000001
 30
0.0
 10
15.07939
 20
-3.450790000000001
 30
0.0
 10
15.01192
 20
-3.450790000000001
 30
0.0
 10
14.95671
 20
-3.405510000000001
 30
0.0
 10
14.95671
 20
-3.35017
 30
0.0
 10
14.95671
 20
-3.35017
 30
0.0
 10
14.95671
 20
-3.35017
 30
0.0
 10
14.95671
 20
-3.23278
 30
0.0
 10
14.95671
 20
-3.23278
 30
0.0
 10
14.95671
 20
-3.23278
 30
0.0
 10
14.95671
 20
-3.17744
 30
0.0
 10
15.01192
 20
-3.13216
 30
0.0
 10
15.07939
 20
-3.13216
 30
0.0
  0
SPLINE
  5
67
330
1F
100
AcDbEntity
  8
Layer 1
 62
    22
370
     5
100
AcDbSpline
210
0.0
220
0.0
230
1.0
 70
    11
 71
     3
 72
    36
 73
    32
 74
     0
 42
0.0000000001
 43
0.0000000001
 40
0.0
 40
0.0
 40
0.0
 40
0.0
 40
0.125
 40
0.125
 40
0.125
 40
0.125
 40
0.25
 40
0.25
 40
0.25
 40
0.25
 40
0.375
 40
0.375
 40
0.375
 40
0.375
 40
0.5
 40
0.5
 40
0.5
 40
0.5
 40
0.625
 40
0.625
 40
0.625
 40
0.625
 40
0.75
 40
0.75
 40
0.75
 40
0.75
 40
0.875
 40
0.875
 40
0.875
 40
0.875
 40
1.0
 40
1.0
 40
1.0
 40
1.0
 10
19.92446
 20
-2.64009
 30
0.0
 10
19.92446
 20
-2.64009
 30
0.0
 10
23.17166
 20
-2.64009
 30
0.0
 10
23.17166
 20
-2.64009
 30
0.0
 10
23.17166
 20
-2.64009
 30
0.0
 10
23.30696
 20
-2.64009
 30
0.0
 10
23.41766
 20
-2.75079
 30
0.0
 10
23.41766
 20
-2.88609
 30
0.0
 10
23.41766
 20
-2.88609
 30
0.0
 10
23.41766
 20
-2.88609
 30
0.0
 10
23.41766
 20
-7.461690000000001
 30
0.0
 10
23.41766
 20
-7.461690000000001
 30
0.0
 10
23.41766
 20
-7.461690000000001
 30
0.0
 10
23.41766
 20
-7.596990000000001
 30
0.0
 10
23.30696
 20
-7.70769
 30
0.0
 10
23.17166
 20
-7.70769
 30
0.0
 10
23.17166
 20
-7.70769
 30
0.0
 10
23.17166
 20
-7.70769
 30
0.0
 10
19.92446
 20
-7.70769
 30
0.0
 10
19.92446
 20
-7.70769
 30
0.0
 10
19.92446
 20
-7.70769
 30
0.0
 10
19.78916
 20
-7.70769
 30
0.0
 10
19.67846
 20
-7.596990000000001
 30
0.0
 10
19.67846
 20
-7.461690000000001
 30
0.0
 10
19.67846
 20
-7.461690000000001
 30
0.0
 10
19.67846
 20
-7.461690000000001
 30
0.0
 10
19.67846
 20
-2.88609
 30
0.0
 10
19.67846
 20
-2.88609
 30
0.0
 10
19.67846
 20
-2.88609
 30
0.0
 10
19.67846
 20
-2.75079
 30
0.0
 10
19.78916
 20
-2.64009
 30
0.0
 10
19.92446
 20
-2.64009
 30
0.0
  0
SPLINE
  5
68
330
1F
100
AcDbEntity
  8
Layer 1
 62
    22
370
     5
100
AcDbSpline
210
0.0
220
0.0
230
1.0
 70
    11
 71
     3
 72
    36
 73
    32
 74
     0
 42
0.0000000001
 43
0.0000000001
 40
0.0
 40
0.0
 40
0.0
 40
0.0
 40
0.125
 40
0.125
 40
0.125
 40
0.125
 40
0.25
 40
0.25
 40
0.25
 40
0.25
 40
0.375
 40
0.375
 40
0.375
 40
0.375
 40
0.5
 40
0.5
 40
0.5
 40
0.5
 40
0.625
 40
0.625
 40
0.625
 40
0.625
 40
0.75
 40
0.75
 40
0.75
 40
0.75
 40
0.875
 40
0.875
 40
0.875
 40
0.875
 40
1.0
 40
1.0
 40
1.0
 40
1.0
 10
20.74099
 20
-6.895960000000001
 30
0.0
 10
20.74099
 20
-6.895960000000001
 30
0.0
 10
21.50129
 20
-6.895960000000001
 30
0.0
 10
21.50129
 20
-6.895960000000001
 30
0.0
 10
21.50129
 20
-6.895960000000001
 30
0.0
 10
21.5691
 20
-6.895960000000001
 30
0.0
 10
21.62458
 20
-6.941240000000001
 30
0.0
 10
21.62458
 20
-6.996580000000001
 30
0.0
 10
21.62458
 20
-6.996580000000001
 30
0.0
 10
21.62458
 20
-6.996580000000001
 30
0.0
 10
21.62458
 20
-7.113970000000001
 30
0.0
 10
21.62458
 20
-7.113970000000001
 30
0.0
 10
21.62458
 20
-7.113970000000001
 30
0.0
 10
21.62458
 20
-7.16931
 30
0.0
 10
21.5691
 20
-7.21459
 30
0.0
 10
21.50129
 20
-7.21459
 30
0.0
 10
21.50129
 20
-7.21459
 30
0.0
 10
21.50129
 20
-7.21459
 30
0.0
 10
20.74099
 20
-7.21459
 30
0.0
 10
20.74099
 20
-7.21459
 30
0.0
 10
20.74099
 20
-7.21459
 30
0.0
 10
20.67318
 20
-7.21459
 30
0.0
 10
20.6177
 20
-7.16931
 30
0.0
 10
20.6177
 20
-7.113970000000001
 30
0.0
 10
20.6177
 20
-7.113970000000001
 30
0.0
 10
20.6177
 20
-7.113970000000001
 30
0.0
 10
20.6177
 20
-6.996580000000001
 30
0.0
 10
20.6177
 20
-6.996580000000001
 30
0.0
 10
20.6177
 20
-6.996580000000001
 30
0.0
 10
20.6177
 20
-6.941240000000001
 30
0.0
 10
20.67318
 20
-6.895960000000001
 30
0.0
 10
20.74099
 20
-6.895960000000001
 30
0.0
  0
SPLINE
  5
69
330
1F
100
AcDbEntity
  8
Layer 1
 62
    22
370
     5
100
AcDbSpline
210
0.0
220
0.0
230
1.0
 70
    11
 71
     3
 72
    36
 73
    32
 74
     0
 42
0.0000000001
 43
0.0000000001
 40
0.0
 40
0.0
 40
0.0
 40
0.0
 40
0.125
 40
0.125
 40
0.125
 40
0.125
 40
0.25
 40
0.25
 40
0.25
 40
0.25
 40
0.375
 40
0.375
 40
0.375
 40
0.375
 40
0.5
 40
0.5
 40
0.5
 40
0.5
 40
0.625
 40
0.625
 40
0.625
 40
0.625
 40
0.75
 40
0.75
 40
0.75
 40
0.75
 40
0.875
 40
0.875
 40
0.875
 40
0.875
 40
1.0
 40
1.0
 40
1.0
 40
1.0
 10
20.77014
 20
-3.13216
 30
0.0
 10
20.77014
 20
-3.13216
 30
0.0
 10
21.5267
 20
-3.13216
 30
0.0
 10
21.5267
 20
-3.13216
 30
0.0
 10
21.5267
 20
-3.13216
 30
0.0
 10
21.59417
 20
-3.13216
 30
0.0
 10
21.64938
 20
-3.17744
 30
0.0
 10
21.64938
 20
-3.23278
 30
0.0
 10
21.64938
 20
-3.23278
 30
0.0
 10
21.64938
 20
-3.23278
 30
0.0
 10
21.64938
 20
-3.35017
 30
0.0
 10
21.64938
 20
-3.35017
 30
0.0
 10
21.64938
 20
-3.35017
 30
0.0
 10
21.64938
 20
-3.405510000000001
 30
0.0
 10
21.59417
 20
-3.450790000000001
 30
0.0
 10
21.5267
 20
-3.450790000000001
 30
0.0
 10
21.5267
 20
-3.450790000000001
 30
0.0
 10
21.5267
 20
-3.450790000000001
 30
0.0
 10
20.77014
 20
-3.450790000000001
 30
0.0
 10
20.77014
 20
-3.450790000000001
 30
0.0
 10
20.77014
 20
-3.450790000000001
 30
0.0
 10
20.70267
 20
-3.450790000000001
 30
0.0
 10
20.64746
 20
-3.405510000000001
 30
0.0
 10
20.64746
 20
-3.35017
 30
0.0
 10
20.64746
 20
-3.35017
 30
0.0
 10
20.64746
 20
-3.35017
 30
0.0
 10
20.64746
 20
-3.23278
 30
0.0
 10
20.64746
 20
-3.23278
 30
0.0
 10
20.64746
 20
-3.23278
 30
0.0
 10
20.64746
 20
-3.17744
 30
0.0
 10
20.70267
 20
-3.13216
 30
0.0
 10
20.77014
 20
-3.13216
 30
0.0
  0
SPLINE
  5
6A
330
1F
100
AcDbEntity
  8
Layer 1
 62
    22
370
     5
100
AcDbSpline
210
0.0
220
0.0
230
1.0
 70
    11
 71
     3
 72
    68
 73
    64
 74
     0
 42
0.0000000001
 43
0.0000000001
 40
0.0
 40
0.0
 40
0.0
 40
0.0
 40
0.0625
 40
0.0625
 40
0.0625
 40
0.0625
 40
0.125
 40
0.125
 40
0.125
 40
0.125
 40
0.1875
 40
0.1875
 40
0.1875
 40
0.1875
 40
0.25
 40
0.25
 40
0.25
 40
0.25
 40
0.3125
 40
0.3125
 40
0.3125
 40
0.3125
 40
0.375
 40
0.375
 40
0.375
 40
0.375
 40
0.4375
 40
0.4375
 40
0.4375
 40
0.4375
 40
0.5
 40
0.5
 40
0.5
 40
0.5
 40
0.5625
 40
0.5625
 40
0.5625
 40
0.5625
 40
0.625
 40
0.625
 40
0.625
 40
0.625
 40
0.6875
 40
0.6875
 40
0.6875
 40
0.6875
 40
0.75
 40
0.75
 40
0.75
 40
0.75
 40
0.8125
 40
0.8125
 40
0.8125
 40
0.8125
 40
0.875
 40
0.875
 40
0.875
 40
0.875
 40
0.9375
 40
0.9375
 40
0.9375
 40
0.9375
 40
1.0
 40
1.0
 40
1.0
 40
1.0
 10
17.99883
 20
-3.16455
 30
0.0
 10
17.99883
 20
-3.16455
 30
0.0
 10
17.99868
 20
-2.73283
 30
0.0
 10
17.99868
 20
-2.73283
 30
0.0
 10
17.99868
 20
-2.73283
 30
0.0
 10
17.99199
 20
-2.58789
 30
0.0
 10
18.02034
 20
-2.57569
 30
0.0
 10
18.16424
 20
-2.57569
 30
0.0
 10
18.16424
 20
-2.57569
 30
0.0
 10
18.16424
 20
-2.57569
 30
0.0
 10
18.86015
 20
-2.57569
 30
0.0
 10
18.86015
 20
-2.57569
 30
0.0
 10
18.86015
 20
-2.57569
 30
0.0
 10
19.01778
 20
-2.56906
 30
0.0
 10
19.10403
 20
-2.59301
 30
0.0
 10
19.16479
 20
-2.78525
 30
0.0
 10
19.16479
 20
-2.78525
 30
0.0
 10
19.16479
 20
-2.78525
 30
0.0
 10
19.17437
 20
-7.427810000000001
 30
0.0
 10
19.17437
 20
-7.427810000000001
 30
0.0
 10
19.17437
 20
-7.427810000000001
 30
0.0
 10
19.14459
 20
-7.56432
 30
0.0
 10
19.04911
 20
-7.6351
 30
0.0
 10
18.88365
 20
-7.651850000000001
 30
0.0
 10
18.88365
 20
-7.651850000000001
 30
0.0
 10
18.88365
 20
-7.651850000000001
 30
0.0
 10
18.17748
 20
-7.653150000000001
 30
0.0
 10
18.17748
 20
-7.653150000000001
 30
0.0
 10
18.17748
 20
-7.653150000000001
 30
0.0
 10
18.02995
 20
-7.653530000000001
 30
0.0
 10
17.99518
 20
-7.63025
 30
0.0
 10
17.99848
 20
-7.479350000000001
 30
0.0
 10
17.99848
 20
-7.479350000000001
 30
0.0
 10
17.99848
 20
-7.479350000000001
 30
0.0
 10
17.99849
 20
-7.05161
 30
0.0
 10
17.99849
 20
-7.05161
 30
0.0
 10
17.99849
 20
-7.05161
 30
0.0
 10
17.99849
 20
-7.05161
 30
0.0
 10
18.50879
 20
-7.050790000000001
 30
0.0
 10
18.50879
 20
-7.050790000000001
 30
0.0
 10
18.50879
 20
-7.050790000000001
 30
0.0
 10
18.75614
 20
-7.05039
 30
0.0
 10
18.7588
 20
-6.80107
 30
0.0
 10
18.51399
 20
-6.80107
 30
0.0
 10
18.51399
 20
-6.80107
 30
0.0
 10
18.51399
 20
-6.80107
 30
0.0
 10
17.99849
 20
-6.80107
 30
0.0
 10
17.99849
 20
-6.80107
 30
0.0
 10
17.99849
 20
-6.80107
 30
0.0
 10
17.99849
 20
-6.80107
 30
0.0
 10
17.99843
 20
-3.42432
 30
0.0
 10
17.99843
 20
-3.42432
 30
0.0
 10
17.99843
 20
-3.42432
 30
0.0
 10
17.99843
 20
-3.42432
 30
0.0
 10
18.51511
 20
-3.42432
 30
0.0
 10
18.51511
 20
-3.42432
 30
0.0
 10
18.51511
 20
-3.42432
 30
0.0
 10
18.75409
 20
-3.42432
 30
0.0
 10
18.7575
 20
-3.16345
 30
0.0
 10
18.51627
 20
-3.16379
 30
0.0
 10
18.51627
 20
-3.16379
 30
0.0
 10
18.51627
 20
-3.16379
 30
0.0
 10
17.99883
 20
-3.16455
 30
0.0
 10
17.99883
 20
-3.16455
 30
0.0
  0
SPLINE
  5
6B
330
1F
100
AcDbEntity
  8
Layer 1
 62
    22
370
     5
100
AcDbSpline
210
0.0
220
0.0
230
1.0
 70
    11
 71
     3
 72
    68
 73
    64
 74
     0
 42
0.0000000001
 43
0.0000000001
 40
0.0
 40
0.0
 40
0.0
 40
0.0
 40
0.0625
 40
0.0625
 40
0.0625
 40
0.0625
 40
0.125
 40
0.125
 40
0.125
 40
0.125
 40
0.1875
 40
0.1875
 40
0.1875
 40
0.1875
 40
0.25
 40
0.25
 40
0.25
 40
0.25
 40
0.3125
 40
0.3125
 40
0.3125
 40
0.3125
 40
0.375
 40
0.375
 40
0.375
 40
0.375
 40
0.4375
 40
0.4375
 40
0.4375
 40
0.4375
 40
0.5
 40
0.5
 40
0.5
 40
0.5
 40
0.5625
 40
0.5625
 40
0.5625
 40
0.5625
 40
0.625
 40
0.625
 40
0.625
 40
0.625
 40
0.6875
 40
0.6875
 40
0.6875
 40
0.6875
 40
0.75
 40
0.75
 40
0.75
 40
0.75
 40
0.8125
 40
0.8125
 40
0.8125
 40
0.8125
 40
0.875
 40
0.875
 40
0.875
 40
0.875
 40
0.9375
 40
0.9375
 40
0.9375
 40
0.9375
 40
1.0
 40
1.0
 40
1.0
 40
1.0
 10
23.68958
 20
-3.16455
 30
0.0
 10
23.68958
 20
-3.16455
 30
0.0
 10
23.68943
 20
-2.73283
 30
0.0
 10
23.68943
 20
-2.73283
 30
0.0
 10
23.68943
 20
-2.73283
 30
0.0
 10
23.68274
 20
-2.58789
 30
0.0
 10
23.71109
 20
-2.57569
 30
0.0
 10
23.85499
 20
-2.57569
 30
0.0
 10
23.85499
 20
-2.57569
 30
0.0
 10
23.85499
 20
-2.57569
 30
0.0
 10
24.5509
 20
-2.57569
 30
0.0
 10
24.5509
 20
-2.57569
 30
0.0
 10
24.5509
 20
-2.57569
 30
0.0
 10
24.70853
 20
-2.56906
 30
0.0
 10
24.79478
 20
-2.59301
 30
0.0
 10
24.85554
 20
-2.78525
 30
0.0
 10
24.85554
 20
-2.78525
 30
0.0
 10
24.85554
 20
-2.78525
 30
0.0
 10
24.86512
 20
-7.427810000000001
 30
0.0
 10
24.86512
 20
-7.427810000000001
 30
0.0
 10
24.86512
 20
-7.427810000000001
 30
0.0
 10
24.83534
 20
-7.56432
 30
0.0
 10
24.73986
 20
-7.6351
 30
0.0
 10
24.5744
 20
-7.651850000000001
 30
0.0
 10
24.5744
 20
-7.651850000000001
 30
0.0
 10
24.5744
 20
-7.651850000000001
 30
0.0
 10
23.86823
 20
-7.653150000000001
 30
0.0
 10
23.86823
 20
-7.653150000000001
 30
0.0
 10
23.86823
 20
-7.653150000000001
 30
0.0
 10
23.7207
 20
-7.653530000000001
 30
0.0
 10
23.68593
 20
-7.63025
 30
0.0
 10
23.68923
 20
-7.479350000000001
 30
0.0
 10
23.68923
 20
-7.479350000000001
 30
0.0
 10
23.68923
 20
-7.479350000000001
 30
0.0
 10
23.68924
 20
-7.05161
 30
0.0
 10
23.68924
 20
-7.05161
 30
0.0
 10
23.68924
 20
-7.05161
 30
0.0
 10
23.68924
 20
-7.05161
 30
0.0
 10
24.19954
 20
-7.050790000000001
 30
0.0
 10
24.19954
 20
-7.050790000000001
 30
0.0
 10
24.19954
 20
-7.050790000000001
 30
0.0
 10
24.44689
 20
-7.05039
 30
0.0
 10
24.44955
 20
-6.80107
 30
0.0
 10
24.20474
 20
-6.80107
 30
0.0
 10
24.20474
 20
-6.80107
 30
0.0
 10
24.20474
 20
-6.80107
 30
0.0
 10
23.68924
 20
-6.80107
 30
0.0
 10
23.68924
 20
-6.80107
 30
0.0
 10
23.68924
 20
-6.80107
 30
0.0
 10
23.68924
 20
-6.80107
 30
0.0
 10
23.68918
 20
-3.42432
 30
0.0
 10
23.68918
 20
-3.42432
 30
0.0
 10
23.68918
 20
-3.42432
 30
0.0
 10
23.68918
 20
-3.42432
 30
0.0
 10
24.20586
 20
-3.42432
 30
0.0
 10
24.20586
 20
-3.42432
 30
0.0
 10
24.20586
 20
-3.42432
 30
0.0
 10
24.44484
 20
-3.42432
 30
0.0
 10
24.44825
 20
-3.16345
 30
0.0
 10
24.20702
 20
-3.16379
 30
0.0
 10
24.20702
 20
-3.16379
 30
0.0
 10
24.20702
 20
-3.16379
 30
0.0
 10
23.68958
 20
-3.16455
 30
0.0
 10
23.68958
 20
-3.16455
 30
0.0
  0
SPLINE
  5
6C
330
1F
100
AcDbEntity
  8
Layer 1
 62
    22
370
     5
100
AcDbSpline
210
0.0
220
0.0
230
1.0
 70
    11
 71
     3
 72
    52
 73
    48
 74
     0
 42
0.0000000001
 43
0.0000000001
 40
0.0
 40
0.0
 40
0.0
 40
0.0
 40
0.0833333333333333
 40
0.0833333333333333
 40
0.0833333333333333
 40
0.0833333333333333
 40
0.1666666666666667
 40
0.1666666666666667
 40
0.1666666666666667
 40
0.1666666666666667
 40
0.25
 40
0.25
 40
0.25
 40
0.25
 40
0.3333333333333333
 40
0.3333333333333333
 40
0.3333333333333333
 40
0.3333333333333333
 40
0.4166666666666666
 40
0.4166666666666666
 40
0.4166666666666666
 40
0.4166666666666666
 40
0.4999999999999999
 40
0.4999999999999999
 40
0.4999999999999999
 40
0.4999999999999999
 40
0.5833333333333333
 40
0.5833333333333333
 40
0.5833333333333333
 40
0.5833333333333333
 40
0.6666666666666666
 40
0.6666666666666666
 40
0.6666666666666666
 40
0.6666666666666666
 40
0.75
 40
0.75
 40
0.75
 40
0.75
 40
0.8333333333333334
 40
0.8333333333333334
 40
0.8333333333333334
 40
0.8333333333333334
 40
0.9166666666666667
 40
0.9166666666666667
 40
0.9166666666666667
 40
0.9166666666666667
 40
1.0
 40
1.0
 40
1.0
 40
1.0
 10
22.17728
 20
-1.77904
 30
0.0
 10
22.17728
 20
-1.83321
 30
0.0
 10
22.17728
 20
-1.8678
 30
0.0
 10
22.17728
 20
-1.92198
 30
0.0
 10
22.17728
 20
-1.92198
 30
0.0
 10
22.17728
 20
-2.03173
 30
0.0
 10
22.23589
 20
-2.07782
 30
0.0
 10
22.37233
 20
-2.07782
 30
0.0
 10
22.37233
 20
-2.07782
 30
0.0
 10
22.57534
 20
-2.07782
 30
0.0
 10
22.78213
 20
-2.07782
 30
0.0
 10
22.98514
 20
-2.07782
 30
0.0
 10
22.98514
 20
-2.07782
 30
0.0
 10
23.16822
 20
-2.07782
 30
0.0
 10
23.21426
 20
-2.02756
 30
0.0
 10
23.21426
 20
-1.91595
 30
0.0
 10
23.21426
 20
-1.91595
 30
0.0
 10
23.21426
 20
-1.91595
 30
0.0
 10
23.21426
 20
-1.7776
 30
0.0
 10
23.21426
 20
-1.7776
 30
0.0
 10
23.21426
 20
-1.7776
 30
0.0
 10
23.21426
 20
-1.7776
 30
0.0
 10
24.54116
 20
-1.7776
 30
0.0
 10
24.54116
 20
-1.7776
 30
0.0
 10
24.54116
 20
-1.7776
 30
0.0
 10
24.54116
 20
-1.7776
 30
0.0
 10
24.5426
 20
-0.52312
 30
0.0
 10
24.5426
 20
-0.52312
 30
0.0
 10
24.5426
 20
-0.52312
 30
0.0
 10
24.55319
 20
-0.4146
 30
0.0
 10
24.47118
 20
-0.3408000000000001
 30
0.0
 10
24.2966
 20
-0.30172
 30
0.0
 10
24.2966
 20
-0.30172
 30
0.0
 10
24.2966
 20
-0.30172
 30
0.0
 10
21.15068
 20
-0.30172
 30
0.0
 10
21.15068
 20
-0.30172
 30
0.0
 10
21.15068
 20
-0.30172
 30
0.0
 10
20.99924
 20
-0.30463
 30
0.0
 10
20.86516
 20
-0.41459
 30
0.0
 10
20.8526
 20
-0.5100800000000001
 30
0.0
 10
20.8526
 20
-0.5100800000000001
 30
0.0
 10
20.8526
 20
-0.5100800000000001
 30
0.0
 10
20.8526
 20
-1.77616
 30
0.0
 10
20.8526
 20
-1.77616
 30
0.0
 10
20.8526
 20
-1.77616
 30
0.0
 10
20.8526
 20
-1.77616
 30
0.0
 10
22.17728
 20
-1.77904
 30
0.0
 10
22.17728
 20
-1.77904
 30
0.0
  0
SPLINE
  5
6D
330
1F
100
AcDbEntity
  8
Layer 1
 62
    22
370
     5
100
AcDbSpline
210
0.0
220
0.0
230
1.0
 70
    11
 71
     3
 72
    60
 73
    56
 74
     0
 42
0.0000000001
 43
0.0000000001
 40
0.0
 40
0.0
 40
0.0
 40
0.0
 40
0.0714285714285714
 40
0.0714285714285714
 40
0.0714285714285714
 40
0.0714285714285714
 40
0.1428571428571429
 40
0.1428571428571429
 40
0.1428571428571429
 40
0.1428571428571429
 40
0.2142857142857143
 40
0.2142857142857143
 40
0.2142857142857143
 40
0.2142857142857143
 40
0.2857142857142857
 40
0.2857142857142857
 40
0.2857142857142857
 40
0.2857142857142857
 40
0.3571428571428571
 40
0.3571428571428571
 40
0.3571428571428571
 40
0.3571428571428571
 40
0.4285714285714285
 40
0.4285714285714285
 40
0.4285714285714285
 40
0.4285714285714285
 40
0.4999999999999999
 40
0.4999999999999999
 40
0.4999999999999999
 40
0.4999999999999999
 40
0.5714285714285713
 40
0.5714285714285713
 40
0.5714285714285713
 40
0.5714285714285713
 40
0.6428571428571427
 40
0.6428571428571427
 40
0.6428571428571427
 40
0.6428571428571427
 40
0.7142857142857141
 40
0.7142857142857141
 40
0.7142857142857141
 40
0.7142857142857141
 40
0.7857142857142855
 40
0.7857142857142855
 40
0.7857142857142855
 40
0.7857142857142855
 40
0.8571428571428569
 40
0.8571428571428569
 40
0.8571428571428569
 40
0.8571428571428569
 40
0.9285714285714283
 40
0.9285714285714283
 40
0.9285714285714283
 40
0.9285714285714283
 40
1.0
 40
1.0
 40
1.0
 40
1.0
 10
-19.07933
 20
-0.5222600000000001
 30
0.0
 10
-19.07933
 20
-0.5222600000000001
 30
0.0
 10
-19.07933
 20
0.19061
 30
0.0
 10
-19.07933
 20
0.19061
 30
0.0
 10
-19.07933
 20
0.19061
 30
0.0
 10
-19.08795
 20
0.44381
 30
0.0
 10
-19.05176
 20
0.46362
 30
0.0
 10
-19.41704
 20
0.46299
 30
0.0
 10
-19.41704
 20
0.46299
 30
0.0
 10
-19.41704
 20
0.46299
 30
0.0
 10
-20.79434
 20
0.4684
 30
0.0
 10
-20.79434
 20
0.4684
 30
0.0
 10
-20.79434
 20
0.4684
 30
0.0
 10
-20.96957
 20
0.46644
 30
0.0
 10
-21.10592
 20
0.38562
 30
0.0
 10
-21.10557
 20
0.10496
 30
0.0
 10
-21.10557
 20
0.10496
 30
0.0
 10
-21.10557
 20
0.10496
 30
0.0
 10
-21.10763
 20
-1.94569
 30
0.0
 10
-21.10763
 20
-1.94569
 30
0.0
 10
-21.10763
 20
-1.94569
 30
0.0
 10
-21.10644
 20
-2.28761
 30
0.0
 10
-20.93306
 20
-2.30075
 30
0.0
 10
-20.81034
 20
-2.30312
 30
0.0
 10
-20.81034
 20
-2.30312
 30
0.0
 10
-20.81034
 20
-2.30312
 30
0.0
 10
-19.28824
 20
-2.30312
 30
0.0
 10
-19.28824
 20
-2.30312
 30
0.0
 10
-19.28824
 20
-2.30312
 30
0.0
 10
-19.05686
 20
-2.29881
 30
0.0
 10
-19.07942
 20
-2.32339
 30
0.0
 10
-19.07942
 20
-2.09613
 30
0.0
 10
-19.07942
 20
-2.09613
 30
0.0
 10
-19.07942
 20
-2.09613
 30
0.0
 10
-19.07942
 20
-1.32557
 30
0.0
 10
-19.07942
 20
-1.32557
 30
0.0
 10
-19.07942
 20
-1.32557
 30
0.0
 10
-19.07942
 20
-1.32557
 30
0.0
 10
-19.00541
 20
-1.32536
 30
0.0
 10
-19.00541
 20
-1.32536
 30
0.0
 10
-19.00541
 20
-1.32536
 30
0.0
 10
-18.87645
 20
-1.32963
 30
0.0
 10
-18.78761
 20
-1.29044
 30
0.0
 10
-18.78698
 20
-1.15568
 30
0.0
 10
-18.78698
 20
-1.15568
 30
0.0
 10
-18.78698
 20
-1.15568
 30
0.0
 10
-18.78698
 20
-0.7164200000000001
 30
0.0
 10
-18.78698
 20
-0.7164200000000001
 30
0.0
 10
-18.78698
 20
-0.7164200000000001
 30
0.0
 10
-18.77075
 20
-0.56738
 30
0.0
 10
-18.86482
 20
-0.5213300000000001
 30
0.0
 10
-19.009
 20
-0.52205
 30
0.0
 10
-19.009
 20
-0.52205
 30
0.0
 10
-19.009
 20
-0.52205
 30
0.0
 10
-19.07933
 20
-0.5222600000000001
 30
0.0
 10
-19.07933
 20
-0.5222600000000001
 30
0.0
  0
ENDSEC
  0
SECTION
  2
OBJECTS
  0
DICTIONARY
  5
C
330
0
100
AcDbDictionary
281
     1
  3
ACAD_GROUP
350
D
  3
ACAD_LAYOUT
350
1A
  3
ACAD_MLINESTYLE
350
17
  3
ACAD_PLOTSETTINGS
350
19
  3
ACAD_PLOTSTYLENAME
350
E
  0
DICTIONARY
  5
D
102
{ACAD_REACTORS
330
C
102
}
330
C
100
AcDbDictionary
281
     1
  0
DICTIONARY
  5
1A
102
{ACAD_REACTORS
330
C
102
}
330
C
100
AcDbDictionary
281
     1
  3
Layout1
350
1E
  3
Layout2
350
26
  3
Model
350
22
  0
DICTIONARY
  5
17
102
{ACAD_REACTORS
330
C
102
}
330
C
100
AcDbDictionary
281
     1
  3
Standard
350
18
  0
DICTIONARY
  5
19
102
{ACAD_REACTORS
330
C
102
}
330
C
100
AcDbDictionary
281
     1
  0
ACDBDICTIONARYWDFLT
  5
E
102
{ACAD_REACTORS
330
C
102
}
330
C
100
AcDbDictionary
281
     1
  3
Normal
350
F
100
AcDbDictionaryWithDefault
340
F
  0
LAYOUT
  5
1E
102
{ACAD_REACTORS
330
1A
102
}
330
1A
100
AcDbPlotSettings
  1

  2

  4

  6

 40
0.0
 41
0.0
 42
0.0
 43
0.0
 44
0.0
 45
0.0
 46
0.0
 47
0.0
 48
0.0
 49
0.0
140
0.0
141
0.0
142
1.0
143
1.0
 70
   688
 72
     0
 73
     0
 74
     5
  7

 75
    16
 76
     0
 77
     2
 78
   300
147
1.0
148
0.0
149
0.0
100
AcDbLayout
  1
Layout1
 70
     1
 71
     1
 10
0.0
 20
0.0
 11
12.0
 21
9.0
 12
0.0
 22
0.0
 32
0.0
 14
1.000000000000000E+20
 24
1.000000000000000E+20
 34
1.000000000000000E+20
 15
-1.000000000000000E+20
 25
-1.000000000000000E+20
 35
-1.000000000000000E+20
146
0.0
 13
0.0
 23
0.0
 33
0.0
 16
1.0
 26
0.0
 36
0.0
 17
0.0
 27
1.0
 37
0.0
 76
     0
330
1B
  0
LAYOUT
  5
26
102
{ACAD_REACTORS
330
1A
102
}
330
1A
100
AcDbPlotSettings
  1

  2

  4

  6

 40
0.0
 41
0.0
 42
0.0
 43
0.0
 44
0.0
 45
0.0
 46
0.0
 47
0.0
 48
0.0
 49
0.0
140
0.0
141
0.0
142
1.0
143
1.0
 70
   688
 72
     0
 73
     0
 74
     5
  7

 75
    16
 76
     0
 77
     2
 78
   300
147
1.0
148
0.0
149
0.0
100
AcDbLayout
  1
Layout2
 70
     1
 71
     2
 10
0.0
 20
0.0
 11
0.0
 21
0.0
 12
0.0
 22
0.0
 32
0.0
 14
0.0
 24
0.0
 34
0.0
 15
0.0
 25
0.0
 35
0.0
146
0.0
 13
0.0
 23
0.0
 33
0.0
 16
1.0
 26
0.0
 36
0.0
 17
0.0
 27
1.0
 37
0.0
 76
     0
330
23
  0
LAYOUT
  5
22
102
{ACAD_REACTORS
330
1A
102
}
330
1A
100
AcDbPlotSettings
  1

  2

  4

  6

 40
0.0
 41
0.0
 42
0.0
 43
0.0
 44
0.0
 45
0.0
 46
0.0
 47
0.0
 48
0.0
 49
0.0
140
0.0
141
0.0
142
1.0
143
1.0
 70
  1712
 72
     0
 73
     0
 74
     0
  7

 75
     0
 76
     0
 77
     2
 78
   300
147
1.0
148
0.0
149
0.0
100
AcDbLayout
  1
Model
 70
     1
 71
     0
 10
0.0
 20
0.0
 11
0.0
 21
0.0
 12
0.0
 22
0.0
 32
0.0
 14
-29.6514
 24
-13.32921
 34
0.0
 15
25.37012
 25
14.65125
 35
0.0
146
0.0
 13
0.0
 23
0.0
 33
0.0
 16
1.0
 26
0.0
 36
0.0
 17
0.0
 27
1.0
 37
0.0
 76
     0
330
1F
  0
MLINESTYLE
  5
18
102
{ACAD_REACTORS
330
17
102
}
330
17
100
AcDbMlineStyle
  2
Standard
 70
     0
  3

 62
   256
 51
90.0
 52
90.0
 71
     2
 49
0.5
 62
   256
  6
BYLAYER
 49
-0.5
 62
   256
  6
BYLAYER
  0
ACDBPLACEHOLDER
  5
F
102
{ACAD_REACTORS
330
E
102
}
330
E
  0
ENDSEC
  0
EOF
