  0
SECTION
  2
HEADER
  9
$ACADVER
  1
AC1009
  9
$LIMMIN
 10
-0.000000
 20
0.000000
  9
$LIMMAX
 10
129.027252
 20
178.884410
  0
ENDSEC
  0
SECTION
  2
TABLES
  0
TABLE
  2
LTYPE
 70
     4
  0
LTYPE
  2
CONTINUOUS
 70
     0
  3
Solid line
 72
     65
 73
     0
 40
0.000000
  0
LTYPE
  2
HIDDEN
 70
     0
  3
 _ _ _ _ _ _ _ _ _ _ _
 72
     65
 73
     2
 40
0.375000
 49
0.250000
 49
-0.125000
  0
LTYPE
  2
DASHED
 70
     0
  3
 ___ ___ ___ ___ ___ ___ ___ 
 72
     65
 73
     2
 40
0.750000
 49
0.500000
 49
-0.250000
  0
LTYPE
  2
CENTER
 70
     0
  3
___ _ ___ _ ___ _ ___
 72
     65
 73
     4
 40
2.000000
 49
1.250000
 49
-0.250000
 49
0.250000
 49
-0.250000
  0
LTYPE
  2
BORDER
 70
     0
  3
___ ___ . ___ ___ . ___ ___
 72
     65
 73
     6
 40
1.750000
 49
0.500000
 49
-0.250000
 49
0.500000
 49
-0.250000
 49
0.000000
 49
-0.250000
  0
LTYPE
  2
DOT
 70
     0
  3
.................
 72
     65
 73
     2
 40
0.250000
 49
0.000000
 49
-0.250000
  0
LTYPE
  2
DASHDOT
 70
     0
  3
__ . __ . __ . __
 72
     65
 73
     4
 40
1.000000
 49
0.500000
 49
-0.250000
 49
0.000000
 49
-0.250000
  0
LTYPE
  2
DIVIDE
 70
     0
  3
___ .. ___ .. ___ .. ___
 72
     65
 73
     6
 40
1.250000
 49
0.500000
 49
-0.250000
 49
0.000000
 49
-0.250000
 49
0.000000
 49
-0.250000
  0
ENDTAB
  0
TABLE
  2
LAYER
 70
     8
  0
LAYER
  2
BLACK
 70
     0
 62
     1
  6
CONTINUOUS
  0
LAYER
  2
WHITE
 70
     0
 62
     7
  6
CONTINUOUS
  0
LAYER
  2
RED
 70
     0
 62
     1
  6
CONTINUOUS
  0
LAYER
  2
YELLOW
 70
     0
 62
     2
  6
CONTINUOUS
  0
LAYER
  2
GREEN
 70
     0
 62
     3
  6
CONTINUOUS
  0
LAYER
  2
CYAN
 70
     0
 62
     4
  6
CONTINUOUS
  0
LAYER
  2
BLUE
 70
     0
 62
     5
  6
CONTINUOUS
  0
LAYER
  2
MAGENTA
 70
     0
 62
     6
  6
CONTINUOUS
  0
ENDTAB
  0
ENDSEC
  0
SECTION
  2
BLOCKS
  0
ENDSEC
  0
SECTION
  2
ENTITIES
  0
ARC
  8
WHITE
 10
128.678491
 20
29.205958
 30
0.000000
 40
29.928286
 50
97.300691
 51
119.051056
  6
CONTINUOUS
  0
ARC
  8
WHITE
 10
131.677384
 20
25.919359
 30
0.000000
 40
34.272969
 50
120.765955
 51
127.611352
  6
CONTINUOUS
  0
ARC
  8
WHITE
 10
111.271355
 20
52.317340
 30
0.000000
 40
0.909091
 50
124.188653
 51
195.155951
  6
CONTINUOUS
  0
ARC
  8
WHITE
 10
81.979500
 20
44.383104
 30
0.000000
 40
29.438312
 50
-26.366013
 51
15.155936
  6
CONTINUOUS
  0
ARC
  8
WHITE
 10
112.428117
 20
29.290785
 30
0.000000
 40
4.545455
 50
153.633987
 51
233.077591
  6
CONTINUOUS
  0
ARC
  8
WHITE
 10
152.451085
 20
82.552965
 30
0.000000
 40
71.169007
 50
-126.922414
 51
-109.730178
  6
CONTINUOUS
  0
ARC
  8
WHITE
 10
128.118161
 20
14.706366
 30
0.000000
 40
0.909091
 50
-33.005559
 51
70.269822
  6
CONTINUOUS
  0
ARC
  8
WHITE
 10
141.019321
 20
6.326469
 30
0.000000
 40
14.474752
 50
146.994421
 51
177.033487
  6
CONTINUOUS
  0
ARC
  8
WHITE
 10
125.656093
 20
7.122618
 30
0.000000
 40
0.909091
 50
-104.863919
 51
-2.966513
  6
CONTINUOUS
  0
ARC
  8
WHITE
 10
133.258796
 20
35.768235
 30
0.000000
 40
30.546440
 50
-158.794638
 51
-104.863931
  6
CONTINUOUS
  0
ARC
  8
WHITE
 10
112.895470
 20
22.444379
 30
0.000000
 40
8.427640
 50
164.340077
 51
205.731647
  6
CONTINUOUS
  0
ARC
  8
WHITE
 10
-2233.895373
 20
-1374.470670
 30
0.000000
 40
2722.685106
 50
30.374903
 51
30.778557
  6
CONTINUOUS
  0
ARC
  8
WHITE
 10
114.276718
 20
1.811463
 30
0.000000
 40
0.909091
 50
-58.508755
 51
30.374903
  6
CONTINUOUS
  0
ARC
  8
WHITE
 10
123.648349
 20
-13.486858
 30
0.000000
 40
17.031536
 50
121.491311
 51
127.638861
  6
CONTINUOUS
  0
LINE
  8
WHITE
 10
113.247490
 20
0.000000
 30
0.000000
 11
107.724451
 21
0.000000
 31
0.000000
  6
CONTINUOUS
  0
ARC
  8
WHITE
 10
107.724451
 20
1.000000
 30
0.000000
 40
1.000000
 50
-145.249370
 51
-90.000000
  6
CONTINUOUS
  0
ARC
  8
WHITE
 10
154.123409
 20
33.188835
 30
0.000000
 40
57.471093
 50
-155.666665
 51
-145.249389
  6
CONTINUOUS
  0
ARC
  8
WHITE
 10
124.378494
 20
17.165571
 30
0.000000
 40
23.881578
 50
169.405881
 51
198.701627
  6
CONTINUOUS
  0
ARC
  8
WHITE
 10
100.010401
 20
21.723347
 30
0.000000
 40
0.909091
 50
-10.594118
 51
67.385456
  6
CONTINUOUS
  0
ARC
  8
WHITE
 10
99.239749
 20
19.873295
 30
0.000000
 40
2.913235
 50
67.385481
 51
98.969070
  6
CONTINUOUS
  0
ARC
  8
WHITE
 10
83.146315
 20
54.558562
 30
0.000000
 40
35.444507
 50
-120.646310
 51
-63.817475
  6
CONTINUOUS
  0
ARC
  8
WHITE
 10
64.615542
 20
23.282459
 30
0.000000
 40
0.909091
 50
59.353690
 51
159.145426
  6
CONTINUOUS
  0
ARC
  8
WHITE
 10
171.548584
 20
-17.454119
 30
0.000000
 40
115.338739
 50
159.145457
 51
170.872961
  6
CONTINUOUS
  0
ARC
  8
WHITE
 10
56.682803
 20
1.000000
 30
0.000000
 40
1.000000
 50
-90.000000
 51
-9.127039
  6
CONTINUOUS
  0
LINE
  8
WHITE
 10
56.682803
 20
0.000000
 30
0.000000
 11
50.866332
 21
0.000000
 31
0.000000
  6
CONTINUOUS
  0
ARC
  8
WHITE
 10
50.866332
 20
1.000000
 30
0.000000
 40
1.000000
 50
177.589164
 51
270.000000
  6
CONTINUOUS
  0
ARC
  8
WHITE
 10
87.949930
 20
-0.561317
 30
0.000000
 40
38.116452
 50
136.082238
 51
177.589122
  6
CONTINUOUS
  0
ARC
  8
WHITE
 10
59.838422
 20
26.507782
 30
0.000000
 40
0.909091
 50
-43.917761
 51
57.129296
  6
CONTINUOUS
  0
ARC
  8
WHITE
 10
59.624037
 20
26.176021
 30
0.000000
 40
1.304092
 50
57.129306
 51
126.356312
  6
CONTINUOUS
  0
ARC
  8
WHITE
 10
135.034508
 20
-62.362262
 30
0.000000
 40
117.601177
 50
130.376896
 51
142.657214
  6
CONTINUOUS
  0
ARC
  8
WHITE
 10
40.816388
 20
9.523964
 30
0.000000
 40
0.909091
 50
-137.765271
 51
-37.342786
  6
CONTINUOUS
  0
ARC
  8
WHITE
 10
31.640844
 20
1.193944
 30
0.000000
 40
11.483642
 50
42.234747
 51
70.838032
  6
CONTINUOUS
  0
ARC
  8
WHITE
 10
35.708631
 20
12.900051
 30
0.000000
 40
0.909091
 50
149.457268
 51
250.838037
  6
CONTINUOUS
  0
ARC
  8
WHITE
 10
67.391869
 20
-5.794649
 30
0.000000
 40
37.696580
 50
107.277849
 51
149.457263
  6
CONTINUOUS
  0
ARC
  8
WHITE
 10
55.925763
 20
31.068968
 30
0.000000
 40
0.909091
 50
-72.722151
 51
-2.502957
  6
CONTINUOUS
  0
ARC
  8
WHITE
 10
55.252577
 20
31.098395
 30
0.000000
 40
1.582920
 50
-2.502966
 51
26.488009
  6
CONTINUOUS
  0
ARC
  8
WHITE
 10
70.213732
 20
43.734428
 30
0.000000
 40
18.049278
 50
163.101990
 51
221.373905
  6
CONTINUOUS
  0
ARC
  8
WHITE
 10
-120.291819
 20
85.977974
 30
0.000000
 40
177.142191
 50
-12.055310
 51
3.256827
  6
CONTINUOUS
  0
ARC
  8
WHITE
 10
-29.982286
 20
86.261567
 30
0.000000
 40
87.097406
 50
6.447338
 51
28.835871
  6
CONTINUOUS
  0
ARC
  8
WHITE
 10
45.519100
 20
127.830382
 30
0.000000
 40
0.909091
 50
28.835872
 51
128.525813
  6
CONTINUOUS
  0
ARC
  8
WHITE
 10
54.903115
 20
116.043950
 30
0.000000
 40
15.974936
 50
128.525787
 51
145.271743
  6
CONTINUOUS
  0
ARC
  8
WHITE
 10
24.970773
 20
133.347417
 30
0.000000
 40
18.698419
 50
-68.799177
 51
-26.020250
  6
CONTINUOUS
  0
ARC
  8
WHITE
 10
26.164975
 20
141.480232
 30
0.000000
 40
26.164975
 50
163.862169
 51
282.286376
  6
CONTINUOUS
  0
ARC
  8
WHITE
 10
1.904278
 20
148.500079
 30
0.000000
 40
0.909091
 50
145.653122
 51
163.862168
  6
CONTINUOUS
  0
ARC
  8
WHITE
 10
16.217864
 20
138.718856
 30
0.000000
 40
18.245500
 50
96.642324
 51
145.653157
  6
CONTINUOUS
  0
ARC
  8
WHITE
 10
14.002235
 20
157.744873
 30
0.000000
 40
0.909091
 50
-83.357678
 51
-54.326314
  6
CONTINUOUS
  0
ARC
  8
WHITE
 10
35.502289
 20
127.795327
 30
0.000000
 40
35.958613
 50
93.723197
 51
125.673650
  6
CONTINUOUS
  0
ARC
  8
WHITE
 10
32.926424
 20
164.482188
 30
0.000000
 40
0.839434
 50
-73.326735
 51
29.698613
  6
CONTINUOUS
  0
ARC
  8
WHITE
 10
38.191599
 20
172.810435
 30
0.000000
 40
9.120350
 50
-160.915785
 51
-119.824830
  6
CONTINUOUS
  0
ARC
  8
WHITE
 10
31.719867
 20
169.977019
 30
0.000000
 40
2.152487
 50
77.023234
 51
183.957347
  6
CONTINUOUS
  0
ARC
  8
WHITE
 10
32.322907
 20
165.396940
 30
0.000000
 40
6.678667
 50
42.519297
 51
91.026834
  6
CONTINUOUS
  0
ARC
  8
WHITE
 10
29.186992
 20
161.086294
 30
0.000000
 40
11.950200
 50
15.577762
 51
47.597559
  6
CONTINUOUS
  0
ARC
  8
WHITE
 10
37.301305
 20
-94.631830
 30
0.000000
 40
258.949584
 50
88.481146
 51
89.248368
  6
CONTINUOUS
  0
ARC
  8
WHITE
 10
44.218009
 20
166.226071
 30
0.000000
 40
2.000000
 50
-91.518854
 51
-19.693272
  6
CONTINUOUS
  0
ARC
  8
WHITE
 10
17.365390
 20
175.837145
 30
0.000000
 40
30.520798
 50
-19.693275
 51
-0.819202
  6
CONTINUOUS
  0
ARC
  8
WHITE
 10
50.637309
 20
176.053811
 30
0.000000
 40
2.830599
 50
-26.982159
 51
193.338520
  6
CONTINUOUS
  0
ARC
  8
WHITE
 10
92.684802
 20
153.656361
 30
0.000000
 40
44.810629
 50
151.890097
 51
165.213046
  6
CONTINUOUS
  0
ARC
  8
WHITE
 10
51.291996
 20
164.582730
 30
0.000000
 40
2.000000
 50
165.213045
 51
242.739401
  6
CONTINUOUS
  0
ARC
  8
WHITE
 10
26.686672
 20
116.830213
 30
0.000000
 40
51.718943
 50
62.192012
 51
62.739417
  6
CONTINUOUS
  0
ARC
  8
WHITE
 10
51.747094
 20
164.345475
 30
0.000000
 40
2.000000
 50
-117.807988
 51
-49.054897
  6
CONTINUOUS
  0
ARC
  8
WHITE
 10
38.429471
 20
179.695339
 30
0.000000
 40
22.321846
 50
-49.054918
 51
-26.484996
  6
CONTINUOUS
  0
ARC
  8
WHITE
 10
61.438953
 20
168.725385
 30
0.000000
 40
3.195830
 50
-67.799765
 51
161.477783
  6
CONTINUOUS
  0
ARC
  8
WHITE
 10
73.968773
 20
142.028556
 30
0.000000
 40
26.299860
 50
115.499786
 51
134.355413
  6
CONTINUOUS
  0
ARC
  8
WHITE
 10
56.980568
 20
159.403367
 30
0.000000
 40
2.000000
 50
134.355412
 51
192.189673
  6
CONTINUOUS
  0
ARC
  8
WHITE
 10
52.506174
 20
158.436813
 30
0.000000
 40
2.577601
 50
-7.291259
 51
12.189671
  6
CONTINUOUS
  0
ARC
  8
WHITE
 10
60.418265
 20
93.975650
 30
0.000000
 40
64.357234
 50
89.164022
 51
94.773251
  6
CONTINUOUS
  0
ARC
  8
WHITE
 10
60.372286
 20
153.601281
 30
0.000000
 40
4.826326
 50
0.379383
 51
78.224379
  6
CONTINUOUS
  0
ARC
  8
WHITE
 10
63.448597
 20
168.876464
 30
0.000000
 40
15.343341
 50
-114.486250
 51
-83.451163
  6
CONTINUOUS
  0
ARC
  8
WHITE
 10
33.148041
 20
154.664354
 30
0.000000
 40
23.942419
 50
-8.539836
 51
0.595255
  6
CONTINUOUS
  0
ARC
  8
WHITE
 10
56.888176
 20
148.536515
 30
0.000000
 40
2.573237
 50
-9.293243
 51
91.406660
  6
CONTINUOUS
  0
ARC
  8
WHITE
 10
67.160573
 20
151.650122
 30
0.000000
 40
8.500188
 50
-155.469019
 51
-122.970253
  6
CONTINUOUS
  0
ARC
  8
WHITE
 10
61.478632
 20
139.213993
 30
0.000000
 40
5.408974
 50
-11.128940
 51
78.740602
  6
CONTINUOUS
  0
ARC
  8
WHITE
 10
71.115063
 20
136.873494
 30
0.000000
 40
4.519133
 50
163.328437
 51
239.720705
  6
CONTINUOUS
  0
ARC
  8
WHITE
 10
65.113249
 20
126.341571
 30
0.000000
 40
7.603276
 50
-8.567165
 51
60.680239
  6
CONTINUOUS
  0
ARC
  8
WHITE
 10
79.689691
 20
123.319623
 30
0.000000
 40
7.306495
 50
165.014305
 51
234.075023
  6
CONTINUOUS
  0
ARC
  8
WHITE
 10
71.858303
 20
110.525750
 30
0.000000
 40
7.736853
 50
-21.019464
 51
62.733520
  6
CONTINUOUS
  0
ARC
  8
WHITE
 10
88.531430
 20
107.717849
 30
0.000000
 40
9.451151
 50
179.801113
 51
212.800654
  6
CONTINUOUS
  0
ARC
  8
WHITE
 10
74.991855
 20
98.101991
 30
0.000000
 40
7.177850
 50
-27.125110
 51
38.782925
  6
CONTINUOUS
  0
ARC
  8
WHITE
 10
86.298517
 20
94.133581
 30
0.000000
 40
4.967252
 50
171.947945
 51
219.910069
  6
CONTINUOUS
  0
ARC
  8
WHITE
 10
76.393268
 20
86.271444
 30
0.000000
 40
7.681670
 50
-19.465011
 51
37.489856
  6
CONTINUOUS
  0
ARC
  8
WHITE
 10
87.741105
 20
80.854774
 30
0.000000
 40
5.001462
 50
145.165174
 51
204.626004
  6
CONTINUOUS
  0
ARC
  8
WHITE
 10
77.924551
 20
76.289990
 30
0.000000
 40
5.824663
 50
-23.084700
 51
25.207467
  6
CONTINUOUS
  0
ARC
  8
WHITE
 10
91.775271
 20
70.837375
 30
0.000000
 40
9.064395
 50
159.537811
 51
204.197125
  6
CONTINUOUS
  0
ARC
  8
WHITE
 10
84.336486
 20
67.494701
 30
0.000000
 40
0.909091
 50
-155.802879
 51
-82.992635
  6
CONTINUOUS
  0
ARC
  8
WHITE
 10
87.657919
 20
40.472509
 30
0.000000
 40
26.316463
 50
44.116451
 51
97.007363
  6
CONTINUOUS
  0
ARC
  8
WHITE
 10
107.203864
 20
59.424733
 30
0.000000
 40
0.909091
 50
-135.883548
 51
-84.492399
  6
CONTINUOUS
  0
ARC
  8
WHITE
 10
101.624282
 20
149.837692
 30
0.000000
 40
91.493515
 50
-86.448998
 51
-82.535707
  6
CONTINUOUS
  0
ARC
  8
WHITE
 10
112.523443
 20
67.176220
 30
0.000000
 40
8.116912
 50
-83.018470
 51
6.966409
  6
CONTINUOUS
  0
ARC
  8
WHITE
 10
123.757739
 20
67.916874
 30
0.000000
 40
3.186649
 50
4.678608
 51
175.611745
  6
CONTINUOUS
  0
ARC
  8
WHITE
 10
111.920445
 20
65.494617
 30
0.000000
 40
15.251034
 50
-21.838035
 51
10.129219
  6
CONTINUOUS
  0
ARC
  8
WHITE
 10
124.684692
 20
60.379451
 30
0.000000
 40
1.500000
 50
-82.699297
 51
-21.838033
  6
CONTINUOUS
  0
LINE
  8
WHITE
 10
73.226534
 20
46.069975
 30
0.000000
 11
101.687223
 21
46.069975
 31
0.000000
  6
CONTINUOUS
  0
LINE
  8
WHITE
 10
101.687223
 20
46.069975
 30
0.000000
 11
101.687223
 21
38.069975
 31
0.000000
  6
CONTINUOUS
  0
LINE
  8
WHITE
 10
101.687223
 20
38.069975
 30
0.000000
 11
73.226534
 21
38.069975
 31
0.000000
  6
CONTINUOUS
  0
LINE
  8
WHITE
 10
73.226534
 20
38.069975
 30
0.000000
 11
73.226534
 21
46.069975
 31
0.000000
  6
CONTINUOUS
  0
ARC
  8
WHITE
 10
92.067636
 20
57.504364
 30
0.000000
 40
7.692008
 50
-138.615795
 51
-123.024216
  6
CONTINUOUS
  0
ARC
  8
WHITE
 10
92.500609
 20
58.170467
 30
0.000000
 40
8.486463
 50
-123.024218
 51
-93.830401
  6
CONTINUOUS
  0
ARC
  8
WHITE
 10
92.447537
 20
57.377787
 30
0.000000
 40
7.692008
 50
-93.830403
 51
-78.238822
  6
CONTINUOUS
  0
ARC
  8
WHITE
 10
92.699433
 20
56.167930
 30
0.000000
 40
6.456206
 50
-78.238814
 51
-60.695221
  6
CONTINUOUS
  0
ARC
  8
WHITE
 10
93.274062
 20
55.144154
 30
0.000000
 40
5.282190
 50
-60.695225
 51
-40.589784
  6
CONTINUOUS
  0
ARC
  8
WHITE
 10
93.803576
 20
54.690469
 30
0.000000
 40
4.584899
 50
-40.589781
 51
3.732360
  6
CONTINUOUS
  0
ARC
  8
WHITE
 10
93.107689
 20
54.644814
 30
0.000000
 40
5.282190
 50
3.735167
 51
23.840604
  6
CONTINUOUS
  0
ARC
  8
WHITE
 10
92.033847
 20
54.170284
 30
0.000000
 40
6.456207
 50
23.840603
 51
41.384205
  6
CONTINUOUS
  0
ARC
  8
WHITE
 10
91.106634
 20
53.353289
 30
0.000000
 40
7.692008
 50
41.384210
 51
56.975784
  6
CONTINUOUS
  0
ARC
  8
WHITE
 10
90.673661
 20
52.687186
 30
0.000000
 40
8.486463
 50
56.975782
 51
86.169599
  6
CONTINUOUS
  0
ARC
  8
WHITE
 10
90.726733
 20
53.479866
 30
0.000000
 40
7.692008
 50
86.169597
 51
101.761178
  6
CONTINUOUS
  0
ARC
  8
WHITE
 10
90.474836
 20
54.689723
 30
0.000000
 40
6.456206
 50
101.761177
 51
119.304779
  6
CONTINUOUS
  0
ARC
  8
WHITE
 10
89.900208
 20
55.713499
 30
0.000000
 40
5.282191
 50
119.304785
 51
139.410216
  6
CONTINUOUS
  0
ARC
  8
WHITE
 10
89.370612
 20
56.167230
 30
0.000000
 40
4.584807
 50
139.409989
 51
183.733001
  6
CONTINUOUS
  0
ARC
  8
WHITE
 10
90.066581
 20
56.212839
 30
0.000000
 40
5.282190
 50
-176.264833
 51
-156.159396
  6
CONTINUOUS
  0
ARC
  8
WHITE
 10
91.140423
 20
56.687370
 30
0.000000
 40
6.456207
 50
-156.159389
 51
-138.615795
  6
CONTINUOUS
  0
ARC
  8
WHITE
 10
76.370558
 20
92.657116
 30
0.000000
 40
18.294280
 50
120.951900
 51
139.875124
  6
CONTINUOUS
  0
ARC
  8
WHITE
 10
70.787863
 20
102.533484
 30
0.000000
 40
8.620913
 50
167.175911
 51
202.200047
  6
CONTINUOUS
  0
ARC
  8
WHITE
 10
71.083837
 20
106.958696
 30
0.000000
 40
11.293535
 50
-137.135958
 51
-95.433425
  6
CONTINUOUS
  0
ARC
  8
WHITE
 10
70.663768
 20
98.389539
 30
0.000000
 40
2.751349
 50
-103.650301
 51
-4.489666
  6
CONTINUOUS
  0
ARC
  8
WHITE
 10
61.334842
 20
99.549244
 30
0.000000
 40
12.149895
 50
-6.498440
 51
40.864606
  6
CONTINUOUS
  0
ARC
  8
WHITE
 10
67.537414
 20
102.859327
 30
0.000000
 40
5.517097
 50
57.234284
 51
95.992120
  6
CONTINUOUS
  0
CIRCLE
  8
WHITE
 10
86.185654
 20
28.404840
 30
0.000000
 40
5.529207
  6
CONTINUOUS
  0
ARC
  8
WHITE
 10
48.891469
 20
148.147256
 30
0.000000
 40
3.689547
 50
11.928449
 51
56.226916
  6
CONTINUOUS
  0
ARC
  8
WHITE
 10
49.865204
 20
152.246212
 30
0.000000
 40
1.491871
 50
28.924011
 51
316.229406
  6
CONTINUOUS
  0
ARC
  8
WHITE
 10
51.034489
 20
154.772539
 30
0.000000
 40
1.809939
 50
-85.675048
 51
-25.255358
  6
CONTINUOUS
  0
ARC
  8
WHITE
 10
46.953131
 20
152.203683
 30
0.000000
 40
5.993898
 50
17.442269
 51
34.802943
  6
CONTINUOUS
  0
ARC
  8
WHITE
 10
48.004147
 20
152.934238
 30
0.000000
 40
4.713919
 50
34.802945
 51
55.238751
  6
CONTINUOUS
  0
ARC
  8
WHITE
 10
48.434197
 20
153.553892
 30
0.000000
 40
3.959656
 50
55.238757
 51
78.284901
  6
CONTINUOUS
  0
ARC
  8
WHITE
 10
48.434686
 20
153.553791
 30
0.000000
 40
3.959656
 50
78.292131
 51
101.338293
  6
CONTINUOUS
  0
ARC
  8
WHITE
 10
48.582973
 20
152.814247
 30
0.000000
 40
4.713920
 50
101.338260
 51
121.774058
  6
CONTINUOUS
  0
ARC
  8
WHITE
 10
49.256972
 20
151.726098
 30
0.000000
 40
5.993898
 50
121.774057
 51
139.134722
  6
CONTINUOUS
  0
ARC
  8
WHITE
 10
50.286154
 20
150.835684
 30
0.000000
 40
7.354799
 50
139.134724
 51
154.263429
  6
CONTINUOUS
  0
ARC
  8
WHITE
 10
51.079665
 20
150.453169
 30
0.000000
 40
8.235695
 50
154.263429
 51
182.313573
  6
CONTINUOUS
  0
ARC
  8
WHITE
 10
50.199487
 20
150.417608
 30
0.000000
 40
7.354799
 50
-177.686431
 51
-162.557720
  6
CONTINUOUS
  0
ARC
  8
WHITE
 10
48.901161
 20
150.009685
 30
0.000000
 40
5.993898
 50
-162.557719
 51
-145.197057
  6
CONTINUOUS
  0
ARC
  8
WHITE
 10
47.850145
 20
149.279130
 30
0.000000
 40
4.713919
 50
-145.197055
 51
-124.761249
  6
CONTINUOUS
  0
ARC
  8
WHITE
 10
47.420017
 20
148.659293
 30
0.000000
 40
3.959461
 50
-124.761826
 51
-101.714524
  6
CONTINUOUS
  0
ARC
  8
WHITE
 10
47.419607
 20
148.659378
 30
0.000000
 40
3.959461
 50
-101.708468
 51
-78.661172
  6
CONTINUOUS
  0
ARC
  8
WHITE
 10
47.271319
 20
149.399120
 30
0.000000
 40
4.713920
 50
-78.661747
 51
-58.225942
  6
CONTINUOUS
  0
ARC
  8
WHITE
 10
46.597320
 20
150.487270
 30
0.000000
 40
5.993899
 50
-58.225948
 51
-40.865278
  6
CONTINUOUS
  0
ARC
  8
WHITE
 10
45.568138
 20
151.377684
 30
0.000000
 40
7.354799
 50
-40.865276
 51
-25.736571
  6
CONTINUOUS
  0
ARC
  8
WHITE
 10
44.774627
 20
151.760199
 30
0.000000
 40
8.235695
 50
-25.736571
 51
-20.248782
  6
CONTINUOUS
  0
ARC
  8
WHITE
 10
36.733457
 20
157.077180
 30
0.000000
 40
5.807539
 50
19.818800
 51
37.146593
  6
CONTINUOUS
  0
ARC
  8
WHITE
 10
37.745736
 20
157.844055
 30
0.000000
 40
4.537576
 50
37.146597
 51
57.634218
  6
CONTINUOUS
  0
ARC
  8
WHITE
 10
38.145817
 20
158.475316
 30
0.000000
 40
3.790211
 50
57.634208
 51
80.829558
  6
CONTINUOUS
  0
ARC
  8
WHITE
 10
38.146352
 20
158.475230
 30
0.000000
 40
3.790211
 50
80.837749
 51
104.033083
  6
CONTINUOUS
  0
ARC
  8
WHITE
 10
38.327575
 20
157.750168
 30
0.000000
 40
4.537577
 50
104.033085
 51
124.520712
  6
CONTINUOUS
  0
ARC
  8
WHITE
 10
39.047268
 20
156.703819
 30
0.000000
 40
5.807539
 50
124.520714
 51
141.848505
  6
CONTINUOUS
  0
ARC
  8
WHITE
 10
40.110840
 20
155.868327
 30
0.000000
 40
7.160030
 50
141.848503
 51
156.900940
  6
CONTINUOUS
  0
ARC
  8
WHITE
 10
40.916997
 20
155.524488
 30
0.000000
 40
8.036452
 50
156.900943
 51
184.766365
  6
CONTINUOUS
  0
ARC
  8
WHITE
 10
40.043607
 20
155.451663
 30
0.000000
 40
7.160031
 50
-175.233641
 51
-160.181200
  6
CONTINUOUS
  0
ARC
  8
WHITE
 10
38.771224
 20
154.993105
 30
0.000000
 40
5.807539
 50
-160.181202
 51
-142.853407
  6
CONTINUOUS
  0
ARC
  8
WHITE
 10
37.758945
 20
154.226231
 30
0.000000
 40
4.537577
 50
-142.853393
 51
-122.365782
  6
CONTINUOUS
  0
ARC
  8
WHITE
 10
37.358787
 20
153.594766
 30
0.000000
 40
3.789998
 50
-122.366460
 51
-99.169780
  6
CONTINUOUS
  0
ARC
  8
WHITE
 10
37.358337
 20
153.594839
 30
0.000000
 40
3.789998
 50
-99.162895
 51
-75.966239
  6
CONTINUOUS
  0
ARC
  8
WHITE
 10
37.177106
 20
154.320117
 30
0.000000
 40
4.537577
 50
-75.966911
 51
-55.479288
  6
CONTINUOUS
  0
ARC
  8
WHITE
 10
36.457413
 20
155.366466
 30
0.000000
 40
5.807539
 50
-55.479286
 51
-38.151495
  6
CONTINUOUS
  0
ARC
  8
WHITE
 10
35.393841
 20
156.201959
 30
0.000000
 40
7.160031
 50
-38.151503
 51
-23.099060
  6
CONTINUOUS
  0
ARC
  8
WHITE
 10
34.587684
 20
156.545798
 30
0.000000
 40
8.036452
 50
-23.099057
 51
-17.205618
  6
CONTINUOUS
  0
ARC
  8
WHITE
 10
40.772665
 20
154.104603
 30
0.000000
 40
1.493207
 50
2.456444
 51
65.977501
  6
CONTINUOUS
  0
ARC
  8
WHITE
 10
40.459920
 20
156.462467
 30
0.000000
 40
1.354829
 50
38.799863
 51
312.805513
  6
CONTINUOUS
  0
ARC
  8
WHITE
 10
41.482384
 20
158.389593
 30
0.000000
 40
1.078705
 50
-88.225255
 51
-21.336486
  6
CONTINUOUS
  0
ARC
  8
WHITE
 10
35.461074
 20
156.618622
 30
0.000000
 40
7.160031
 50
11.100220
 51
19.818802
  6
CONTINUOUS
  0
ARC
  8
WHITE
 10
72.272983
 20
84.294249
 30
0.000000
 40
6.488564
 50
56.329981
 51
132.329810
  6
CONTINUOUS
  0
ARC
  8
WHITE
 10
68.515781
 20
88.419046
 30
0.000000
 40
0.909091
 50
132.329777
 51
191.744373
  6
CONTINUOUS
  0
ARC
  8
WHITE
 10
81.035345
 20
91.021836
 30
0.000000
 40
13.696350
 50
-168.255628
 51
-119.645158
  6
CONTINUOUS
  0
ARC
  8
WHITE
 10
63.107999
 20
86.544268
 30
0.000000
 40
13.398866
 50
-33.657437
 51
11.048161
  6
CONTINUOUS
  0
ARC
  8
WHITE
 10
75.366293
 20
88.937734
 30
0.000000
 40
0.909091
 50
11.048160
 51
56.329967
  6
CONTINUOUS
  0
ARC
  8
WHITE
 10
73.712225
 20
25.706437
 30
0.000000
 40
9.157995
 50
102.100146
 51
155.423336
  6
CONTINUOUS
  0
ARC
  8
WHITE
 10
75.883710
 20
42.078162
 30
0.000000
 40
16.372861
 50
-129.888374
 51
-97.351703
  6
CONTINUOUS
  0
ARC
  8
WHITE
 10
71.407345
 20
29.980553
 30
0.000000
 40
4.776571
 50
-60.096709
 51
42.227731
  6
CONTINUOUS
  0
ARC
  8
WHITE
 10
72.541105
 20
32.152300
 30
0.000000
 40
2.617975
 50
23.370524
 51
106.615158
  6
CONTINUOUS
  0
ARC
  8
WHITE
 10
71.794386
 20
68.714646
 30
0.000000
 40
4.388702
 50
-137.759943
 51
-120.747713
  6
CONTINUOUS
  0
ARC
  8
WHITE
 10
72.429234
 20
69.781826
 30
0.000000
 40
5.630437
 50
-120.747716
 51
-106.354690
  6
CONTINUOUS
  0
ARC
  8
WHITE
 10
72.657923
 20
70.561121
 30
0.000000
 40
6.442593
 50
-106.354686
 51
-80.046498
  6
CONTINUOUS
  0
ARC
  8
WHITE
 10
72.798304
 20
69.761188
 30
0.000000
 40
5.630437
 50
-80.046503
 51
-65.653475
  6
CONTINUOUS
  0
ARC
  8
WHITE
 10
73.310214
 20
68.629882
 30
0.000000
 40
4.388701
 50
-65.653468
 51
-48.641246
  6
CONTINUOUS
  0
ARC
  8
WHITE
 10
74.069641
 20
67.767231
 30
0.000000
 40
3.239400
 50
-48.641257
 51
-27.738841
  6
CONTINUOUS
  0
ARC
  8
WHITE
 10
74.661099
 20
67.456196
 30
0.000000
 40
2.571144
 50
-27.738822
 51
-3.211676
  6
CONTINUOUS
  0
ARC
  8
WHITE
 10
74.661044
 20
67.455204
 30
0.000000
 40
2.571144
 50
-3.189529
 51
21.337644
  6
CONTINUOUS
  0
ARC
  8
WHITE
 10
74.038596
 20
67.212050
 30
0.000000
 40
3.239399
 50
21.337649
 51
42.240058
  6
CONTINUOUS
  0
ARC
  8
WHITE
 10
73.187727
 20
66.439445
 30
0.000000
 40
4.388702
 50
42.240053
 51
59.252287
  6
CONTINUOUS
  0
ARC
  8
WHITE
 10
72.552879
 20
65.372265
 30
0.000000
 40
5.630437
 50
59.252284
 51
73.645310
  6
CONTINUOUS
  0
ARC
  8
WHITE
 10
72.324190
 20
64.592969
 30
0.000000
 40
6.442594
 50
73.645317
 51
99.953502
  6
CONTINUOUS
  0
ARC
  8
WHITE
 10
72.183809
 20
65.392903
 30
0.000000
 40
5.630436
 50
99.953499
 51
114.346525
  6
CONTINUOUS
  0
ARC
  8
WHITE
 10
71.671899
 20
66.524208
 30
0.000000
 40
4.388702
 50
114.346526
 51
131.358754
  6
CONTINUOUS
  0
ARC
  8
WHITE
 10
70.912472
 20
67.386860
 30
0.000000
 40
3.239399
 50
131.358755
 51
152.261159
  6
CONTINUOUS
  0
ARC
  8
WHITE
 10
70.320607
 20
67.698007
 30
0.000000
 40
2.570731
 50
152.259165
 51
176.790324
  6
CONTINUOUS
  0
ARC
  8
WHITE
 10
70.320653
 20
67.698821
 30
0.000000
 40
2.570731
 50
176.808488
 51
201.339663
  6
CONTINUOUS
  0
ARC
  8
WHITE
 10
70.943518
 20
67.942041
 30
0.000000
 40
3.239399
 50
-158.662342
 51
-137.759948
  6
CONTINUOUS
  0
ARC
  8
WHITE
 10
62.096115
 20
77.015055
 30
0.000000
 40
4.730350
 50
-47.325206
 51
36.496701
  6
CONTINUOUS
  0
ARC
  8
WHITE
 10
63.798974
 20
73.334184
 30
0.000000
 40
6.825404
 50
72.082408
 51
116.711130
  6
CONTINUOUS
  0
ARC
  8
WHITE
 10
67.225080
 20
78.422109
 30
0.000000
 40
6.572007
 50
171.167571
 51
233.489191
  6
CONTINUOUS
  0
ARC
  8
WHITE
 10
64.167881
 20
74.043030
 30
0.000000
 40
1.242267
 50
-133.363920
 51
-24.025966
  6
CONTINUOUS
  0
CIRCLE
  8
WHITE
 10
60.660216
 20
114.917490
 30
0.000000
 40
2.830489
  6
CONTINUOUS
  0
ARC
  8
WHITE
 10
59.034279
 20
42.563778
 30
0.000000
 40
3.465606
 50
-80.416637
 51
-65.317268
  6
CONTINUOUS
  0
ARC
  8
WHITE
 10
58.859474
 20
42.944133
 30
0.000000
 40
3.884207
 50
-65.317267
 51
-37.338294
  6
CONTINUOUS
  0
ARC
  8
WHITE
 10
59.192290
 20
42.690243
 30
0.000000
 40
3.465605
 50
-37.338288
 51
-22.238925
  6
CONTINUOUS
  0
ARC
  8
WHITE
 10
59.790628
 20
42.445592
 30
0.000000
 40
2.819183
 50
-22.238935
 51
-4.890815
  6
CONTINUOUS
  0
ARC
  8
WHITE
 10
60.396013
 20
42.393790
 30
0.000000
 40
2.211586
 50
-4.890816
 51
15.565015
  6
CONTINUOUS
  0
ARC
  8
WHITE
 10
60.740751
 20
42.489815
 30
0.000000
 40
1.853724
 50
15.565036
 51
61.772479
  6
CONTINUOUS
  0
ARC
  8
WHITE
 10
60.571683
 20
42.174301
 30
0.000000
 40
2.211584
 50
61.779425
 51
82.235252
  6
CONTINUOUS
  0
ARC
  8
WHITE
 10
60.489593
 20
41.572274
 30
0.000000
 40
2.819184
 50
82.235254
 51
99.583363
  6
CONTINUOUS
  0
ARC
  8
WHITE
 10
60.597211
 20
40.934872
 30
0.000000
 40
3.465606
 50
99.583361
 51
114.682732
  6
CONTINUOUS
  0
ARC
  8
WHITE
 10
60.772015
 20
40.554518
 30
0.000000
 40
3.884206
 50
114.682726
 51
142.661706
  6
CONTINUOUS
  0
ARC
  8
WHITE
 10
60.439199
 20
40.808407
 30
0.000000
 40
3.465606
 50
142.661699
 51
157.761075
  6
CONTINUOUS
  0
ARC
  8
WHITE
 10
59.840862
 20
41.053059
 30
0.000000
 40
2.819184
 50
157.761091
 51
175.109185
  6
CONTINUOUS
  0
ARC
  8
WHITE
 10
59.235476
 20
41.104861
 30
0.000000
 40
2.211585
 50
175.109182
 51
195.565015
  6
CONTINUOUS
  0
ARC
  8
WHITE
 10
58.890652
 20
41.008791
 30
0.000000
 40
1.853629
 50
-164.435591
 51
-118.225810
  6
CONTINUOUS
  0
ARC
  8
WHITE
 10
59.059807
 20
41.324350
 30
0.000000
 40
2.211586
 50
-118.220575
 51
-97.764748
  6
CONTINUOUS
  0
ARC
  8
WHITE
 10
59.141897
 20
41.926376
 30
0.000000
 40
2.819183
 50
-97.764748
 51
-80.416635
  6
CONTINUOUS
  0
ARC
  8
WHITE
 10
68.580143
 20
53.384426
 30
0.000000
 40
1.495788
 50
111.119818
 51
137.062407
  6
CONTINUOUS
  0
ARC
  8
WHITE
 10
68.580865
 20
53.385202
 30
0.000000
 40
1.495788
 50
137.103021
 51
163.045578
  6
CONTINUOUS
  0
ARC
  8
WHITE
 10
69.056697
 20
53.239954
 30
0.000000
 40
1.993295
 50
163.040469
 51
184.291323
  6
CONTINUOUS
  0
ARC
  8
WHITE
 10
69.920243
 20
53.304753
 30
0.000000
 40
2.859269
 50
-175.708674
 51
-159.064874
  6
CONTINUOUS
  0
ARC
  8
WHITE
 10
70.806771
 20
53.643908
 30
0.000000
 40
3.808457
 50
-159.064874
 51
-145.328124
  6
CONTINUOUS
  0
ARC
  8
WHITE
 10
71.321834
 20
54.000181
 30
0.000000
 40
4.434733
 50
-145.328120
 51
-120.506442
  6
CONTINUOUS
  0
ARC
  8
WHITE
 10
71.003915
 20
53.460600
 30
0.000000
 40
3.808457
 50
-120.506445
 51
-106.769692
  6
CONTINUOUS
  0
ARC
  8
WHITE
 10
70.730050
 20
52.551779
 30
0.000000
 40
2.859270
 50
-106.769687
 51
-90.125889
  6
CONTINUOUS
  0
ARC
  8
WHITE
 10
70.728147
 20
51.685807
 30
0.000000
 40
1.993295
 50
-90.125880
 51
-68.875058
  6
CONTINUOUS
  0
ARC
  8
WHITE
 10
70.907241
 20
51.222276
 30
0.000000
 40
1.496369
 50
-68.875072
 51
-42.942718
  6
CONTINUOUS
  0
ARC
  8
WHITE
 10
70.906336
 20
51.221303
 30
0.000000
 40
1.496369
 50
-42.891834
 51
-16.959482
  6
CONTINUOUS
  0
ARC
  8
WHITE
 10
70.431021
 20
51.366254
 30
0.000000
 40
1.993295
 50
-16.959490
 51
4.291323
  6
CONTINUOUS
  0
ARC
  8
WHITE
 10
69.567475
 20
51.301455
 30
0.000000
 40
2.859269
 50
4.291326
 51
20.935126
  6
CONTINUOUS
  0
ARC
  8
WHITE
 10
68.680947
 20
50.962300
 30
0.000000
 40
3.808457
 50
20.935126
 51
34.671876
  6
CONTINUOUS
  0
ARC
  8
WHITE
 10
68.165884
 20
50.606028
 30
0.000000
 40
4.434732
 50
34.671869
 51
59.493558
  6
CONTINUOUS
  0
ARC
  8
WHITE
 10
68.483803
 20
51.145608
 30
0.000000
 40
3.808458
 50
59.493563
 51
73.230308
  6
CONTINUOUS
  0
ARC
  8
WHITE
 10
68.757668
 20
52.054430
 30
0.000000
 40
2.859269
 50
73.230307
 51
89.874111
  6
CONTINUOUS
  0
ARC
  8
WHITE
 10
68.759571
 20
52.920402
 30
0.000000
 40
1.993295
 50
89.874120
 51
111.124956
  6
CONTINUOUS
  0
CIRCLE
  8
WHITE
 10
61.025105
 20
130.216325
 30
0.000000
 40
2.529921
  6
CONTINUOUS
  0
ARC
  8
WHITE
 10
24.661708
 20
121.131146
 30
0.000000
 40
0.726415
 50
81.012664
 51
260.062691
  6
CONTINUOUS
  0
ARC
  8
WHITE
 10
28.673682
 20
126.612919
 30
0.000000
 40
7.451437
 50
-123.727209
 51
-30.031987
  6
CONTINUOUS
  0
ARC
  8
WHITE
 10
34.596372
 20
123.471254
 30
0.000000
 40
0.790257
 50
-48.041202
 51
129.869979
  6
CONTINUOUS
  0
ARC
  8
WHITE
 10
28.357500
 20
127.455105
 30
0.000000
 40
6.653223
 50
-122.577016
 51
-30.505618
  6
CONTINUOUS
  0
CIRCLE
  8
WHITE
 10
31.319365
 20
141.343137
 30
0.000000
 40
1.972077
  6
CONTINUOUS
  0
CIRCLE
  8
WHITE
 10
101.944562
 20
32.710362
 30
0.000000
 40
1.861591
  6
CONTINUOUS
  0
CIRCLE
  8
WHITE
 10
20.866624
 20
148.951315
 30
0.000000
 40
1.832372
  6
CONTINUOUS
  0
ARC
  8
WHITE
 10
12.950050
 20
127.408055
 30
0.000000
 40
28.496699
 50
15.092225
 51
66.383619
  6
CONTINUOUS
  0
ENDSEC
  0
EOF
