  0
SECTION
  2
HEADER
  9
$ACADVER
  1
AC1021
  9
$ACADMAINTVER
 70
    25
  9
$DWGCODEPAGE
  3
ANSI_1251
  9
$INSBASE
 10
0.0
 20
0.0
 30
0.0
  9
$EXTMIN
 10
-136.5967
 20
-114.8452
 30
0.0
  9
$EXTMAX
 10
53.4794
 20
204.1761
 30
0.0
  9
$LIMMIN
 10
0.0
 20
0.0
  9
$LIMMAX
 10
12.0
 20
9.0
  9
$ORTHOMODE
 70
     0
  9
$REGENMODE
 70
     1
  9
$FILLMODE
 70
     1
  9
$QTEXTMODE
 70
     0
  9
$MIRRTEXT
 70
     1
  9
$LTSCALE
 40
1.0
  9
$ATTMODE
 70
     1
  9
$TEXTSIZE
 40
0.2
  9
$TRACEWID
 40
0.05
  9
$TEXTSTYLE
  7
Standard
  9
$CLAYER
  8
0
  9
$CELTYPE
  6
ByLayer
  9
$CECOLOR
 62
   256
  9
$CELTSCALE
 40
1.0
  9
$DISPSILH
 70
     0
  9
$DIMSCALE
 40
1.0
  9
$DIMASZ
 40
0.18
  9
$DIMEXO
 40
0.0625
  9
$DIMDLI
 40
0.38
  9
$DIMRND
 40
0.0
  9
$DIMDLE
 40
0.0
  9
$DIMEXE
 40
0.18
  9
$DIMTP
 40
0.0
  9
$DIMTM
 40
0.0
  9
$DIMTXT
 40
0.18
  9
$DIMCEN
 40
0.09
  9
$DIMTSZ
 40
0.0
  9
$DIMTOL
 70
     0
  9
$DIMLIM
 70
     0
  9
$DIMTIH
 70
     1
  9
$DIMTOH
 70
     1
  9
$DIMSE1
 70
     0
  9
$DIMSE2
 70
     0
  9
$DIMTAD
 70
     0
  9
$DIMZIN
 70
     0
  9
$DIMBLK
  1

  9
$DIMASO
 70
     1
  9
$DIMSHO
 70
     1
  9
$DIMPOST
  1

  9
$DIMAPOST
  1

  9
$DIMALT
 70
     0
  9
$DIMALTD
 70
     2
  9
$DIMALTF
 40
25.4
  9
$DIMLFAC
 40
1.0
  9
$DIMTOFL
 70
     0
  9
$DIMTVP
 40
0.0
  9
$DIMTIX
 70
     0
  9
$DIMSOXD
 70
     0
  9
$DIMSAH
 70
     0
  9
$DIMBLK1
  1

  9
$DIMBLK2
  1

  9
$DIMSTYLE
  2
Standard
  9
$DIMCLRD
 70
     0
  9
$DIMCLRE
 70
     0
  9
$DIMCLRT
 70
     0
  9
$DIMTFAC
 40
1.0
  9
$DIMGAP
 40
0.09
  9
$DIMJUST
 70
     0
  9
$DIMSD1
 70
     0
  9
$DIMSD2
 70
     0
  9
$DIMTOLJ
 70
     1
  9
$DIMTZIN
 70
     0
  9
$DIMALTZ
 70
     0
  9
$DIMALTTZ
 70
     0
  9
$DIMUPT
 70
     0
  9
$DIMDEC
 70
     4
  9
$DIMTDEC
 70
     4
  9
$DIMALTU
 70
     2
  9
$DIMALTTD
 70
     2
  9
$DIMTXSTY
  7
Standard
  9
$DIMAUNIT
 70
     0
  9
$DIMADEC
 70
     0
  9
$DIMALTRND
 40
0.0
  9
$DIMAZIN
 70
     0
  9
$DIMDSEP
 70
    46
  9
$DIMATFIT
 70
     3
  9
$DIMFRAC
 70
     0
  9
$DIMLDRBLK
  1

  9
$DIMLUNIT
 70
     2
  9
$DIMLWD
 70
    -2
  9
$DIMLWE
 70
    -2
  9
$DIMTMOVE
 70
     0
  9
$DIMFXL
 40
1.0
  9
$DIMFXLON
 70
     0
  9
$DIMJOGANG
 40
0.7853981633974483
  9
$DIMTFILL
 70
     0
  9
$DIMTFILLCLR
 70
     0
  9
$DIMARCSYM
 70
     0
  9
$DIMLTYPE
  6

  9
$DIMLTEX1
  6

  9
$DIMLTEX2
  6

  9
$LUNITS
 70
     2
  9
$LUPREC
 70
     4
  9
$SKETCHINC
 40
0.1
  9
$FILLETRAD
 40
0.5
  9
$AUNITS
 70
     0
  9
$AUPREC
 70
     0
  9
$MENU
  1
.
  9
$ELEVATION
 40
0.0
  9
$PELEVATION
 40
0.0
  9
$THICKNESS
 40
0.0
  9
$LIMCHECK
 70
     0
  9
$CHAMFERA
 40
0.5
  9
$CHAMFERB
 40
0.5
  9
$CHAMFERC
 40
1.0
  9
$CHAMFERD
 40
0.0
  9
$SKPOLY
 70
     0
  9
$TDCREATE
 40
2457043.465111597
  9
$TDUCREATE
 40
2457043.381778264
  9
$TDUPDATE
 40
2457043.465111609
  9
$TDUUPDATE
 40
2457043.381778276
  9
$TDINDWG
 40
0.0000000116
  9
$TDUSRTIMER
 40
0.0000000116
  9
$USRTIMER
 70
     1
  9
$ANGBASE
 50
0.0
  9
$ANGDIR
 70
     0
  9
$PDMODE
 70
     0
  9
$PDSIZE
 40
0.0
  9
$PLINEWID
 40
0.0
  9
$SPLFRAME
 70
     0
  9
$SPLINETYPE
 70
     6
  9
$SPLINESEGS
 70
     8
  9
$HANDSEED
  5
C3
  9
$SURFTAB1
 70
     6
  9
$SURFTAB2
 70
     6
  9
$SURFTYPE
 70
     6
  9
$SURFU
 70
     6
  9
$SURFV
 70
     6
  9
$UCSBASE
  2

  9
$UCSNAME
  2

  9
$UCSORG
 10
0.0
 20
0.0
 30
0.0
  9
$UCSXDIR
 10
1.0
 20
0.0
 30
0.0
  9
$UCSYDIR
 10
0.0
 20
1.0
 30
0.0
  9
$UCSORTHOREF
  2

  9
$UCSORTHOVIEW
 70
     0
  9
$UCSORGTOP
 10
0.0
 20
0.0
 30
0.0
  9
$UCSORGBOTTOM
 10
0.0
 20
0.0
 30
0.0
  9
$UCSORGLEFT
 10
0.0
 20
0.0
 30
0.0
  9
$UCSORGRIGHT
 10
0.0
 20
0.0
 30
0.0
  9
$UCSORGFRONT
 10
0.0
 20
0.0
 30
0.0
  9
$UCSORGBACK
 10
0.0
 20
0.0
 30
0.0
  9
$PUCSBASE
  2

  9
$PUCSNAME
  2

  9
$PUCSORG
 10
0.0
 20
0.0
 30
0.0
  9
$PUCSXDIR
 10
1.0
 20
0.0
 30
0.0
  9
$PUCSYDIR
 10
0.0
 20
1.0
 30
0.0
  9
$PUCSORTHOREF
  2

  9
$PUCSORTHOVIEW
 70
     0
  9
$PUCSORGTOP
 10
0.0
 20
0.0
 30
0.0
  9
$PUCSORGBOTTOM
 10
0.0
 20
0.0
 30
0.0
  9
$PUCSORGLEFT
 10
0.0
 20
0.0
 30
0.0
  9
$PUCSORGRIGHT
 10
0.0
 20
0.0
 30
0.0
  9
$PUCSORGFRONT
 10
0.0
 20
0.0
 30
0.0
  9
$PUCSORGBACK
 10
0.0
 20
0.0
 30
0.0
  9
$USERI1
 70
     0
  9
$USERI2
 70
     0
  9
$USERI3
 70
     0
  9
$USERI4
 70
     0
  9
$USERI5
 70
     0
  9
$USERR1
 40
0.0
  9
$USERR2
 40
0.0
  9
$USERR3
 40
0.0
  9
$USERR4
 40
0.0
  9
$USERR5
 40
0.0
  9
$WORLDVIEW
 70
     1
  9
$SHADEDGE
 70
     3
  9
$SHADEDIF
 70
    70
  9
$TILEMODE
 70
     1
  9
$MAXACTVP
 70
    64
  9
$PINSBASE
 10
0.0
 20
0.0
 30
0.0
  9
$PLIMCHECK
 70
     0
  9
$PEXTMIN
 10
1.000000000000000E+20
 20
1.000000000000000E+20
 30
1.000000000000000E+20
  9
$PEXTMAX
 10
-1.000000000000000E+20
 20
-1.000000000000000E+20
 30
-1.000000000000000E+20
  9
$PLIMMIN
 10
0.0
 20
0.0
  9
$PLIMMAX
 10
12.0
 20
9.0
  9
$UNITMODE
 70
     0
  9
$VISRETAIN
 70
     1
  9
$PLINEGEN
 70
     0
  9
$PSLTSCALE
 70
     1
  9
$TREEDEPTH
 70
  3020
  9
$CMLSTYLE
  2
Standard
  9
$CMLJUST
 70
     0
  9
$CMLSCALE
 40
1.0
  9
$PROXYGRAPHICS
 70
     1
  9
$MEASUREMENT
 70
     0
  9
$CELWEIGHT
370
    -1
  9
$ENDCAPS
280
     0
  9
$JOINSTYLE
280
     0
  9
$LWDISPLAY
290
     0
  9
$INSUNITS
 70
     4
  9
$HYPERLINKBASE
  1

  9
$STYLESHEET
  1

  9
$XEDIT
290
     1
  9
$CEPSNTYPE
380
     0
  9
$PSTYLEMODE
290
     1
  9
$FINGERPRINTGUID
  2
{6D2CC8EF-5F67-40A3-9A87-60F5EB9AAA87}
  9
$VERSIONGUID
  2
{FAEB1C32-E019-11D5-929B-00C0DF256EC4}
  9
$EXTNAMES
290
     1
  9
$PSVPSCALE
 40
0.0
  9
$OLESTARTUP
290
     0
  9
$SORTENTS
280
   127
  9
$INDEXCTL
280
     0
  9
$HIDETEXT
280
     1
  9
$XCLIPFRAME
290
     0
  9
$HALOGAP
280
     0
  9
$OBSCOLOR
 70
   257
  9
$OBSLTYPE
280
     0
  9
$INTERSECTIONDISPLAY
280
     0
  9
$INTERSECTIONCOLOR
 70
   257
  9
$DIMASSOC
280
     2
  9
$PROJECTNAME
  1

  9
$CAMERADISPLAY
290
     0
  9
$LENSLENGTH
 40
50.0
  9
$CAMERAHEIGHT
 40
0.0
  9
$STEPSPERSEC
 40
2.0
  9
$STEPSIZE
 40
6.0
  9
$3DDWFPREC
 40
2.0
  9
$PSOLWIDTH
 40
0.25
  9
$PSOLHEIGHT
 40
4.0
  9
$LOFTANG1
 40
1.570796326794897
  9
$LOFTANG2
 40
1.570796326794897
  9
$LOFTMAG1
 40
0.0
  9
$LOFTMAG2
 40
0.0
  9
$LOFTPARAM
 70
     7
  9
$LOFTNORMALS
280
     1
  9
$LATITUDE
 40
37.795
  9
$LONGITUDE
 40
-122.394
  9
$NORTHDIRECTION
 40
0.0
  9
$TIMEZONE
 70
 -8000
  9
$LIGHTGLYPHDISPLAY
280
     1
  9
$TILEMODELIGHTSYNCH
280
     1
  9
$SOLIDHIST
280
     1
  9
$SHOWHIST
280
     1
  9
$DWFFRAME
280
     2
  9
$DGNFRAME
280
     2
  9
$REALWORLDSCALE
290
     1
  9
$INTERFERECOLOR
 62
   256
  9
$CSHADOW
280
     0
  9
$SHADOWPLANELOCATION
 40
0.0
  0
ENDSEC
  0
SECTION
  2
CLASSES
  0
CLASS
  1
ACDBDICTIONARYWDFLT
  2
AcDbDictionaryWithDefault
  3
ObjectDBX Classes
 90
        0
 91
        3
280
     0
281
     0
  0
CLASS
  1
VISUALSTYLE
  2
AcDbVisualStyle
  3
ObjectDBX Classes
 90
     4095
 91
        3
280
     0
281
     0
  0
CLASS
  1
SCALE
  2
AcDbScale
  3
ObjectDBX Classes
 90
     1153
 91
        3
280
     0
281
     0
  0
ENDSEC
  0
SECTION
  2
TABLES
  0
TABLE
  2
VPORT
  5
8
330
0
100
AcDbSymbolTable
 70
     1
  0
VPORT
  5
29
330
8
100
AcDbSymbolTableRecord
100
AcDbViewportTableRecord
  2
*Active
 70
     0
 10
0.0
 20
0.0
 11
1.0
 21
1.0
 12
10.42990654205607
 22
4.5
 13
0.0
 23
0.0
 14
0.5
 24
0.5
 15
0.5
 25
0.5
 16
0.0
 26
0.0
 36
1.0
 17
0.0
 27
0.0
 37
0.0
 40
9.0
 41
1.972972972850329
 42
50.0
 43
0.0
 44
0.0
 50
0.0
 51
0.0
 71
     0
 72
   100
 73
     1
 74
     3
 75
     0
 76
     0
 77
     0
 78
     0
281
     0
 65
     1
110
0.0
120
0.0
130
0.0
111
1.0
121
0.0
131
0.0
112
0.0
122
1.0
132
0.0
 79
     0
146
0.0
 60
     3
 61
     5
292
     1
282
     1
141
0.0
142
0.0
 63
   256
  0
ENDTAB
  0
TABLE
  2
LTYPE
  5
5
330
0
100
AcDbSymbolTable
 70
     1
  0
LTYPE
  5
14
330
5
100
AcDbSymbolTableRecord
100
AcDbLinetypeTableRecord
  2
ByBlock
 70
     0
  3

 72
    65
 73
     0
 40
0.0
  0
LTYPE
  5
15
330
5
100
AcDbSymbolTableRecord
100
AcDbLinetypeTableRecord
  2
ByLayer
 70
     0
  3

 72
    65
 73
     0
 40
0.0
  0
LTYPE
  5
16
330
5
100
AcDbSymbolTableRecord
100
AcDbLinetypeTableRecord
  2
Continuous
 70
     0
  3
Solid line
 72
    65
 73
     0
 40
0.0
  0
ENDTAB
  0
TABLE
  2
LAYER
  5
2
330
0
100
AcDbSymbolTable
 70
     2
  0
LAYER
  5
10
330
2
100
AcDbSymbolTableRecord
100
AcDbLayerTableRecord
  2
0
 70
     0
 62
     7
  6
Continuous
370
    -3
390
F
347
0
  0
LAYER
  5
5E
330
2
100
AcDbSymbolTableRecord
100
AcDbLayerTableRecord
  2
layer 1
 70
     0
 62
     7
  6
Continuous
370
    -3
390
F
347
0
  0
ENDTAB
  0
TABLE
  2
STYLE
  5
3
330
0
100
AcDbSymbolTable
 70
     1
  0
STYLE
  5
11
330
3
100
AcDbSymbolTableRecord
100
AcDbTextStyleTableRecord
  2
Standard
 70
     0
 40
0.0
 41
1.0
 50
0.0
 71
     0
 42
0.2
  3
txt
  4

  0
ENDTAB
  0
TABLE
  2
VIEW
  5
6
330
0
100
AcDbSymbolTable
 70
     0
  0
ENDTAB
  0
TABLE
  2
UCS
  5
7
330
0
100
AcDbSymbolTable
 70
     0
  0
ENDTAB
  0
TABLE
  2
APPID
  5
9
330
0
100
AcDbSymbolTable
 70
     2
  0
APPID
  5
12
330
9
100
AcDbSymbolTableRecord
100
AcDbRegAppTableRecord
  2
ACAD
 70
     0
  0
APPID
  5
5D
330
9
100
AcDbSymbolTableRecord
100
AcDbRegAppTableRecord
  2
ODA
 70
     0
  0
ENDTAB
  0
TABLE
  2
DIMSTYLE
  5
A
330
0
100
AcDbSymbolTable
 70
     1
100
AcDbDimStyleTable
  0
DIMSTYLE
105
27
330
A
100
AcDbSymbolTableRecord
100
AcDbDimStyleTableRecord
  2
Standard
 70
     0
340
11
  0
ENDTAB
  0
TABLE
  2
BLOCK_RECORD
  5
1
330
0
100
AcDbSymbolTable
 70
     1
  0
BLOCK_RECORD
  5
1F
330
1
100
AcDbSymbolTableRecord
100
AcDbBlockTableRecord
  2
*Model_Space
340
22
 70
     0
280
     1
281
     0
  0
BLOCK_RECORD
  5
1B
330
1
100
AcDbSymbolTableRecord
100
AcDbBlockTableRecord
  2
*Paper_Space
340
1E
 70
     0
280
     1
281
     0
  0
BLOCK_RECORD
  5
23
330
1
100
AcDbSymbolTableRecord
100
AcDbBlockTableRecord
  2
*Paper_Space0
340
26
 70
     0
280
     1
281
     0
  0
ENDTAB
  0
ENDSEC
  0
SECTION
  2
BLOCKS
  0
BLOCK
  5
20
330
1F
100
AcDbEntity
  8
0
100
AcDbBlockBegin
  2
*Model_Space
 70
     0
 10
0.0
 20
0.0
 30
0.0
  3
*Model_Space
  1

  0
ENDBLK
  5
21
330
1F
100
AcDbEntity
  8
0
100
AcDbBlockEnd
  0
BLOCK
  5
1C
330
1B
100
AcDbEntity
 67
     1
  8
0
100
AcDbBlockBegin
  2
*Paper_Space
 70
     0
 10
0.0
 20
0.0
 30
0.0
  3
*Paper_Space
  1

  0
ENDBLK
  5
1D
330
1B
100
AcDbEntity
 67
     1
  8
0
100
AcDbBlockEnd
  0
BLOCK
  5
24
330
23
100
AcDbEntity
  8
0
100
AcDbBlockBegin
  2
*Paper_Space0
 70
     0
 10
0.0
 20
0.0
 30
0.0
  3
*Paper_Space0
  1

  0
ENDBLK
  5
25
330
23
100
AcDbEntity
  8
0
100
AcDbBlockEnd
  0
ENDSEC
  0
SECTION
  2
ENTITIES
  0
SPLINE
  5
5F
330
1F
100
AcDbEntity
  8
layer 1
 62
   250
370
     9
100
AcDbSpline
210
0.0
220
0.0
230
1.0
 70
    11
 71
     3
 72
    76
 73
    72
 74
     0
 42
0.0000000001
 43
0.0000000001
 40
0.0
 40
0.0
 40
0.0
 40
0.0
 40
0.0555555555555556
 40
0.0555555555555556
 40
0.0555555555555556
 40
0.0555555555555556
 40
0.1111111111111111
 40
0.1111111111111111
 40
0.1111111111111111
 40
0.1111111111111111
 40
0.1666666666666667
 40
0.1666666666666667
 40
0.1666666666666667
 40
0.1666666666666667
 40
0.2222222222222222
 40
0.2222222222222222
 40
0.2222222222222222
 40
0.2222222222222222
 40
0.2777777777777778
 40
0.2777777777777778
 40
0.2777777777777778
 40
0.2777777777777778
 40
0.3333333333333334
 40
0.3333333333333334
 40
0.3333333333333334
 40
0.3333333333333334
 40
0.388888888888889
 40
0.388888888888889
 40
0.388888888888889
 40
0.388888888888889
 40
0.4444444444444445
 40
0.4444444444444445
 40
0.4444444444444445
 40
0.4444444444444445
 40
0.5000000000000001
 40
0.5000000000000001
 40
0.5000000000000001
 40
0.5000000000000001
 40
0.5555555555555557
 40
0.5555555555555557
 40
0.5555555555555557
 40
0.5555555555555557
 40
0.6111111111111113
 40
0.6111111111111113
 40
0.6111111111111113
 40
0.6111111111111113
 40
0.6666666666666669
 40
0.6666666666666669
 40
0.6666666666666669
 40
0.6666666666666669
 40
0.7222222222222224
 40
0.7222222222222224
 40
0.7222222222222224
 40
0.7222222222222224
 40
0.777777777777778
 40
0.777777777777778
 40
0.777777777777778
 40
0.777777777777778
 40
0.8333333333333336
 40
0.8333333333333336
 40
0.8333333333333336
 40
0.8333333333333336
 40
0.8888888888888892
 40
0.8888888888888892
 40
0.8888888888888892
 40
0.8888888888888892
 40
0.9444444444444448
 40
0.9444444444444448
 40
0.9444444444444448
 40
0.9444444444444448
 40
1.0
 40
1.0
 40
1.0
 40
1.0
 10
-22.7841
 20
142.8984
 30
0.0
 10
-19.9358
 20
129.2132
 30
0.0
 10
-17.2045
 20
117.1948
 30
0.0
 10
-10.483
 20
113.1041
 30
0.0
 10
-10.483
 20
113.1041
 30
0.0
 10
-7.3433
 20
111.1931
 30
0.0
 10
-1.5208
 20
116.802
 30
0.0
 10
-2.9359
 20
119.755
 30
0.0
 10
-2.9359
 20
119.755
 30
0.0
 10
-9.2541
 20
132.9403
 30
0.0
 10
21.7757
 20
139.2084
 30
0.0
 10
38.3179
 20
124.5043
 30
0.0
 10
38.3179
 20
124.5043
 30
0.0
 10
49.3336
 20
114.7125
 30
0.0
 10
58.267
 20
88.1513
 30
0.0
 10
44.34
 20
57.9117
 30
0.0
 10
44.34
 20
57.9117
 30
0.0
 10
62.4661
 20
7.148
 30
0.0
 10
57.708
 20
-79.5626
 30
0.0
 10
-8.8439
 20
-101.4146
 30
0.0
 10
-8.8439
 20
-101.4146
 30
0.0
 10
-2.7345
 20
-122.5849
 30
0.0
 10
-35.6
 20
-114.7073
 30
0.0
 10
-38.3881
 20
-104.6724
 30
0.0
 10
-38.3881
 20
-104.6724
 30
0.0
 10
-54.3184
 20
-117.943
 30
0.0
 10
-68.4157
 20
-108.6559
 30
0.0
 10
-65.0907
 20
-96.2533
 30
0.0
 10
-65.0907
 20
-96.2533
 30
0.0
 10
-96.2724
 20
-84.654
 30
0.0
 10
-119.1182
 20
-15.4037
 30
0.0
 10
-113.179
 20
20.2604
 30
0.0
 10
-113.179
 20
20.2604
 30
0.0
 10
-111.4881
 20
30.4145
 30
0.0
 10
-133.7986
 20
55.6238
 30
0.0
 10
-136.3287
 20
66.5733
 30
0.0
 10
-136.3287
 20
66.5733
 30
0.0
 10
-139.7247
 20
81.2722
 30
0.0
 10
-107.4151
 20
121.0923
 30
0.0
 10
-87.1212
 20
116.0799
 30
0.0
 10
-87.1212
 20
116.0799
 30
0.0
 10
-72.9231
 20
112.573
 30
0.0
 10
-66.6818
 20
99.8383
 30
0.0
 10
-64.0163
 20
109.786
 30
0.0
 10
-64.0163
 20
109.786
 30
0.0
 10
-62.4725
 20
115.5481
 30
0.0
 10
-64.9429
 20
142.7767
 30
0.0
 10
-90.6936
 20
138.0925
 30
0.0
 10
-90.6936
 20
138.0925
 30
0.0
 10
-103.9947
 20
135.6729
 30
0.0
 10
-115.7245
 20
140.1189
 30
0.0
 10
-111.5576
 20
155.6694
 30
0.0
 10
-111.5576
 20
155.6694
 30
0.0
 10
-108.6619
 20
166.4771
 30
0.0
 10
-94.296
 20
181.3017
 30
0.0
 10
-73.8138
 20
180.9681
 30
0.0
 10
-73.8138
 20
180.9681
 30
0.0
 10
-64.0206
 20
180.8086
 30
0.0
 10
-66.7471
 20
179.1007
 30
0.0
 10
-61.1598
 20
186.3669
 30
0.0
 10
-61.1598
 20
186.3669
 30
0.0
 10
-53.456
 20
196.3859
 30
0.0
 10
-43.3216
 20
202.0702
 30
0.0
 10
-34.0334
 20
203.785
 30
0.0
 10
-34.0334
 20
203.785
 30
0.0
 10
-21.8193
 20
206.0401
 30
0.0
 10
-10.6123
 20
197.4308
 30
0.0
 10
-16.0696
 20
184.4689
 30
0.0
 10
-16.0696
 20
184.4689
 30
0.0
 10
-20.0948
 20
174.9095
 30
0.0
 10
-25.9862
 20
158.2828
 30
0.0
 10
-22.7841
 20
142.8984
 30
0.0
  0
SPLINE
  5
60
330
1F
100
AcDbEntity
  8
layer 1
 62
    22
370
     9
100
AcDbSpline
210
0.0
220
0.0
230
1.0
 70
     8
 71
     3
 72
     8
 73
     4
 74
     0
 42
0.0000000001
 43
0.0000000001
 40
0.0
 40
0.0
 40
0.0
 40
0.0
 40
1.0
 40
1.0
 40
1.0
 40
1.0
 10
17.3623
 20
-4.2632
 30
0.0
 10
9.4648
 20
-16.2525
 30
0.0
 10
29.5865
 20
-31.0165
 30
0.0
 10
15.1125
 20
-47.7775
 30
0.0
  0
SPLINE
  5
61
330
1F
100
AcDbEntity
  8
layer 1
 62
    22
370
     9
100
AcDbSpline
210
0.0
220
0.0
230
1.0
 70
    11
 71
     3
 72
    28
 73
    24
 74
     0
 42
0.0000000001
 43
0.0000000001
 40
0.0
 40
0.0
 40
0.0
 40
0.0
 40
0.1666666666666667
 40
0.1666666666666667
 40
0.1666666666666667
 40
0.1666666666666667
 40
0.3333333333333333
 40
0.3333333333333333
 40
0.3333333333333333
 40
0.3333333333333333
 40
0.5
 40
0.5
 40
0.5
 40
0.5
 40
0.6666666666666666
 40
0.6666666666666666
 40
0.6666666666666666
 40
0.6666666666666666
 40
0.8333333333333333
 40
0.8333333333333333
 40
0.8333333333333333
 40
0.8333333333333333
 40
1.0
 40
1.0
 40
1.0
 40
1.0
 10
45.4208
 20
1.3466
 30
0.0
 10
50.458
 20
-5.311
 30
0.0
 10
33.4562
 20
-9.3788
 30
0.0
 10
34.2969
 20
-35.4014
 30
0.0
 10
34.2969
 20
-35.4014
 30
0.0
 10
34.9073
 20
-54.2951
 30
0.0
 10
23.8394
 20
-61.5066
 30
0.0
 10
6.7303
 20
-61.0555
 30
0.0
 10
6.7303
 20
-61.0555
 30
0.0
 10
13.1389
 20
-38.8349
 30
0.0
 10
-37.9605
 20
-14.8075
 30
0.0
 10
-29.6218
 20
9.3651
 30
0.0
 10
-29.6218
 20
9.3651
 30
0.0
 10
-23.6188
 20
6.6894
 30
0.0
 10
-10.3622
 20
3.337
 30
0.0
 10
-7.8117
 20
5.2104
 30
0.0
 10
-7.8117
 20
5.2104
 30
0.0
 10
1.4018
 20
11.9773
 30
0.0
 10
8.5898
 20
11.7442
 30
0.0
 10
19.9257
 20
3.8766
 30
0.0
 10
19.9257
 20
3.8766
 30
0.0
 10
26.8919
 20
8.4239
 30
0.0
 10
38.8672
 20
10.0079
 30
0.0
 10
45.4208
 20
1.3466
 30
0.0
  0
SPLINE
  5
62
330
1F
100
AcDbEntity
  8
layer 1
 62
    22
370
     9
100
AcDbSpline
210
0.0
220
0.0
230
1.0
 70
     8
 71
     3
 72
     8
 73
     4
 74
     0
 42
0.0000000001
 43
0.0000000001
 40
0.0
 40
0.0
 40
0.0
 40
0.0
 40
1.0
 40
1.0
 40
1.0
 40
1.0
 10
-5.2805
 20
-2.3421
 30
0.0
 10
-9.2097
 20
-17.2681
 30
0.0
 10
14.2638
 20
-24.4248
 30
0.0
 10
12.3316
 20
-45.4241
 30
0.0
  0
SPLINE
  5
63
330
1F
100
AcDbEntity
  8
layer 1
 62
    22
370
     9
100
AcDbSpline
210
0.0
220
0.0
230
1.0
 70
    11
 71
     3
 72
    28
 73
    24
 74
     0
 42
0.0000000001
 43
0.0000000001
 40
0.0
 40
0.0
 40
0.0
 40
0.0
 40
0.1666666666666667
 40
0.1666666666666667
 40
0.1666666666666667
 40
0.1666666666666667
 40
0.3333333333333333
 40
0.3333333333333333
 40
0.3333333333333333
 40
0.3333333333333333
 40
0.5
 40
0.5
 40
0.5
 40
0.5
 40
0.6666666666666666
 40
0.6666666666666666
 40
0.6666666666666666
 40
0.6666666666666666
 40
0.8333333333333333
 40
0.8333333333333333
 40
0.8333333333333333
 40
0.8333333333333333
 40
1.0
 40
1.0
 40
1.0
 40
1.0
 10
43.6426
 20
0.4073
 30
0.0
 10
47.3188
 20
-4.4916
 30
0.0
 10
31.2387
 20
-9.5275
 30
0.0
 10
31.7881
 20
-33.767
 30
0.0
 10
31.7881
 20
-33.767
 30
0.0
 10
32.1948
 20
-51.7222
 30
0.0
 10
25.1412
 20
-59.2769
 30
0.0
 10
9.0852
 20
-58.6366
 30
0.0
 10
9.0852
 20
-58.6366
 30
0.0
 10
14.8936
 20
-39.5949
 30
0.0
 10
-34.3929
 20
-12.6439
 30
0.0
 10
-27.7273
 20
7.1361
 30
0.0
 10
-27.7273
 20
7.1361
 30
0.0
 10
-21.3443
 20
3.4759
 30
0.0
 10
-10.1106
 20
1.5232
 30
0.0
 10
-6.9433
 20
3.8519
 30
0.0
 10
-6.9433
 20
3.8519
 30
0.0
 10
2.138
 20
10.5288
 30
0.0
 10
9.003
 20
9.7508
 30
0.0
 10
19.7578
 20
2.1506
 30
0.0
 10
19.7578
 20
2.1506
 30
0.0
 10
26.3562
 20
5.9515
 30
0.0
 10
37.4015
 20
8.7252
 30
0.0
 10
43.6426
 20
0.4073
 30
0.0
  0
SPLINE
  5
64
330
1F
100
AcDbEntity
  8
layer 1
 62
    22
370
     9
100
AcDbSpline
210
0.0
220
0.0
230
1.0
 70
    11
 71
     3
 72
    12
 73
     8
 74
     0
 42
0.0000000001
 43
0.0000000001
 40
0.0
 40
0.0
 40
0.0
 40
0.0
 40
0.5
 40
0.5
 40
0.5
 40
0.5
 40
1.0
 40
1.0
 40
1.0
 40
1.0
 10
-7.3675
 20
-54.5681
 30
0.0
 10
-23.5094
 20
-35.5343
 30
0.0
 10
-52.6013
 20
-32.9911
 30
0.0
 10
-82.531
 20
-40.918
 30
0.0
 10
-82.531
 20
-40.918
 30
0.0
 10
-65.2886
 20
-21.9546
 30
0.0
 10
-12.6673
 20
-25.0127
 30
0.0
 10
-7.3675
 20
-54.5681
 30
0.0
  0
SPLINE
  5
65
330
1F
100
AcDbEntity
  8
layer 1
 62
    22
370
     9
100
AcDbSpline
210
0.0
220
0.0
230
1.0
 70
    11
 71
     3
 72
    12
 73
     8
 74
     0
 42
0.0000000001
 43
0.0000000001
 40
0.0
 40
0.0
 40
0.0
 40
0.0
 40
0.5
 40
0.5
 40
0.5
 40
0.5
 40
1.0
 40
1.0
 40
1.0
 40
1.0
 10
-52.2605
 20
-54.5965
 30
0.0
 10
-66.5654
 20
-38.9738
 30
0.0
 10
-80.6003
 20
-58.056
 30
0.0
 10
-93.5811
 20
-46.7104
 30
0.0
 10
-93.5811
 20
-46.7104
 30
0.0
 10
-88.9102
 20
-65.1747
 30
0.0
 10
-68.447
 20
-51.5502
 30
0.0
 10
-52.2605
 20
-54.5965
 30
0.0
  0
SPLINE
  5
66
330
1F
100
AcDbEntity
  8
layer 1
 62
    22
370
     9
100
AcDbSpline
210
0.0
220
0.0
230
1.0
 70
    11
 71
     3
 72
    20
 73
    16
 74
     0
 42
0.0000000001
 43
0.0000000001
 40
0.0
 40
0.0
 40
0.0
 40
0.0
 40
0.25
 40
0.25
 40
0.25
 40
0.25
 40
0.5
 40
0.5
 40
0.5
 40
0.5
 40
0.75
 40
0.75
 40
0.75
 40
0.75
 40
1.0
 40
1.0
 40
1.0
 40
1.0
 10
-58.8785
 20
-63.8026
 30
0.0
 10
-55.3847
 20
-62.5608
 30
0.0
 10
-51.4925
 20
-63.9287
 30
0.0
 10
-50.1868
 20
-66.8571
 30
0.0
 10
-50.1868
 20
-66.8571
 30
0.0
 10
-48.881
 20
-69.7855
 30
0.0
 10
-50.6551
 20
-73.1676
 30
0.0
 10
-54.1488
 20
-74.4095
 30
0.0
 10
-54.1488
 20
-74.4095
 30
0.0
 10
-57.6423
 20
-75.6512
 30
0.0
 10
-61.5345
 20
-74.2833
 30
0.0
 10
-62.8403
 20
-71.3549
 30
0.0
 10
-62.8403
 20
-71.3549
 30
0.0
 10
-64.1461
 20
-68.4265
 30
0.0
 10
-62.3719
 20
-65.0444
 30
0.0
 10
-58.8785
 20
-63.8026
 30
0.0
  0
SPLINE
  5
67
330
1F
100
AcDbEntity
  8
layer 1
 62
    22
370
     9
100
AcDbSpline
210
0.0
220
0.0
230
1.0
 70
    11
 71
     3
 72
    12
 73
     8
 74
     0
 42
0.0000000001
 43
0.0000000001
 40
0.0
 40
0.0
 40
0.0
 40
0.0
 40
0.5
 40
0.5
 40
0.5
 40
0.5
 40
1.0
 40
1.0
 40
1.0
 40
1.0
 10
-118.0072
 20
42.4903
 30
0.0
 10
-119.2144
 20
58.0352
 30
0.0
 10
-136.7184
 20
61.6997
 30
0.0
 10
-128.9363
 20
76.896
 30
0.0
 10
-128.9363
 20
76.896
 30
0.0
 10
-121.3615
 20
68.5851
 30
0.0
 10
-101.5762
 20
56.5601
 30
0.0
 10
-118.0072
 20
42.4903
 30
0.0
  0
SPLINE
  5
68
330
1F
100
AcDbEntity
  8
layer 1
 62
    22
370
     9
100
AcDbSpline
210
0.0
220
0.0
230
1.0
 70
    11
 71
     3
 72
    12
 73
     8
 74
     0
 42
0.0000000001
 43
0.0000000001
 40
0.0
 40
0.0
 40
0.0
 40
0.0
 40
0.5
 40
0.5
 40
0.5
 40
0.5
 40
1.0
 40
1.0
 40
1.0
 40
1.0
 10
-87.5228
 20
-23.3945
 30
0.0
 10
-92.4774
 20
-19.0618
 30
0.0
 10
-97.9668
 20
-21.1479
 30
0.0
 10
-100.9607
 20
-26.2037
 30
0.0
 10
-100.9607
 20
-26.2037
 30
0.0
 10
-104.6511
 20
-17.9696
 30
0.0
 10
-90.0123
 20
-13.281
 30
0.0
 10
-87.5228
 20
-23.3945
 30
0.0
  0
SPLINE
  5
69
330
1F
100
AcDbEntity
  8
layer 1
 62
    22
370
     9
100
AcDbSpline
210
0.0
220
0.0
230
1.0
 70
    11
 71
     3
 72
    12
 73
     8
 74
     0
 42
0.0000000001
 43
0.0000000001
 40
0.0
 40
0.0
 40
0.0
 40
0.0
 40
0.5
 40
0.5
 40
0.5
 40
0.5
 40
1.0
 40
1.0
 40
1.0
 40
1.0
 10
-68.8837
 20
-20.996
 30
0.0
 10
-73.8383
 20
-16.6634
 30
0.0
 10
-79.3277
 20
-18.7495
 30
0.0
 10
-82.3216
 20
-23.8053
 30
0.0
 10
-82.3216
 20
-23.8053
 30
0.0
 10
-86.012
 20
-15.5712
 30
0.0
 10
-71.3732
 20
-10.8826
 30
0.0
 10
-68.8837
 20
-20.996
 30
0.0
  0
SPLINE
  5
6A
330
1F
100
AcDbEntity
  8
layer 1
 62
    22
370
     9
100
AcDbSpline
210
0.0
220
0.0
230
1.0
 70
    11
 71
     3
 72
    12
 73
     8
 74
     0
 42
0.0000000001
 43
0.0000000001
 40
0.0
 40
0.0
 40
0.0
 40
0.0
 40
0.5
 40
0.5
 40
0.5
 40
0.5
 40
1.0
 40
1.0
 40
1.0
 40
1.0
 10
-51.8923
 20
-19.5819
 30
0.0
 10
-56.847
 20
-15.2493
 30
0.0
 10
-62.3364
 20
-17.3354
 30
0.0
 10
-65.3303
 20
-22.3912
 30
0.0
 10
-65.3303
 20
-22.3912
 30
0.0
 10
-69.0207
 20
-14.1571
 30
0.0
 10
-54.3819
 20
-9.4685
 30
0.0
 10
-51.8923
 20
-19.5819
 30
0.0
  0
SPLINE
  5
6B
330
1F
100
AcDbEntity
  8
layer 1
 62
    22
370
     9
100
AcDbSpline
210
0.0
220
0.0
230
1.0
 70
    11
 71
     3
 72
    12
 73
     8
 74
     0
 42
0.0000000001
 43
0.0000000001
 40
0.0
 40
0.0
 40
0.0
 40
0.0
 40
0.5
 40
0.5
 40
0.5
 40
0.5
 40
1.0
 40
1.0
 40
1.0
 40
1.0
 10
-28.8754
 20
-20.0738
 30
0.0
 10
-32.5318
 20
-14.606
 30
0.0
 10
-38.376
 20
-15.1982
 30
0.0
 10
-42.5837
 20
-19.3048
 30
0.0
 10
-42.5837
 20
-19.3048
 30
0.0
 10
-44.0032
 20
-10.3971
 30
0.0
 10
-28.646
 20
-9.6624
 30
0.0
 10
-28.8754
 20
-20.0738
 30
0.0
  0
SPLINE
  5
6C
330
1F
100
AcDbEntity
  8
layer 1
 62
    22
370
     9
100
AcDbSpline
210
0.0
220
0.0
230
1.0
 70
    11
 71
     3
 72
    12
 73
     8
 74
     0
 42
0.0000000001
 43
0.0000000001
 40
0.0
 40
0.0
 40
0.0
 40
0.0
 40
0.5
 40
0.5
 40
0.5
 40
0.5
 40
1.0
 40
1.0
 40
1.0
 40
1.0
 10
-78.2246
 20
-10.9305
 30
0.0
 10
-83.1792
 20
-6.5979
 30
0.0
 10
-88.6686
 20
-8.684
 30
0.0
 10
-91.6626
 20
-13.7398
 30
0.0
 10
-91.6626
 20
-13.7398
 30
0.0
 10
-95.3529
 20
-5.5057
 30
0.0
 10
-80.7141
 20
-0.8171
 30
0.0
 10
-78.2246
 20
-10.9305
 30
0.0
  0
SPLINE
  5
6D
330
1F
100
AcDbEntity
  8
layer 1
 62
    22
370
     9
100
AcDbSpline
210
0.0
220
0.0
230
1.0
 70
    11
 71
     3
 72
    12
 73
     8
 74
     0
 42
0.0000000001
 43
0.0000000001
 40
0.0
 40
0.0
 40
0.0
 40
0.0
 40
0.5
 40
0.5
 40
0.5
 40
0.5
 40
1.0
 40
1.0
 40
1.0
 40
1.0
 10
-59.6821
 20
-8.7167
 30
0.0
 10
-64.6368
 20
-4.384
 30
0.0
 10
-70.1262
 20
-6.4701
 30
0.0
 10
-73.1201
 20
-11.5259
 30
0.0
 10
-73.1201
 20
-11.5259
 30
0.0
 10
-76.8105
 20
-3.2919
 30
0.0
 10
-62.1717
 20
1.3968
 30
0.0
 10
-59.6821
 20
-8.7167
 30
0.0
  0
SPLINE
  5
6E
330
1F
100
AcDbEntity
  8
layer 1
 62
    22
370
     9
100
AcDbSpline
210
0.0
220
0.0
230
1.0
 70
    11
 71
     3
 72
    12
 73
     8
 74
     0
 42
0.0000000001
 43
0.0000000001
 40
0.0
 40
0.0
 40
0.0
 40
0.0
 40
0.5
 40
0.5
 40
0.5
 40
0.5
 40
1.0
 40
1.0
 40
1.0
 40
1.0
 10
-39.8244
 20
-9.0426
 30
0.0
 10
-44.7791
 20
-4.7099
 30
0.0
 10
-50.2684
 20
-6.796
 30
0.0
 10
-53.2624
 20
-11.8518
 30
0.0
 10
-53.2624
 20
-11.8518
 30
0.0
 10
-56.9527
 20
-3.6177
 30
0.0
 10
-42.3139
 20
1.0709
 30
0.0
 10
-39.8244
 20
-9.0426
 30
0.0
  0
SPLINE
  5
6F
330
1F
100
AcDbEntity
  8
layer 1
 62
    22
370
     9
100
AcDbSpline
210
0.0
220
0.0
230
1.0
 70
    11
 71
     3
 72
    12
 73
     8
 74
     0
 42
0.0000000001
 43
0.0000000001
 40
0.0
 40
0.0
 40
0.0
 40
0.0
 40
0.5
 40
0.5
 40
0.5
 40
0.5
 40
1.0
 40
1.0
 40
1.0
 40
1.0
 10
-50.8664
 20
1.7508
 30
0.0
 10
-54.1509
 20
7.1393
 30
0.0
 10
-60.0426
 20
6.4172
 30
0.0
 10
-64.5378
 20
2.2157
 30
0.0
 10
-64.5378
 20
2.2157
 30
0.0
 10
-65.3462
 20
11.0951
 30
0.0
 10
-49.9204
 20
12.171
 30
0.0
 10
-50.8664
 20
1.7508
 30
0.0
  0
SPLINE
  5
70
330
1F
100
AcDbEntity
  8
layer 1
 62
    22
370
     9
100
AcDbSpline
210
0.0
220
0.0
230
1.0
 70
    11
 71
     3
 72
    12
 73
     8
 74
     0
 42
0.0000000001
 43
0.0000000001
 40
0.0
 40
0.0
 40
0.0
 40
0.0
 40
0.5
 40
0.5
 40
0.5
 40
0.5
 40
1.0
 40
1.0
 40
1.0
 40
1.0
 10
-69.7044
 20
2.21
 30
0.0
 10
-74.659
 20
6.5427
 30
0.0
 10
-80.1484
 20
4.4566
 30
0.0
 10
-83.1423
 20
-0.5992
 30
0.0
 10
-83.1423
 20
-0.5992
 30
0.0
 10
-86.8327
 20
7.6349
 30
0.0
 10
-72.1939
 20
12.3235
 30
0.0
 10
-69.7044
 20
2.21
 30
0.0
  0
SPLINE
  5
71
330
1F
100
AcDbEntity
  8
layer 1
 62
    22
370
     9
100
AcDbSpline
210
0.0
220
0.0
230
1.0
 70
    11
 71
     3
 72
    12
 73
     8
 74
     0
 42
0.0000000001
 43
0.0000000001
 40
0.0
 40
0.0
 40
0.0
 40
0.0
 40
0.5
 40
0.5
 40
0.5
 40
0.5
 40
1.0
 40
1.0
 40
1.0
 40
1.0
 10
-89.3101
 20
-0.8316
 30
0.0
 10
-94.2648
 20
3.5011
 30
0.0
 10
-99.7542
 20
1.415
 30
0.0
 10
-102.7481
 20
-3.6409
 30
0.0
 10
-102.7481
 20
-3.6409
 30
0.0
 10
-106.4385
 20
4.5932
 30
0.0
 10
-91.7997
 20
9.2819
 30
0.0
 10
-89.3101
 20
-0.8316
 30
0.0
  0
SPLINE
  5
72
330
1F
100
AcDbEntity
  8
layer 1
 62
    22
370
     9
100
AcDbSpline
210
0.0
220
0.0
230
1.0
 70
    11
 71
     3
 72
    12
 73
     8
 74
     0
 42
0.0000000001
 43
0.0000000001
 40
0.0
 40
0.0
 40
0.0
 40
0.0
 40
0.5
 40
0.5
 40
0.5
 40
0.5
 40
1.0
 40
1.0
 40
1.0
 40
1.0
 10
-97.7616
 20
9.2486
 30
0.0
 10
-102.7163
 20
13.5813
 30
0.0
 10
-108.2057
 20
11.4951
 30
0.0
 10
-111.1996
 20
6.4393
 30
0.0
 10
-111.1996
 20
6.4393
 30
0.0
 10
-114.89
 20
14.6734
 30
0.0
 10
-100.2512
 20
19.362
 30
0.0
 10
-97.7616
 20
9.2486
 30
0.0
  0
SPLINE
  5
73
330
1F
100
AcDbEntity
  8
layer 1
 62
    22
370
     9
100
AcDbSpline
210
0.0
220
0.0
230
1.0
 70
    11
 71
     3
 72
    12
 73
     8
 74
     0
 42
0.0000000001
 43
0.0000000001
 40
0.0
 40
0.0
 40
0.0
 40
0.0
 40
0.5
 40
0.5
 40
0.5
 40
0.5
 40
1.0
 40
1.0
 40
1.0
 40
1.0
 10
-78.8009
 20
11.3506
 30
0.0
 10
-83.2288
 20
16.0834
 30
0.0
 10
-88.9052
 20
14.445
 30
0.0
 10
-92.4395
 20
9.636
 30
0.0
 10
-92.4395
 20
9.636
 30
0.0
 10
-95.1774
 20
18.1648
 30
0.0
 10
-80.1377
 20
21.6599
 30
0.0
 10
-78.8009
 20
11.3506
 30
0.0
  0
SPLINE
  5
74
330
1F
100
AcDbEntity
  8
layer 1
 62
    22
370
     9
100
AcDbSpline
210
0.0
220
0.0
230
1.0
 70
    11
 71
     3
 72
    12
 73
     8
 74
     0
 42
0.0000000001
 43
0.0000000001
 40
0.0
 40
0.0
 40
0.0
 40
0.0
 40
0.5
 40
0.5
 40
0.5
 40
0.5
 40
1.0
 40
1.0
 40
1.0
 40
1.0
 10
-59.7801
 20
13.0133
 30
0.0
 10
-64.0846
 20
17.8298
 30
0.0
 10
-69.7957
 20
16.2938
 30
0.0
 10
-73.4467
 20
11.546
 30
0.0
 10
-73.4467
 20
11.546
 30
0.0
 10
-75.9677
 20
20.1303
 30
0.0
 10
-60.8571
 20
23.3537
 30
0.0
 10
-59.7801
 20
13.0133
 30
0.0
  0
SPLINE
  5
75
330
1F
100
AcDbEntity
  8
layer 1
 62
    22
370
     9
100
AcDbSpline
210
0.0
220
0.0
230
1.0
 70
    11
 71
     3
 72
    12
 73
     8
 74
     0
 42
0.0000000001
 43
0.0000000001
 40
0.0
 40
0.0
 40
0.0
 40
0.0
 40
0.5
 40
0.5
 40
0.5
 40
0.5
 40
1.0
 40
1.0
 40
1.0
 40
1.0
 10
-38.9218
 20
12.9184
 30
0.0
 10
-43.2541
 20
17.7163
 30
0.0
 10
-48.9578
 20
16.1573
 30
0.0
 10
-52.5827
 20
11.3956
 30
0.0
 10
-52.5827
 20
11.3956
 30
0.0
 10
-55.1525
 20
19.9677
 30
0.0
 10
-40.0571
 20
23.2522
 30
0.0
 10
-38.9218
 20
12.9184
 30
0.0
  0
SPLINE
  5
76
330
1F
100
AcDbEntity
  8
layer 1
 62
    22
370
     9
100
AcDbSpline
210
0.0
220
0.0
230
1.0
 70
    11
 71
     3
 72
    12
 73
     8
 74
     0
 42
0.0000000001
 43
0.0000000001
 40
0.0
 40
0.0
 40
0.0
 40
0.0
 40
0.5
 40
0.5
 40
0.5
 40
0.5
 40
1.0
 40
1.0
 40
1.0
 40
1.0
 10
-89.2409
 20
21.222
 30
0.0
 10
-93.4448
 20
26.1041
 30
0.0
 10
-99.182
 20
24.6507
 30
0.0
 10
-102.9254
 20
19.9537
 30
0.0
 10
-102.9254
 20
19.9537
 30
0.0
 10
-105.2716
 20
28.5795
 30
0.0
 10
-90.109
 20
31.5838
 30
0.0
 10
-89.2409
 20
21.222
 30
0.0
  0
SPLINE
  5
77
330
1F
100
AcDbEntity
  8
layer 1
 62
    22
370
     9
100
AcDbSpline
210
0.0
220
0.0
230
1.0
 70
    11
 71
     3
 72
    12
 73
     8
 74
     0
 42
0.0000000001
 43
0.0000000001
 40
0.0
 40
0.0
 40
0.0
 40
0.0
 40
0.5
 40
0.5
 40
0.5
 40
0.5
 40
1.0
 40
1.0
 40
1.0
 40
1.0
 10
-68.3106
 20
22.9086
 30
0.0
 10
-72.5145
 20
27.7907
 30
0.0
 10
-78.2517
 20
26.3373
 30
0.0
 10
-81.9951
 20
21.6403
 30
0.0
 10
-81.9951
 20
21.6403
 30
0.0
 10
-84.3413
 20
30.2661
 30
0.0
 10
-69.1786
 20
33.2704
 30
0.0
 10
-68.3106
 20
22.9086
 30
0.0
  0
SPLINE
  5
78
330
1F
100
AcDbEntity
  8
layer 1
 62
    22
370
     9
100
AcDbSpline
210
0.0
220
0.0
230
1.0
 70
    11
 71
     3
 72
    12
 73
     8
 74
     0
 42
0.0000000001
 43
0.0000000001
 40
0.0
 40
0.0
 40
0.0
 40
0.0
 40
0.5
 40
0.5
 40
0.5
 40
0.5
 40
1.0
 40
1.0
 40
1.0
 40
1.0
 10
-47.5826
 20
21.8391
 30
0.0
 10
-51.7865
 20
26.7212
 30
0.0
 10
-57.5237
 20
25.2678
 30
0.0
 10
-61.2671
 20
20.5708
 30
0.0
 10
-61.2671
 20
20.5708
 30
0.0
 10
-63.6133
 20
29.1966
 30
0.0
 10
-48.4507
 20
32.2009
 30
0.0
 10
-47.5826
 20
21.8391
 30
0.0
  0
SPLINE
  5
79
330
1F
100
AcDbEntity
  8
layer 1
 62
    22
370
     9
100
AcDbSpline
210
0.0
220
0.0
230
1.0
 70
    11
 71
     3
 72
    12
 73
     8
 74
     0
 42
0.0000000001
 43
0.0000000001
 40
0.0
 40
0.0
 40
0.0
 40
0.0
 40
0.5
 40
0.5
 40
0.5
 40
0.5
 40
1.0
 40
1.0
 40
1.0
 40
1.0
 10
-24.2827
 20
16.486
 30
0.0
 10
-27.2088
 20
20.1476
 30
0.0
 10
-32.4124
 20
19.1667
 30
0.0
 10
-36.3667
 20
15.7657
 30
0.0
 10
-36.3667
 20
15.7657
 30
0.0
 10
-37.1197
 20
22.1556
 30
0.0
 10
-23.4921
 20
24.1315
 30
0.0
 10
-24.2827
 20
16.486
 30
0.0
  0
SPLINE
  5
7A
330
1F
100
AcDbEntity
  8
layer 1
 62
    22
370
     9
100
AcDbSpline
210
0.0
220
0.0
230
1.0
 70
    11
 71
     3
 72
    12
 73
     8
 74
     0
 42
0.0000000001
 43
0.0000000001
 40
0.0
 40
0.0
 40
0.0
 40
0.0
 40
0.5
 40
0.5
 40
0.5
 40
0.5
 40
1.0
 40
1.0
 40
1.0
 40
1.0
 10
-16.6493
 20
26.3874
 30
0.0
 10
-18.4317
 20
32.309
 30
0.0
 10
-24.3125
 20
32.7042
 30
0.0
 10
-29.7423
 20
29.4119
 30
0.0
 10
-29.7423
 20
29.4119
 30
0.0
 10
-28.2298
 20
38.3054
 30
0.0
 10
-13.0432
 20
36.4684
 30
0.0
 10
-16.6493
 20
26.3874
 30
0.0
  0
SPLINE
  5
7B
330
1F
100
AcDbEntity
  8
layer 1
 62
    22
370
     9
100
AcDbSpline
210
0.0
220
0.0
230
1.0
 70
    11
 71
     3
 72
    12
 73
     8
 74
     0
 42
0.0000000001
 43
0.0000000001
 40
0.0
 40
0.0
 40
0.0
 40
0.0
 40
0.5
 40
0.5
 40
0.5
 40
0.5
 40
1.0
 40
1.0
 40
1.0
 40
1.0
 10
-8.5844
 20
15.569
 30
0.0
 10
-10.3667
 20
21.4906
 30
0.0
 10
-16.2476
 20
21.8859
 30
0.0
 10
-21.6774
 20
18.5935
 30
0.0
 10
-21.6774
 20
18.5935
 30
0.0
 10
-20.1649
 20
27.487
 30
0.0
 10
-4.9783
 20
25.65
 30
0.0
 10
-8.5844
 20
15.569
 30
0.0
  0
SPLINE
  5
7C
330
1F
100
AcDbEntity
  8
layer 1
 62
    22
370
     9
100
AcDbSpline
210
0.0
220
0.0
230
1.0
 70
    11
 71
     3
 72
    12
 73
     8
 74
     0
 42
0.0000000001
 43
0.0000000001
 40
0.0
 40
0.0
 40
0.0
 40
0.0
 40
0.5
 40
0.5
 40
0.5
 40
0.5
 40
1.0
 40
1.0
 40
1.0
 40
1.0
 10
0.3639
 20
27.7587
 30
0.0
 10
-1.4184
 20
33.6803
 30
0.0
 10
-7.2992
 20
34.0756
 30
0.0
 10
-12.729
 20
30.7832
 30
0.0
 10
-12.729
 20
30.7832
 30
0.0
 10
-11.2165
 20
39.6767
 30
0.0
 10
3.9701
 20
37.8398
 30
0.0
 10
0.3639
 20
27.7587
 30
0.0
  0
SPLINE
  5
7D
330
1F
100
AcDbEntity
  8
layer 1
 62
    22
370
     9
100
AcDbSpline
210
0.0
220
0.0
230
1.0
 70
    11
 71
     3
 72
    12
 73
     8
 74
     0
 42
0.0000000001
 43
0.0000000001
 40
0.0
 40
0.0
 40
0.0
 40
0.0
 40
0.5
 40
0.5
 40
0.5
 40
0.5
 40
1.0
 40
1.0
 40
1.0
 40
1.0
 10
-13.5158
 20
43.5391
 30
0.0
 10
-15.2981
 20
49.4607
 30
0.0
 10
-21.1789
 20
49.8559
 30
0.0
 10
-26.6088
 20
46.5636
 30
0.0
 10
-26.6088
 20
46.5636
 30
0.0
 10
-25.0962
 20
55.4571
 30
0.0
 10
-9.9096
 20
53.6201
 30
0.0
 10
-13.5158
 20
43.5391
 30
0.0
  0
SPLINE
  5
7E
330
1F
100
AcDbEntity
  8
layer 1
 62
    22
370
     9
100
AcDbSpline
210
0.0
220
0.0
230
1.0
 70
    11
 71
     3
 72
    12
 73
     8
 74
     0
 42
0.0000000001
 43
0.0000000001
 40
0.0
 40
0.0
 40
0.0
 40
0.0
 40
0.5
 40
0.5
 40
0.5
 40
0.5
 40
1.0
 40
1.0
 40
1.0
 40
1.0
 10
8.4728
 20
39.2175
 30
0.0
 10
6.6905
 20
45.1391
 30
0.0
 10
0.8096
 20
45.5343
 30
0.0
 10
-4.6202
 20
42.242
 30
0.0
 10
-4.6202
 20
42.242
 30
0.0
 10
-3.1077
 20
51.1355
 30
0.0
 10
12.0789
 20
49.2985
 30
0.0
 10
8.4728
 20
39.2175
 30
0.0
  0
SPLINE
  5
7F
330
1F
100
AcDbEntity
  8
layer 1
 62
    22
370
     9
100
AcDbSpline
210
0.0
220
0.0
230
1.0
 70
    11
 71
     3
 72
    12
 73
     8
 74
     0
 42
0.0000000001
 43
0.0000000001
 40
0.0
 40
0.0
 40
0.0
 40
0.0
 40
0.5
 40
0.5
 40
0.5
 40
0.5
 40
1.0
 40
1.0
 40
1.0
 40
1.0
 10
-4.9872
 20
52.4821
 30
0.0
 10
-6.7695
 20
58.4038
 30
0.0
 10
-12.6504
 20
58.799
 30
0.0
 10
-18.0802
 20
55.5067
 30
0.0
 10
-18.0802
 20
55.5067
 30
0.0
 10
-16.5676
 20
64.4001
 30
0.0
 10
-1.3811
 20
62.5632
 30
0.0
 10
-4.9872
 20
52.4821
 30
0.0
  0
SPLINE
  5
80
330
1F
100
AcDbEntity
  8
layer 1
 62
    22
370
     9
100
AcDbSpline
210
0.0
220
0.0
230
1.0
 70
    11
 71
     3
 72
    12
 73
     8
 74
     0
 42
0.0000000001
 43
0.0000000001
 40
0.0
 40
0.0
 40
0.0
 40
0.0
 40
0.5
 40
0.5
 40
0.5
 40
0.5
 40
1.0
 40
1.0
 40
1.0
 40
1.0
 10
5.5029
 20
63.5261
 30
0.0
 10
4.0111
 20
68.4824
 30
0.0
 10
-0.911
 20
68.8132
 30
0.0
 10
-5.4557
 20
66.0576
 30
0.0
 10
-5.4557
 20
66.0576
 30
0.0
 10
-4.1897
 20
73.5013
 30
0.0
 10
8.5212
 20
71.9638
 30
0.0
 10
5.5029
 20
63.5261
 30
0.0
  0
SPLINE
  5
81
330
1F
100
AcDbEntity
  8
layer 1
 62
    22
370
     9
100
AcDbSpline
210
0.0
220
0.0
230
1.0
 70
    11
 71
     3
 72
    12
 73
     8
 74
     0
 42
0.0000000001
 43
0.0000000001
 40
0.0
 40
0.0
 40
0.0
 40
0.0
 40
0.5
 40
0.5
 40
0.5
 40
0.5
 40
1.0
 40
1.0
 40
1.0
 40
1.0
 10
-26.6775
 20
36.8132
 30
0.0
 10
-28.1693
 20
41.7695
 30
0.0
 10
-33.0914
 20
42.1003
 30
0.0
 10
-37.6361
 20
39.3447
 30
0.0
 10
-37.6361
 20
39.3447
 30
0.0
 10
-36.3701
 20
46.7884
 30
0.0
 10
-23.6592
 20
45.2509
 30
0.0
 10
-26.6775
 20
36.8132
 30
0.0
  0
SPLINE
  5
82
330
1F
100
AcDbEntity
  8
layer 1
 62
    22
370
     9
100
AcDbSpline
210
0.0
220
0.0
230
1.0
 70
    11
 71
     3
 72
    12
 73
     8
 74
     0
 42
0.0000000001
 43
0.0000000001
 40
0.0
 40
0.0
 40
0.0
 40
0.0
 40
0.5
 40
0.5
 40
0.5
 40
0.5
 40
1.0
 40
1.0
 40
1.0
 40
1.0
 10
-32.826
 20
27.4276
 30
0.0
 10
-35.52
 20
31.9631
 30
0.0
 10
-40.4562
 20
31.4013
 30
0.0
 10
-44.2587
 20
27.9161
 30
0.0
 10
-44.2587
 20
27.9161
 30
0.0
 10
-44.8463
 20
35.3565
 30
0.0
 10
-31.9305
 20
36.1454
 30
0.0
 10
-32.826
 20
27.4276
 30
0.0
  0
SPLINE
  5
83
330
1F
100
AcDbEntity
  8
layer 1
 62
    22
370
     9
100
AcDbSpline
210
0.0
220
0.0
230
1.0
 70
    11
 71
     3
 72
    12
 73
     8
 74
     0
 42
0.0000000001
 43
0.0000000001
 40
0.0
 40
0.0
 40
0.0
 40
0.0
 40
0.5
 40
0.5
 40
0.5
 40
0.5
 40
1.0
 40
1.0
 40
1.0
 40
1.0
 10
40.8814
 20
74.4346
 30
0.0
 10
42.2265
 20
85.0068
 30
0.0
 10
51.1028
 20
86.7432
 30
0.0
 10
44.3047
 20
99.5939
 30
0.0
 10
44.3047
 20
99.5939
 30
0.0
 10
42.1667
 20
94.2056
 30
0.0
 10
32.6793
 20
86.3686
 30
0.0
 10
40.8814
 20
74.4346
 30
0.0
  0
SPLINE
  5
84
330
1F
100
AcDbEntity
  8
layer 1
 62
    22
370
     9
100
AcDbSpline
210
0.0
220
0.0
230
1.0
 70
    11
 71
     3
 72
    12
 73
     8
 74
     0
 42
0.0000000001
 43
0.0000000001
 40
0.0
 40
0.0
 40
0.0
 40
0.0
 40
0.5
 40
0.5
 40
0.5
 40
0.5
 40
1.0
 40
1.0
 40
1.0
 40
1.0
 10
-57.7558
 20
32.3494
 30
0.0
 10
-60.8921
 20
36.9486
 30
0.0
 10
-66.7063
 20
35.9622
 30
0.0
 10
-71.2084
 20
31.9638
 30
0.0
 10
-71.2084
 20
31.9638
 30
0.0
 10
-71.8436
 20
39.8115
 30
0.0
 10
-56.6357
 20
41.6697
 30
0.0
 10
-57.7558
 20
32.3494
 30
0.0
  0
SPLINE
  5
85
330
1F
100
AcDbEntity
  8
layer 1
 62
    22
370
     9
100
AcDbSpline
210
0.0
220
0.0
230
1.0
 70
    11
 71
     3
 72
    12
 73
     8
 74
     0
 42
0.0000000001
 43
0.0000000001
 40
0.0
 40
0.0
 40
0.0
 40
0.0
 40
0.5
 40
0.5
 40
0.5
 40
0.5
 40
1.0
 40
1.0
 40
1.0
 40
1.0
 10
-80.3782
 20
31.2445
 30
0.0
 10
-83.5146
 20
35.8436
 30
0.0
 10
-89.3288
 20
34.8572
 30
0.0
 10
-93.8309
 20
30.8588
 30
0.0
 10
-93.8309
 20
30.8588
 30
0.0
 10
-94.4661
 20
38.7065
 30
0.0
 10
-79.2581
 20
40.5647
 30
0.0
 10
-80.3782
 20
31.2445
 30
0.0
  0
SPLINE
  5
86
330
1F
100
AcDbEntity
  8
layer 1
 62
    22
370
     9
100
AcDbSpline
210
0.0
220
0.0
230
1.0
 70
    11
 71
     3
 72
    12
 73
     8
 74
     0
 42
0.0000000001
 43
0.0000000001
 40
0.0
 40
0.0
 40
0.0
 40
0.0
 40
0.5
 40
0.5
 40
0.5
 40
0.5
 40
1.0
 40
1.0
 40
1.0
 40
1.0
 10
-91.9383
 20
40.5152
 30
0.0
 10
-95.0747
 20
45.1144
 30
0.0
 10
-100.8889
 20
44.1279
 30
0.0
 10
-105.391
 20
40.1296
 30
0.0
 10
-105.391
 20
40.1296
 30
0.0
 10
-106.0262
 20
47.9773
 30
0.0
 10
-90.8182
 20
49.8355
 30
0.0
 10
-91.9383
 20
40.5152
 30
0.0
  0
SPLINE
  5
87
330
1F
100
AcDbEntity
  8
layer 1
 62
    22
370
     9
100
AcDbSpline
210
0.0
220
0.0
230
1.0
 70
    11
 71
     3
 72
    12
 73
     8
 74
     0
 42
0.0000000001
 43
0.0000000001
 40
0.0
 40
0.0
 40
0.0
 40
0.0
 40
0.5
 40
0.5
 40
0.5
 40
0.5
 40
1.0
 40
1.0
 40
1.0
 40
1.0
 10
-70.8626
 20
41.0719
 30
0.0
 10
-73.999
 20
45.6711
 30
0.0
 10
-79.8132
 20
44.6847
 30
0.0
 10
-84.3152
 20
40.6863
 30
0.0
 10
-84.3152
 20
40.6863
 30
0.0
 10
-84.9504
 20
48.534
 30
0.0
 10
-69.7425
 20
50.3922
 30
0.0
 10
-70.8626
 20
41.0719
 30
0.0
  0
SPLINE
  5
88
330
1F
100
AcDbEntity
  8
layer 1
 62
    22
370
     9
100
AcDbSpline
210
0.0
220
0.0
230
1.0
 70
    11
 71
     3
 72
    12
 73
     8
 74
     0
 42
0.0000000001
 43
0.0000000001
 40
0.0
 40
0.0
 40
0.0
 40
0.0
 40
0.5
 40
0.5
 40
0.5
 40
0.5
 40
1.0
 40
1.0
 40
1.0
 40
1.0
 10
-41.2805
 20
38.6281
 30
0.0
 10
-44.6803
 20
43.0835
 30
0.0
 10
-50.4433
 20
41.8604
 30
0.0
 10
-54.7221
 20
37.689
 30
0.0
 10
-54.7221
 20
37.689
 30
0.0
 10
-55.803
 20
45.4859
 30
0.0
 10
-40.6882
 20
47.9652
 30
0.0
 10
-41.2805
 20
38.6281
 30
0.0
  0
SPLINE
  5
89
330
1F
100
AcDbEntity
  8
layer 1
 62
    22
370
     9
100
AcDbSpline
210
0.0
220
0.0
230
1.0
 70
    11
 71
     3
 72
    12
 73
     8
 74
     0
 42
0.0000000001
 43
0.0000000001
 40
0.0
 40
0.0
 40
0.0
 40
0.0
 40
0.5
 40
0.5
 40
0.5
 40
0.5
 40
1.0
 40
1.0
 40
1.0
 40
1.0
 10
-37.0056
 20
49.3809
 30
0.0
 10
-40.4055
 20
53.8363
 30
0.0
 10
-46.1684
 20
52.6132
 30
0.0
 10
-50.4473
 20
48.4418
 30
0.0
 10
-50.4473
 20
48.4418
 30
0.0
 10
-51.5282
 20
56.2386
 30
0.0
 10
-36.4134
 20
58.718
 30
0.0
 10
-37.0056
 20
49.3809
 30
0.0
  0
SPLINE
  5
8A
330
1F
100
AcDbEntity
  8
layer 1
 62
    22
370
     9
100
AcDbSpline
210
0.0
220
0.0
230
1.0
 70
    11
 71
     3
 72
    12
 73
     8
 74
     0
 42
0.0000000001
 43
0.0000000001
 40
0.0
 40
0.0
 40
0.0
 40
0.0
 40
0.5
 40
0.5
 40
0.5
 40
0.5
 40
1.0
 40
1.0
 40
1.0
 40
1.0
 10
-23.7609
 20
56.3599
 30
0.0
 10
-25.7882
 20
61.4201
 30
0.0
 10
-31.6712
 20
61.3879
 30
0.0
 10
-36.9491
 20
58.1623
 30
0.0
 10
-36.9491
 20
58.1623
 30
0.0
 10
-35.8148
 20
66.0309
 30
0.0
 10
-20.5881
 20
65.4007
 30
0.0
 10
-23.7609
 20
56.3599
 30
0.0
  0
SPLINE
  5
8B
330
1F
100
AcDbEntity
  8
layer 1
 62
    22
370
     9
100
AcDbSpline
210
0.0
220
0.0
230
1.0
 70
    11
 71
     3
 72
    12
 73
     8
 74
     0
 42
0.0000000001
 43
0.0000000001
 40
0.0
 40
0.0
 40
0.0
 40
0.0
 40
0.5
 40
0.5
 40
0.5
 40
0.5
 40
1.0
 40
1.0
 40
1.0
 40
1.0
 10
-13.294
 20
66.0522
 30
0.0
 10
-15.3213
 20
71.1123
 30
0.0
 10
-21.2044
 20
71.0801
 30
0.0
 10
-26.4822
 20
67.8545
 30
0.0
 10
-26.4822
 20
67.8545
 30
0.0
 10
-25.3479
 20
75.7231
 30
0.0
 10
-10.1212
 20
75.093
 30
0.0
 10
-13.294
 20
66.0522
 30
0.0
  0
SPLINE
  5
8C
330
1F
100
AcDbEntity
  8
layer 1
 62
    22
370
     9
100
AcDbSpline
210
0.0
220
0.0
230
1.0
 70
    11
 71
     3
 72
    12
 73
     8
 74
     0
 42
0.0000000001
 43
0.0000000001
 40
0.0
 40
0.0
 40
0.0
 40
0.0
 40
0.5
 40
0.5
 40
0.5
 40
0.5
 40
1.0
 40
1.0
 40
1.0
 40
1.0
 10
-7.1394
 20
75.2647
 30
0.0
 10
-9.1667
 20
80.3249
 30
0.0
 10
-15.0497
 20
80.2927
 30
0.0
 10
-20.3276
 20
77.0671
 30
0.0
 10
-20.3276
 20
77.0671
 30
0.0
 10
-19.1933
 20
84.9357
 30
0.0
 10
-3.9666
 20
84.3055
 30
0.0
 10
-7.1394
 20
75.2647
 30
0.0
  0
SPLINE
  5
8D
330
1F
100
AcDbEntity
  8
layer 1
 62
    22
370
     9
100
AcDbSpline
210
0.0
220
0.0
230
1.0
 70
    11
 71
     3
 72
    12
 73
     8
 74
     0
 42
0.0000000001
 43
0.0000000001
 40
0.0
 40
0.0
 40
0.0
 40
0.0
 40
0.5
 40
0.5
 40
0.5
 40
0.5
 40
1.0
 40
1.0
 40
1.0
 40
1.0
 10
-56.6888
 20
47.6988
 30
0.0
 10
-59.1334
 20
52.6108
 30
0.0
 10
-65.0162
 20
52.2269
 30
0.0
 10
-70.0308
 20
48.7028
 30
0.0
 10
-70.0308
 20
48.7028
 30
0.0
 10
-69.5435
 20
56.5973
 30
0.0
 10
-54.2588
 20
56.8812
 30
0.0
 10
-56.6888
 20
47.6988
 30
0.0
  0
SPLINE
  5
8E
330
1F
100
AcDbEntity
  8
layer 1
 62
    22
370
     9
100
AcDbSpline
210
0.0
220
0.0
230
1.0
 70
    11
 71
     3
 72
    12
 73
     8
 74
     0
 42
0.0000000001
 43
0.0000000001
 40
0.0
 40
0.0
 40
0.0
 40
0.0
 40
0.5
 40
0.5
 40
0.5
 40
0.5
 40
1.0
 40
1.0
 40
1.0
 40
1.0
 10
-47.9185
 20
59.6596
 30
0.0
 10
-50.3631
 20
64.5715
 30
0.0
 10
-56.2458
 20
64.1876
 30
0.0
 10
-61.2604
 20
60.6635
 30
0.0
 10
-61.2604
 20
60.6635
 30
0.0
 10
-60.7732
 20
68.558
 30
0.0
 10
-45.4884
 20
68.8419
 30
0.0
 10
-47.9185
 20
59.6596
 30
0.0
  0
SPLINE
  5
8F
330
1F
100
AcDbEntity
  8
layer 1
 62
    22
370
     9
100
AcDbSpline
210
0.0
220
0.0
230
1.0
 70
    11
 71
     3
 72
    12
 73
     8
 74
     0
 42
0.0000000001
 43
0.0000000001
 40
0.0
 40
0.0
 40
0.0
 40
0.0
 40
0.5
 40
0.5
 40
0.5
 40
0.5
 40
1.0
 40
1.0
 40
1.0
 40
1.0
 10
-37.5409
 20
68.9014
 30
0.0
 10
-39.9855
 20
73.8133
 30
0.0
 10
-45.8683
 20
73.4294
 30
0.0
 10
-50.8829
 20
69.9053
 30
0.0
 10
-50.8829
 20
69.9053
 30
0.0
 10
-50.3957
 20
77.7998
 30
0.0
 10
-35.1109
 20
78.0838
 30
0.0
 10
-37.5409
 20
68.9014
 30
0.0
  0
SPLINE
  5
90
330
1F
100
AcDbEntity
  8
layer 1
 62
    22
370
     9
100
AcDbSpline
210
0.0
220
0.0
230
1.0
 70
    11
 71
     3
 72
    12
 73
     8
 74
     0
 42
0.0000000001
 43
0.0000000001
 40
0.0
 40
0.0
 40
0.0
 40
0.0
 40
0.5
 40
0.5
 40
0.5
 40
0.5
 40
1.0
 40
1.0
 40
1.0
 40
1.0
 10
-25.6032
 20
78.4675
 30
0.0
 10
-28.0478
 20
83.3794
 30
0.0
 10
-33.9306
 20
82.9955
 30
0.0
 10
-38.9451
 20
79.4715
 30
0.0
 10
-38.9451
 20
79.4715
 30
0.0
 10
-38.4579
 20
87.366
 30
0.0
 10
-23.1731
 20
87.6499
 30
0.0
 10
-25.6032
 20
78.4675
 30
0.0
  0
SPLINE
  5
91
330
1F
100
AcDbEntity
  8
layer 1
 62
    22
370
     9
100
AcDbSpline
210
0.0
220
0.0
230
1.0
 70
    11
 71
     3
 72
    12
 73
     8
 74
     0
 42
0.0000000001
 43
0.0000000001
 40
0.0
 40
0.0
 40
0.0
 40
0.0
 40
0.5
 40
0.5
 40
0.5
 40
0.5
 40
1.0
 40
1.0
 40
1.0
 40
1.0
 10
-80.575
 20
50.9704
 30
0.0
 10
-83.0196
 20
55.8824
 30
0.0
 10
-88.9024
 20
55.4984
 30
0.0
 10
-93.917
 20
51.9744
 30
0.0
 10
-93.917
 20
51.9744
 30
0.0
 10
-93.4298
 20
59.8689
 30
0.0
 10
-78.145
 20
60.1528
 30
0.0
 10
-80.575
 20
50.9704
 30
0.0
  0
SPLINE
  5
92
330
1F
100
AcDbEntity
  8
layer 1
 62
    22
370
     9
100
AcDbSpline
210
0.0
220
0.0
230
1.0
 70
    11
 71
     3
 72
    12
 73
     8
 74
     0
 42
0.0000000001
 43
0.0000000001
 40
0.0
 40
0.0
 40
0.0
 40
0.0
 40
0.5
 40
0.5
 40
0.5
 40
0.5
 40
1.0
 40
1.0
 40
1.0
 40
1.0
 10
-68.8981
 20
60.5201
 30
0.0
 10
-71.3426
 20
65.432
 30
0.0
 10
-77.2254
 20
65.0481
 30
0.0
 10
-82.24
 20
61.524
 30
0.0
 10
-82.24
 20
61.524
 30
0.0
 10
-81.7528
 20
69.4185
 30
0.0
 10
-66.468
 20
69.7025
 30
0.0
 10
-68.8981
 20
60.5201
 30
0.0
  0
SPLINE
  5
93
330
1F
100
AcDbEntity
  8
layer 1
 62
    22
370
     9
100
AcDbSpline
210
0.0
220
0.0
230
1.0
 70
    11
 71
     3
 72
    12
 73
     8
 74
     0
 42
0.0000000001
 43
0.0000000001
 40
0.0
 40
0.0
 40
0.0
 40
0.0
 40
0.5
 40
0.5
 40
0.5
 40
0.5
 40
1.0
 40
1.0
 40
1.0
 40
1.0
 10
-59.3479
 20
69.6165
 30
0.0
 10
-61.7925
 20
74.5284
 30
0.0
 10
-67.6753
 20
74.1445
 30
0.0
 10
-72.6898
 20
70.6204
 30
0.0
 10
-72.6898
 20
70.6204
 30
0.0
 10
-72.2026
 20
78.5149
 30
0.0
 10
-56.9178
 20
78.7988
 30
0.0
 10
-59.3479
 20
69.6165
 30
0.0
  0
SPLINE
  5
94
330
1F
100
AcDbEntity
  8
layer 1
 62
    22
370
     9
100
AcDbSpline
210
0.0
220
0.0
230
1.0
 70
    11
 71
     3
 72
    12
 73
     8
 74
     0
 42
0.0000000001
 43
0.0000000001
 40
0.0
 40
0.0
 40
0.0
 40
0.0
 40
0.5
 40
0.5
 40
0.5
 40
0.5
 40
1.0
 40
1.0
 40
1.0
 40
1.0
 10
-76.1938
 20
70.5238
 30
0.0
 10
-79.1292
 20
75.1592
 30
0.0
 10
-84.9416
 20
74.174
 30
0.0
 10
-89.5683
 20
70.1542
 30
0.0
 10
-89.5683
 20
70.1542
 30
0.0
 10
-89.8933
 20
78.0571
 30
0.0
 10
-74.7182
 20
79.907
 30
0.0
 10
-76.1938
 20
70.5238
 30
0.0
  0
SPLINE
  5
95
330
1F
100
AcDbEntity
  8
layer 1
 62
    22
370
     9
100
AcDbSpline
210
0.0
220
0.0
230
1.0
 70
    11
 71
     3
 72
    12
 73
     8
 74
     0
 42
0.0000000001
 43
0.0000000001
 40
0.0
 40
0.0
 40
0.0
 40
0.0
 40
0.5
 40
0.5
 40
0.5
 40
0.5
 40
1.0
 40
1.0
 40
1.0
 40
1.0
 10
-46.5688
 20
79.1059
 30
0.0
 10
-49.0134
 20
84.0178
 30
0.0
 10
-54.8962
 20
83.6339
 30
0.0
 10
-59.9107
 20
80.1098
 30
0.0
 10
-59.9107
 20
80.1098
 30
0.0
 10
-59.4235
 20
88.0044
 30
0.0
 10
-44.1387
 20
88.2883
 30
0.0
 10
-46.5688
 20
79.1059
 30
0.0
  0
SPLINE
  5
96
330
1F
100
AcDbEntity
  8
layer 1
 62
    22
370
     9
100
AcDbSpline
210
0.0
220
0.0
230
1.0
 70
    11
 71
     3
 72
    12
 73
     8
 74
     0
 42
0.0000000001
 43
0.0000000001
 40
0.0
 40
0.0
 40
0.0
 40
0.0
 40
0.5
 40
0.5
 40
0.5
 40
0.5
 40
1.0
 40
1.0
 40
1.0
 40
1.0
 10
-13.06
 20
86.4733
 30
0.0
 10
-14.5671
 20
91.7471
 30
0.0
 10
-20.4216
 20
92.4381
 30
0.0
 10
-25.9956
 20
89.8838
 30
0.0
 10
-25.9956
 20
89.8838
 30
0.0
 10
-24.0755
 20
97.5578
 30
0.0
 10
-8.9944
 20
95.0608
 30
0.0
 10
-13.06
 20
86.4733
 30
0.0
  0
SPLINE
  5
97
330
1F
100
AcDbEntity
  8
layer 1
 62
    22
370
     9
100
AcDbSpline
210
0.0
220
0.0
230
1.0
 70
    11
 71
     3
 72
    12
 73
     8
 74
     0
 42
0.0000000001
 43
0.0000000001
 40
0.0
 40
0.0
 40
0.0
 40
0.0
 40
0.5
 40
0.5
 40
0.5
 40
0.5
 40
1.0
 40
1.0
 40
1.0
 40
1.0
 10
-66.0129
 20
79.7104
 30
0.0
 10
-66.3436
 20
84.3986
 30
0.0
 10
-71.2353
 20
85.5137
 30
0.0
 10
-76.4781
 20
83.8012
 30
0.0
 10
-76.4781
 20
83.8012
 30
0.0
 10
-73.434
 20
90.2589
 30
0.0
 10
-60.9636
 20
86.767
 30
0.0
 10
-66.0129
 20
79.7104
 30
0.0
  0
SPLINE
  5
98
330
1F
100
AcDbEntity
  8
layer 1
 62
    22
370
     9
100
AcDbSpline
210
0.0
220
0.0
230
1.0
 70
    11
 71
     3
 72
    12
 73
     8
 74
     0
 42
0.0000000001
 43
0.0000000001
 40
0.0
 40
0.0
 40
0.0
 40
0.0
 40
0.5
 40
0.5
 40
0.5
 40
0.5
 40
1.0
 40
1.0
 40
1.0
 40
1.0
 10
-58.5586
 20
87.102
 30
0.0
 10
-58.8892
 20
91.7902
 30
0.0
 10
-63.781
 20
92.9053
 30
0.0
 10
-69.0238
 20
91.1927
 30
0.0
 10
-69.0238
 20
91.1927
 30
0.0
 10
-65.9797
 20
97.6504
 30
0.0
 10
-53.5093
 20
94.1586
 30
0.0
 10
-58.5586
 20
87.102
 30
0.0
  0
SPLINE
  5
99
330
1F
100
AcDbEntity
  8
layer 1
 62
    22
370
     9
100
AcDbSpline
210
0.0
220
0.0
230
1.0
 70
    11
 71
     3
 72
    12
 73
     8
 74
     0
 42
0.0000000001
 43
0.0000000001
 40
0.0
 40
0.0
 40
0.0
 40
0.0
 40
0.5
 40
0.5
 40
0.5
 40
0.5
 40
1.0
 40
1.0
 40
1.0
 40
1.0
 10
-39.6796
 20
89.6834
 30
0.0
 10
-41.328
 20
94.1199
 30
0.0
 10
-46.4393
 20
94.1871
 30
0.0
 10
-51.096
 20
91.4654
 30
0.0
 10
-51.096
 20
91.4654
 30
0.0
 10
-49.9353
 20
98.2947
 30
0.0
 10
-36.7221
 20
97.4998
 30
0.0
 10
-39.6796
 20
89.6834
 30
0.0
  0
SPLINE
  5
9A
330
1F
100
AcDbEntity
  8
layer 1
 62
    22
370
     9
100
AcDbSpline
210
0.0
220
0.0
230
1.0
 70
    11
 71
     3
 72
    12
 73
     8
 74
     0
 42
0.0000000001
 43
0.0000000001
 40
0.0
 40
0.0
 40
0.0
 40
0.0
 40
0.5
 40
0.5
 40
0.5
 40
0.5
 40
1.0
 40
1.0
 40
1.0
 40
1.0
 10
-31.0535
 20
97.91
 30
0.0
 10
-32.3872
 20
102.5044
 30
0.0
 10
-37.4787
 20
103.1249
 30
0.0
 10
-42.3118
 20
100.9203
 30
0.0
 10
-42.3118
 20
100.9203
 30
0.0
 10
-40.6775
 20
107.5922
 30
0.0
 10
-27.5587
 20
105.3698
 30
0.0
 10
-31.0535
 20
97.91
 30
0.0
  0
SPLINE
  5
9B
330
1F
100
AcDbEntity
  8
layer 1
 62
    22
370
     9
100
AcDbSpline
210
0.0
220
0.0
230
1.0
 70
    11
 71
     3
 72
    12
 73
     8
 74
     0
 42
0.0000000001
 43
0.0000000001
 40
0.0
 40
0.0
 40
0.0
 40
0.0
 40
0.5
 40
0.5
 40
0.5
 40
0.5
 40
1.0
 40
1.0
 40
1.0
 40
1.0
 10
-13.8615
 20
100.8651
 30
0.0
 10
-15.3171
 20
105.4225
 30
0.0
 10
-20.4234
 20
105.9078
 30
0.0
 10
-25.196
 20
103.5758
 30
0.0
 10
-25.196
 20
103.5758
 30
0.0
 10
-23.7401
 20
110.2887
 30
0.0
 10
-10.5667
 20
108.4149
 30
0.0
 10
-13.8615
 20
100.8651
 30
0.0
  0
SPLINE
  5
9C
330
1F
100
AcDbEntity
  8
layer 1
 62
    22
370
     9
100
AcDbSpline
210
0.0
220
0.0
230
1.0
 70
    11
 71
     3
 72
    12
 73
     8
 74
     0
 42
0.0000000001
 43
0.0000000001
 40
0.0
 40
0.0
 40
0.0
 40
0.0
 40
0.5
 40
0.5
 40
0.5
 40
0.5
 40
1.0
 40
1.0
 40
1.0
 40
1.0
 10
-47.7715
 20
98.417
 30
0.0
 10
-49.9063
 20
103.1441
 30
0.0
 10
-55.4891
 20
102.9358
 30
0.0
 10
-60.3646
 20
99.7239
 30
0.0
 10
-60.3646
 20
99.7239
 30
0.0
 10
-59.6152
 20
107.2041
 30
0.0
 10
-45.136
 20
107.0681
 30
0.0
 10
-47.7715
 20
98.417
 30
0.0
  0
SPLINE
  5
9D
330
1F
100
AcDbEntity
  8
layer 1
 62
    22
370
     9
100
AcDbSpline
210
0.0
220
0.0
230
1.0
 70
    11
 71
     3
 72
    12
 73
     8
 74
     0
 42
0.0000000001
 43
0.0000000001
 40
0.0
 40
0.0
 40
0.0
 40
0.0
 40
0.5
 40
0.5
 40
0.5
 40
0.5
 40
1.0
 40
1.0
 40
1.0
 40
1.0
 10
37.0227
 20
111.6577
 30
0.0
 10
40.1416
 20
100.1614
 30
0.0
 10
32.8515
 20
96.2141
 30
0.0
 10
31.5363
 20
87.3704
 30
0.0
 10
31.5363
 20
87.3704
 30
0.0
 10
26.4496
 20
98.9789
 30
0.0
 10
31.2137
 20
106.292
 30
0.0
 10
37.0227
 20
111.6577
 30
0.0
  0
SPLINE
  5
9E
330
1F
100
AcDbEntity
  8
layer 1
 62
    22
370
     9
100
AcDbSpline
210
0.0
220
0.0
230
1.0
 70
    11
 71
     3
 72
    12
 73
     8
 74
     0
 42
0.0000000001
 43
0.0000000001
 40
0.0
 40
0.0
 40
0.0
 40
0.0
 40
0.5
 40
0.5
 40
0.5
 40
0.5
 40
1.0
 40
1.0
 40
1.0
 40
1.0
 10
27.511
 20
121.7692
 30
0.0
 10
31.5819
 20
112.1352
 30
0.0
 10
25.2303
 20
107.9475
 30
0.0
 10
24.5422
 20
99.1142
 30
0.0
 10
24.5422
 20
99.1142
 30
0.0
 10
18.6164
 20
111.3312
 30
0.0
 10
23.949
 20
114.6435
 30
0.0
 10
27.511
 20
121.7692
 30
0.0
  0
SPLINE
  5
9F
330
1F
100
AcDbEntity
  8
layer 1
 62
    22
370
     9
100
AcDbSpline
210
0.0
220
0.0
230
1.0
 70
    11
 71
     3
 72
    12
 73
     8
 74
     0
 42
0.0000000001
 43
0.0000000001
 40
0.0
 40
0.0
 40
0.0
 40
0.0
 40
0.5
 40
0.5
 40
0.5
 40
0.5
 40
1.0
 40
1.0
 40
1.0
 40
1.0
 10
18.0811
 20
126.3993
 30
0.0
 10
16.7896
 20
119.0914
 30
0.0
 10
21.3912
 20
113.4553
 30
0.0
 10
14.988
 20
105.8656
 30
0.0
 10
14.988
 20
105.8656
 30
0.0
 10
12.628
 20
112.2691
 30
0.0
 10
10.3834
 20
120.8444
 30
0.0
 10
18.0811
 20
126.3993
 30
0.0
  0
SPLINE
  5
A0
330
1F
100
AcDbEntity
  8
layer 1
 62
    22
370
     9
100
AcDbSpline
210
0.0
220
0.0
230
1.0
 70
    11
 71
     3
 72
    12
 73
     8
 74
     0
 42
0.0000000001
 43
0.0000000001
 40
0.0
 40
0.0
 40
0.0
 40
0.0
 40
0.5
 40
0.5
 40
0.5
 40
0.5
 40
1.0
 40
1.0
 40
1.0
 40
1.0
 10
4.2727
 20
126.7815
 30
0.0
 10
11.9412
 20
123.0241
 30
0.0
 10
6.5384
 20
116.7303
 30
0.0
 10
8.0579
 20
110.4979
 30
0.0
 10
8.0579
 20
110.4979
 30
0.0
 10
-0.5686
 20
118.2096
 30
0.0
 10
4.8751
 20
122.1702
 30
0.0
 10
4.2727
 20
126.7815
 30
0.0
  0
SPLINE
  5
A1
330
1F
100
AcDbEntity
  8
layer 1
 62
    22
370
     9
100
AcDbSpline
210
0.0
220
0.0
230
1.0
 70
    11
 71
     3
 72
    12
 73
     8
 74
     0
 42
0.0000000001
 43
0.0000000001
 40
0.0
 40
0.0
 40
0.0
 40
0.0
 40
0.5
 40
0.5
 40
0.5
 40
0.5
 40
1.0
 40
1.0
 40
1.0
 40
1.0
 10
-36.8265
 20
108.7745
 30
0.0
 10
-38.1102
 20
112.9913
 30
0.0
 10
-42.7867
 20
113.3848
 30
0.0
 10
-47.1889
 20
111.1652
 30
0.0
 10
-47.1889
 20
111.1652
 30
0.0
 10
-45.7789
 20
117.4169
 30
0.0
 10
-33.721
 20
115.8241
 30
0.0
 10
-36.8265
 20
108.7745
 30
0.0
  0
SPLINE
  5
A2
330
1F
100
AcDbEntity
  8
layer 1
 62
    22
370
     9
100
AcDbSpline
210
0.0
220
0.0
230
1.0
 70
    11
 71
     3
 72
    12
 73
     8
 74
     0
 42
0.0000000001
 43
0.0000000001
 40
0.0
 40
0.0
 40
0.0
 40
0.0
 40
0.5
 40
0.5
 40
0.5
 40
0.5
 40
1.0
 40
1.0
 40
1.0
 40
1.0
 10
-22.1913
 20
118.7804
 30
0.0
 10
-46.2023
 20
129.2826
 30
0.0
 10
-46.6273
 20
174.1284
 30
0.0
 10
-21.24
 20
184.099
 30
0.0
 10
-21.24
 20
184.099
 30
0.0
 10
-38.0266
 20
168.4027
 30
0.0
 10
-37.1674
 20
136.7546
 30
0.0
 10
-22.1913
 20
118.7804
 30
0.0
  0
SPLINE
  5
A3
330
1F
100
AcDbEntity
  8
layer 1
 62
    22
370
     9
100
AcDbSpline
210
0.0
220
0.0
230
1.0
 70
    11
 71
     3
 72
    12
 73
     8
 74
     0
 42
0.0000000001
 43
0.0000000001
 40
0.0
 40
0.0
 40
0.0
 40
0.0
 40
0.5
 40
0.5
 40
0.5
 40
0.5
 40
1.0
 40
1.0
 40
1.0
 40
1.0
 10
-58.3661
 20
150.906
 30
0.0
 10
-73.6677
 20
168.7205
 30
0.0
 10
-84.8232
 20
168.8426
 30
0.0
 10
-100.7948
 20
154.1698
 30
0.0
 10
-100.7948
 20
154.1698
 30
0.0
 10
-90.7468
 20
176.4634
 30
0.0
 10
-65.8884
 20
180.5808
 30
0.0
 10
-58.3661
 20
150.906
 30
0.0
  0
SPLINE
  5
A4
330
1F
100
AcDbEntity
  8
layer 1
 62
    22
370
     9
100
AcDbSpline
210
0.0
220
0.0
230
1.0
 70
    11
 71
     3
 72
    12
 73
     8
 74
     0
 42
0.0000000001
 43
0.0000000001
 40
0.0
 40
0.0
 40
0.0
 40
0.0
 40
0.5
 40
0.5
 40
0.5
 40
0.5
 40
1.0
 40
1.0
 40
1.0
 40
1.0
 10
-52.3232
 20
116.5861
 30
0.0
 10
-67.7234
 20
154.8046
 30
0.0
 10
-83.9942
 20
155.2932
 30
0.0
 10
-99.659
 20
142.3052
 30
0.0
 10
-99.659
 20
142.3052
 30
0.0
 10
-90.5683
 20
166.4623
 30
0.0
 10
-60.0743
 20
166.1749
 30
0.0
 10
-52.3232
 20
116.5861
 30
0.0
  0
SPLINE
  5
A5
330
1F
100
AcDbEntity
  8
layer 1
 62
    22
370
     9
100
AcDbSpline
210
0.0
220
0.0
230
1.0
 70
    11
 71
     3
 72
    12
 73
     8
 74
     0
 42
0.0000000001
 43
0.0000000001
 40
0.0
 40
0.0
 40
0.0
 40
0.0
 40
0.5
 40
0.5
 40
0.5
 40
0.5
 40
1.0
 40
1.0
 40
1.0
 40
1.0
 10
-46.3293
 20
156.6198
 30
0.0
 10
-47.8017
 20
174.0817
 30
0.0
 10
-43.6662
 20
183.9264
 30
0.0
 10
-27.6983
 20
194.0368
 30
0.0
 10
-27.6983
 20
194.0368
 30
0.0
 10
-51.8519
 20
193.0277
 30
0.0
 10
-58.4356
 20
175.7218
 30
0.0
 10
-46.3293
 20
156.6198
 30
0.0
  0
SPLINE
  5
A6
330
1F
100
AcDbEntity
  8
layer 1
 62
    22
370
     9
100
AcDbSpline
210
0.0
220
0.0
230
1.0
 70
    11
 71
     3
 72
    20
 73
    16
 74
     0
 42
0.0000000001
 43
0.0000000001
 40
0.0
 40
0.0
 40
0.0
 40
0.0
 40
0.25
 40
0.25
 40
0.25
 40
0.25
 40
0.5
 40
0.5
 40
0.5
 40
0.5
 40
0.75
 40
0.75
 40
0.75
 40
0.75
 40
1.0
 40
1.0
 40
1.0
 40
1.0
 10
-59.6669
 20
-62.0348
 30
0.0
 10
-55.0085
 20
-60.379
 30
0.0
 10
-49.8188
 20
-62.203
 30
0.0
 10
-48.0777
 20
-66.1075
 30
0.0
 10
-48.0777
 20
-66.1075
 30
0.0
 10
-46.3367
 20
-70.012
 30
0.0
 10
-48.7022
 20
-74.5214
 30
0.0
 10
-53.3606
 20
-76.1773
 30
0.0
 10
-53.3606
 20
-76.1773
 30
0.0
 10
-58.0186
 20
-77.833
 30
0.0
 10
-63.2083
 20
-76.009
 30
0.0
 10
-64.9494
 20
-72.1045
 30
0.0
 10
-64.9494
 20
-72.1045
 30
0.0
 10
-66.6905
 20
-68.2
 30
0.0
 10
-64.3249
 20
-63.6905
 30
0.0
 10
-59.6669
 20
-62.0348
 30
0.0
  0
SPLINE
  5
A7
330
1F
100
AcDbEntity
  8
layer 1
 62
    22
370
     9
100
AcDbSpline
210
0.0
220
0.0
230
1.0
 70
     8
 71
     3
 72
     8
 73
     4
 74
     0
 42
0.0000000001
 43
0.0000000001
 40
0.0
 40
0.0
 40
0.0
 40
0.0
 40
1.0
 40
1.0
 40
1.0
 40
1.0
 10
-63.1006
 20
-70.6254
 30
0.0
 10
-58.5617
 20
-68.3858
 30
0.0
 10
-54.3178
 20
-68.5997
 30
0.0
 10
-50.3689
 20
-71.2676
 30
0.0
  0
SPLINE
  5
A8
330
1F
100
AcDbEntity
  8
layer 1
 62
    22
370
     9
100
AcDbSpline
210
0.0
220
0.0
230
1.0
 70
     8
 71
     3
 72
     8
 73
     4
 74
     0
 42
0.0000000001
 43
0.0000000001
 40
0.0
 40
0.0
 40
0.0
 40
0.0
 40
1.0
 40
1.0
 40
1.0
 40
1.0
 10
-55.8896
 20
-65.9618
 30
0.0
 10
-57.599
 20
-66.2519
 30
0.0
 10
-57.1165
 20
-69.0922
 30
0.0
 10
-55.2084
 20
-69.2511
 30
0.0
  0
SPLINE
  5
A9
330
1F
100
AcDbEntity
  8
layer 1
 62
   250
370
     9
100
AcDbSpline
210
0.0
220
0.0
230
1.0
 70
    11
 71
     3
 72
    20
 73
    16
 74
     0
 42
0.0000000001
 43
0.0000000001
 40
0.0
 40
0.0
 40
0.0
 40
0.0
 40
0.25
 40
0.25
 40
0.25
 40
0.25
 40
0.5
 40
0.5
 40
0.5
 40
0.5
 40
0.75
 40
0.75
 40
0.75
 40
0.75
 40
1.0
 40
1.0
 40
1.0
 40
1.0
 10
-45.3033
 20
152.6025
 30
0.0
 10
-42.1109
 20
150.5299
 30
0.0
 10
-41.2896
 20
146.2028
 30
0.0
 10
-43.469
 20
142.9394
 30
0.0
 10
-43.469
 20
142.9394
 30
0.0
 10
-45.6481
 20
139.6764
 30
0.0
 10
-50.0042
 20
138.7106
 30
0.0
 10
-53.1965
 20
140.7832
 30
0.0
 10
-53.1965
 20
140.7832
 30
0.0
 10
-56.3888
 20
142.8557
 30
0.0
 10
-57.2102
 20
147.1828
 30
0.0
 10
-55.0311
 20
150.4458
 30
0.0
 10
-55.0311
 20
150.4458
 30
0.0
 10
-52.8517
 20
153.7092
 30
0.0
 10
-48.4956
 20
154.675
 30
0.0
 10
-45.3033
 20
152.6025
 30
0.0
  0
SPLINE
  5
AA
330
1F
100
AcDbEntity
  8
layer 1
 62
    22
370
     9
100
AcDbSpline
210
0.0
220
0.0
230
1.0
 70
     8
 71
     3
 72
    16
 73
    12
 74
     0
 42
0.0000000001
 43
0.0000000001
 40
0.0
 40
0.0
 40
0.0
 40
0.0
 40
0.3333333333333333
 40
0.3333333333333333
 40
0.3333333333333333
 40
0.3333333333333333
 40
0.6666666666666666
 40
0.6666666666666666
 40
0.6666666666666666
 40
0.6666666666666666
 40
1.0
 40
1.0
 40
1.0
 40
1.0
 10
-65.0095
 20
-96.1771
 30
0.0
 10
-65.1905
 20
-92.8553
 30
0.0
 10
-49.9371
 20
-108.837
 30
0.0
 10
-37.8628
 20
-97.7809
 30
0.0
 10
-37.8628
 20
-97.7809
 30
0.0
 10
-36.8219
 20
-96.8273
 30
0.0
 10
-37.0705
 20
-97.1135
 30
0.0
 10
-36.1691
 20
-98.0749
 30
0.0
 10
-36.1691
 20
-98.0749
 30
0.0
 10
-21.4682
 20
-113.7633
 30
0.0
 10
-8.5467
 20
-97.2441
 30
0.0
 10
-8.7626
 20
-101.3383
 30
0.0
  0
SPLINE
  5
AB
330
1F
100
AcDbEntity
  8
layer 1
 62
    22
370
     9
100
AcDbSpline
210
0.0
220
0.0
230
1.0
 70
    11
 71
     3
 72
    12
 73
     8
 74
     0
 42
0.0000000001
 43
0.0000000001
 40
0.0
 40
0.0
 40
0.0
 40
0.0
 40
0.5
 40
0.5
 40
0.5
 40
0.5
 40
1.0
 40
1.0
 40
1.0
 40
1.0
 10
6.6906
 20
-69.4293
 30
0.0
 10
-11.2361
 20
-62.0646
 30
0.0
 10
-14.4418
 20
-82.5491
 30
0.0
 10
-30.8726
 20
-84.7597
 30
0.0
 10
-30.8726
 20
-84.7597
 30
0.0
 10
-15.0222
 20
-95.825
 30
0.0
 10
-8.7719
 20
-72.3516
 30
0.0
 10
6.6906
 20
-69.4293
 30
0.0
  0
SPLINE
  5
AC
330
1F
100
AcDbEntity
  8
layer 1
 62
    22
370
     9
100
AcDbSpline
210
0.0
220
0.0
230
1.0
 70
     8
 71
     3
 72
     8
 73
     4
 74
     0
 42
0.0000000001
 43
0.0000000001
 40
0.0
 40
0.0
 40
0.0
 40
0.0
 40
1.0
 40
1.0
 40
1.0
 40
1.0
 10
-113.0965
 20
21.8209
 30
0.0
 10
-115.3522
 20
43.9119
 30
0.0
 10
-84.5926
 20
89.0772
 30
0.0
 10
-65.8475
 20
106.42
 30
0.0
  0
SPLINE
  5
AD
330
1F
100
AcDbEntity
  8
layer 1
 62
    22
370
     9
100
AcDbSpline
210
0.0
220
0.0
230
1.0
 70
     8
 71
     3
 72
     8
 73
     4
 74
     0
 42
0.0000000001
 43
0.0000000001
 40
0.0
 40
0.0
 40
0.0
 40
0.0
 40
1.0
 40
1.0
 40
1.0
 40
1.0
 10
44.34
 20
57.9117
 30
0.0
 10
35.1481
 20
78.3823
 30
0.0
 10
13.2771
 20
107.4295
 30
0.0
 10
-9.1343
 20
112.7173
 30
0.0
  0
SPLINE
  5
AE
330
1F
100
AcDbEntity
  8
layer 1
 62
    22
370
     9
100
AcDbSpline
210
0.0
220
0.0
230
1.0
 70
    11
 71
     3
 72
    12
 73
     8
 74
     0
 42
0.0000000001
 43
0.0000000001
 40
0.0
 40
0.0
 40
0.0
 40
0.0
 40
0.5
 40
0.5
 40
0.5
 40
0.5
 40
1.0
 40
1.0
 40
1.0
 40
1.0
 10
-108.9626
 20
58.6728
 30
0.0
 10
-111.0271
 20
74.127
 30
0.0
 10
-127.5805
 20
75.9467
 30
0.0
 10
-120.6344
 20
91.4326
 30
0.0
 10
-120.6344
 20
91.4326
 30
0.0
 10
-112.5996
 20
83.4629
 30
0.0
 10
-93.3034
 20
73.4004
 30
0.0
 10
-108.9626
 20
58.6728
 30
0.0
  0
SPLINE
  5
AF
330
1F
100
AcDbEntity
  8
layer 1
 62
    22
370
     9
100
AcDbSpline
210
0.0
220
0.0
230
1.0
 70
    11
 71
     3
 72
    12
 73
     8
 74
     0
 42
0.0000000001
 43
0.0000000001
 40
0.0
 40
0.0
 40
0.0
 40
0.0
 40
0.5
 40
0.5
 40
0.5
 40
0.5
 40
1.0
 40
1.0
 40
1.0
 40
1.0
 10
-100.7163
 20
73.1262
 30
0.0
 10
-102.7808
 20
88.5804
 30
0.0
 10
-117.1036
 20
88.2805
 30
0.0
 10
-110.1574
 20
103.7665
 30
0.0
 10
-110.1574
 20
103.7665
 30
0.0
 10
-102.1226
 20
95.7968
 30
0.0
 10
-85.0571
 20
87.8538
 30
0.0
 10
-100.7163
 20
73.1262
 30
0.0
  0
SPLINE
  5
B0
330
1F
100
AcDbEntity
  8
layer 1
 62
    22
370
     9
100
AcDbSpline
210
0.0
220
0.0
230
1.0
 70
    11
 71
     3
 72
    12
 73
     8
 74
     0
 42
0.0000000001
 43
0.0000000001
 40
0.0
 40
0.0
 40
0.0
 40
0.0
 40
0.5
 40
0.5
 40
0.5
 40
0.5
 40
1.0
 40
1.0
 40
1.0
 40
1.0
 10
-90.9568
 20
86.8091
 30
0.0
 10
-93.0213
 20
102.2633
 30
0.0
 10
-103.7543
 20
96.8995
 30
0.0
 10
-96.8081
 20
112.3854
 30
0.0
 10
-96.8081
 20
112.3854
 30
0.0
 10
-88.7733
 20
104.4157
 30
0.0
 10
-75.2976
 20
101.5367
 30
0.0
 10
-90.9568
 20
86.8091
 30
0.0
  0
SPLINE
  5
B1
330
1F
100
AcDbEntity
  8
layer 1
 62
    22
370
     9
100
AcDbSpline
210
0.0
220
0.0
230
1.0
 70
    11
 71
     3
 72
    12
 73
     8
 74
     0
 42
0.0000000001
 43
0.0000000001
 40
0.0
 40
0.0
 40
0.0
 40
0.0
 40
0.5
 40
0.5
 40
0.5
 40
0.5
 40
1.0
 40
1.0
 40
1.0
 40
1.0
 10
22.8689
 20
14.4939
 30
0.0
 10
22.3914
 20
20.6583
 30
0.0
 10
16.7299
 20
22.2935
 30
0.0
 10
10.7218
 20
20.23
 30
0.0
 10
10.7218
 20
20.23
 30
0.0
 10
14.098
 20
28.5982
 30
0.0
 10
28.5442
 20
23.5778
 30
0.0
 10
22.8689
 20
14.4939
 30
0.0
  0
SPLINE
  5
B2
330
1F
100
AcDbEntity
  8
layer 1
 62
    22
370
     9
100
AcDbSpline
210
0.0
220
0.0
230
1.0
 70
    11
 71
     3
 72
    12
 73
     8
 74
     0
 42
0.0000000001
 43
0.0000000001
 40
0.0
 40
0.0
 40
0.0
 40
0.0
 40
0.5
 40
0.5
 40
0.5
 40
0.5
 40
1.0
 40
1.0
 40
1.0
 40
1.0
 10
40.3567
 20
10.0301
 30
0.0
 10
38.5744
 20
15.9518
 30
0.0
 10
32.6936
 20
16.347
 30
0.0
 10
27.2638
 20
13.0547
 30
0.0
 10
27.2638
 20
13.0547
 30
0.0
 10
28.7763
 20
21.9481
 30
0.0
 10
43.9629
 20
20.1112
 30
0.0
 10
40.3567
 20
10.0301
 30
0.0
  0
SPLINE
  5
B3
330
1F
100
AcDbEntity
  8
layer 1
 62
    22
370
     9
100
AcDbSpline
210
0.0
220
0.0
230
1.0
 70
    11
 71
     3
 72
    12
 73
     8
 74
     0
 42
0.0000000001
 43
0.0000000001
 40
0.0
 40
0.0
 40
0.0
 40
0.0
 40
0.5
 40
0.5
 40
0.5
 40
0.5
 40
1.0
 40
1.0
 40
1.0
 40
1.0
 10
46.5069
 20
17.5307
 30
0.0
 10
44.7133
 20
23.5551
 30
0.0
 10
38.7749
 20
24.4782
 30
0.0
 10
33.2879
 20
21.7095
 30
0.0
 10
33.2879
 20
21.7095
 30
0.0
 10
34.8249
 20
30.3783
 30
0.0
 10
50.1595
 20
27.1861
 30
0.0
 10
46.5069
 20
17.5307
 30
0.0
  0
SPLINE
  5
B4
330
1F
100
AcDbEntity
  8
layer 1
 62
    22
370
     9
100
AcDbSpline
210
0.0
220
0.0
230
1.0
 70
    11
 71
     3
 72
    12
 73
     8
 74
     0
 42
0.0000000001
 43
0.0000000001
 40
0.0
 40
0.0
 40
0.0
 40
0.0
 40
0.5
 40
0.5
 40
0.5
 40
0.5
 40
1.0
 40
1.0
 40
1.0
 40
1.0
 10
31.7764
 20
24.683
 30
0.0
 10
31.1296
 20
30.8321
 30
0.0
 10
25.4252
 20
32.3117
 30
0.0
 10
19.4761
 20
30.0846
 30
0.0
 10
19.4761
 20
30.0846
 30
0.0
 10
22.6209
 20
38.542
 30
0.0
 10
37.1998
 20
33.9189
 30
0.0
 10
31.7764
 20
24.683
 30
0.0
  0
SPLINE
  5
B5
330
1F
100
AcDbEntity
  8
layer 1
 62
    22
370
     9
100
AcDbSpline
210
0.0
220
0.0
230
1.0
 70
    11
 71
     3
 72
    12
 73
     8
 74
     0
 42
0.0000000001
 43
0.0000000001
 40
0.0
 40
0.0
 40
0.0
 40
0.0
 40
0.5
 40
0.5
 40
0.5
 40
0.5
 40
1.0
 40
1.0
 40
1.0
 40
1.0
 10
15.29
 20
27.0503
 30
0.0
 10
13.5338
 20
31.9196
 30
0.0
 10
8.6009
 20
31.9865
 30
0.0
 10
4.211
 20
28.9916
 30
0.0
 10
4.211
 20
28.9916
 30
0.0
 10
5.0748
 20
36.4922
 30
0.0
 10
17.85
 20
35.6373
 30
0.0
 10
15.29
 20
27.0503
 30
0.0
  0
SPLINE
  5
B6
330
1F
100
AcDbEntity
  8
layer 1
 62
    22
370
     9
100
AcDbSpline
210
0.0
220
0.0
230
1.0
 70
    11
 71
     3
 72
    12
 73
     8
 74
     0
 42
0.0000000001
 43
0.0000000001
 40
0.0
 40
0.0
 40
0.0
 40
0.0
 40
0.5
 40
0.5
 40
0.5
 40
0.5
 40
1.0
 40
1.0
 40
1.0
 40
1.0
 10
28.7906
 20
39.0492
 30
0.0
 10
27.0083
 20
44.9709
 30
0.0
 10
21.1275
 20
45.3661
 30
0.0
 10
15.6977
 20
42.0738
 30
0.0
 10
15.6977
 20
42.0738
 30
0.0
 10
17.2102
 20
50.9672
 30
0.0
 10
32.3968
 20
49.1303
 30
0.0
 10
28.7906
 20
39.0492
 30
0.0
  0
SPLINE
  5
B7
330
1F
100
AcDbEntity
  8
layer 1
 62
    22
370
     9
100
AcDbSpline
210
0.0
220
0.0
230
1.0
 70
    11
 71
     3
 72
    12
 73
     8
 74
     0
 42
0.0000000001
 43
0.0000000001
 40
0.0
 40
0.0
 40
0.0
 40
0.0
 40
0.5
 40
0.5
 40
0.5
 40
0.5
 40
1.0
 40
1.0
 40
1.0
 40
1.0
 10
46.1175
 20
29.1729
 30
0.0
 10
46.2833
 20
34.3451
 30
0.0
 10
41.7222
 20
36.2202
 30
0.0
 10
36.5349
 20
35.0494
 30
0.0
 10
36.5349
 20
35.0494
 30
0.0
 10
40.1084
 20
41.7049
 30
0.0
 10
51.6692
 20
36.215
 30
0.0
 10
46.1175
 20
29.1729
 30
0.0
  0
SPLINE
  5
B8
330
1F
100
AcDbEntity
  8
layer 1
 62
    22
370
     9
100
AcDbSpline
210
0.0
220
0.0
230
1.0
 70
    11
 71
     3
 72
    12
 73
     8
 74
     0
 42
0.0000000001
 43
0.0000000001
 40
0.0
 40
0.0
 40
0.0
 40
0.0
 40
0.5
 40
0.5
 40
0.5
 40
0.5
 40
1.0
 40
1.0
 40
1.0
 40
1.0
 10
17.2763
 20
50.9635
 30
0.0
 10
15.494
 20
56.8851
 30
0.0
 10
9.6132
 20
57.2803
 30
0.0
 10
4.1834
 20
53.988
 30
0.0
 10
4.1834
 20
53.988
 30
0.0
 10
5.6959
 20
62.8814
 30
0.0
 10
20.8825
 20
61.0445
 30
0.0
 10
17.2763
 20
50.9635
 30
0.0
  0
SPLINE
  5
B9
330
1F
100
AcDbEntity
  8
layer 1
 62
    22
370
     9
100
AcDbSpline
210
0.0
220
0.0
230
1.0
 70
    11
 71
     3
 72
    12
 73
     8
 74
     0
 42
0.0000000001
 43
0.0000000001
 40
0.0
 40
0.0
 40
0.0
 40
0.0
 40
0.5
 40
0.5
 40
0.5
 40
0.5
 40
1.0
 40
1.0
 40
1.0
 40
1.0
 10
41.1137
 20
44.0226
 30
0.0
 10
40.2559
 20
50.1459
 30
0.0
 10
34.504
 20
51.4296
 30
0.0
 10
28.635
 20
49.0003
 30
0.0
 10
28.635
 20
49.0003
 30
0.0
 10
31.4873
 20
57.5603
 30
0.0
 10
46.2164
 20
53.4385
 30
0.0
 10
41.1137
 20
44.0226
 30
0.0
  0
SPLINE
  5
BA
330
1F
100
AcDbEntity
  8
layer 1
 62
    22
370
     9
100
AcDbSpline
210
0.0
220
0.0
230
1.0
 70
    11
 71
     3
 72
    12
 73
     8
 74
     0
 42
0.0000000001
 43
0.0000000001
 40
0.0
 40
0.0
 40
0.0
 40
0.0
 40
0.5
 40
0.5
 40
0.5
 40
0.5
 40
1.0
 40
1.0
 40
1.0
 40
1.0
 10
32.1993
 20
57.3396
 30
0.0
 10
30.417
 20
63.2612
 30
0.0
 10
24.5361
 20
63.6564
 30
0.0
 10
19.1063
 20
60.3641
 30
0.0
 10
19.1063
 20
60.3641
 30
0.0
 10
20.6189
 20
69.2575
 30
0.0
 10
35.8054
 20
67.4206
 30
0.0
 10
32.1993
 20
57.3396
 30
0.0
  0
SPLINE
  5
BB
330
1F
100
AcDbEntity
  8
layer 1
 62
    22
370
     9
100
AcDbSpline
210
0.0
220
0.0
230
1.0
 70
    11
 71
     3
 72
    12
 73
     8
 74
     0
 42
0.0000000001
 43
0.0000000001
 40
0.0
 40
0.0
 40
0.0
 40
0.0
 40
0.5
 40
0.5
 40
0.5
 40
0.5
 40
1.0
 40
1.0
 40
1.0
 40
1.0
 10
25.4968
 20
70.641
 30
0.0
 10
22.7219
 20
76.1696
 30
0.0
 10
16.8604
 20
75.5521
 30
0.0
 10
12.0777
 20
71.379
 30
0.0
 10
12.0777
 20
71.379
 30
0.0
 10
12.0374
 20
80.3994
 30
0.0
 10
27.3147
 20
81.1899
 30
0.0
 10
25.4968
 20
70.641
 30
0.0
  0
SPLINE
  5
BC
330
1F
100
AcDbEntity
  8
layer 1
 62
    22
370
     9
100
AcDbSpline
210
0.0
220
0.0
230
1.0
 70
    11
 71
     3
 72
    12
 73
     8
 74
     0
 42
0.0000000001
 43
0.0000000001
 40
0.0
 40
0.0
 40
0.0
 40
0.0
 40
0.5
 40
0.5
 40
0.5
 40
0.5
 40
1.0
 40
1.0
 40
1.0
 40
1.0
 10
15.1906
 20
82.4334
 30
0.0
 10
14.3483
 20
88.5589
 30
0.0
 10
8.5996
 20
89.857
 30
0.0
 10
2.7245
 20
87.4423
 30
0.0
 10
2.7245
 20
87.4423
 30
0.0
 10
5.5983
 20
95.9952
 30
0.0
 10
20.3171
 20
91.8365
 30
0.0
 10
15.1906
 20
82.4334
 30
0.0
  0
SPLINE
  5
BD
330
1F
100
AcDbEntity
  8
layer 1
 62
    22
370
     9
100
AcDbSpline
210
0.0
220
0.0
230
1.0
 70
    11
 71
     3
 72
    12
 73
     8
 74
     0
 42
0.0000000001
 43
0.0000000001
 40
0.0
 40
0.0
 40
0.0
 40
0.0
 40
0.5
 40
0.5
 40
0.5
 40
0.5
 40
1.0
 40
1.0
 40
1.0
 40
1.0
 10
9.3388
 20
75.5205
 30
0.0
 10
7.847
 20
80.4768
 30
0.0
 10
2.9249
 20
80.8076
 30
0.0
 10
-1.6198
 20
78.0519
 30
0.0
 10
-1.6198
 20
78.0519
 30
0.0
 10
-0.3538
 20
85.4956
 30
0.0
 10
12.3571
 20
83.9581
 30
0.0
 10
9.3388
 20
75.5205
 30
0.0
  0
SPLINE
  5
BE
330
1F
100
AcDbEntity
  8
layer 1
 62
    22
370
     9
100
AcDbSpline
210
0.0
220
0.0
230
1.0
 70
    11
 71
     3
 72
    12
 73
     8
 74
     0
 42
0.0000000001
 43
0.0000000001
 40
0.0
 40
0.0
 40
0.0
 40
0.0
 40
0.5
 40
0.5
 40
0.5
 40
0.5
 40
1.0
 40
1.0
 40
1.0
 40
1.0
 10
-0.3894
 20
92.5517
 30
0.0
 10
-1.8812
 20
97.5081
 30
0.0
 10
-6.8033
 20
97.8389
 30
0.0
 10
-11.348
 20
95.0832
 30
0.0
 10
-11.348
 20
95.0832
 30
0.0
 10
-10.082
 20
102.5269
 30
0.0
 10
2.6289
 20
100.9894
 30
0.0
 10
-0.3894
 20
92.5517
 30
0.0
  0
SPLINE
  5
BF
330
1F
100
AcDbEntity
  8
layer 1
 62
    22
370
     9
100
AcDbSpline
210
0.0
220
0.0
230
1.0
 70
    11
 71
     3
 72
    12
 73
     8
 74
     0
 42
0.0000000001
 43
0.0000000001
 40
0.0
 40
0.0
 40
0.0
 40
0.0
 40
0.5
 40
0.5
 40
0.5
 40
0.5
 40
1.0
 40
1.0
 40
1.0
 40
1.0
 10
8.2299
 20
12.1983
 30
0.0
 10
6.7381
 20
17.1546
 30
0.0
 10
1.816
 20
17.4854
 30
0.0
 10
-2.7287
 20
14.7298
 30
0.0
 10
-2.7287
 20
14.7298
 30
0.0
 10
-1.4627
 20
22.1735
 30
0.0
 10
11.2482
 20
20.636
 30
0.0
 10
8.2299
 20
12.1983
 30
0.0
  0
SPLINE
  5
C0
330
1F
100
AcDbEntity
  8
layer 1
 62
    22
370
     9
100
AcDbSpline
210
0.0
220
0.0
230
1.0
 70
    11
 71
     3
 72
    12
 73
     8
 74
     0
 42
0.0000000001
 43
0.0000000001
 40
0.0
 40
0.0
 40
0.0
 40
0.0
 40
0.5
 40
0.5
 40
0.5
 40
0.5
 40
1.0
 40
1.0
 40
1.0
 40
1.0
 10
-35.9677
 20
1.3357
 30
0.0
 10
-37.4595
 20
6.292
 30
0.0
 10
-42.3816
 20
6.6228
 30
0.0
 10
-46.9263
 20
3.8672
 30
0.0
 10
-46.9263
 20
3.8672
 30
0.0
 10
-45.6603
 20
11.3108
 30
0.0
 10
-32.9494
 20
9.7733
 30
0.0
 10
-35.9677
 20
1.3357
 30
0.0
  0
ENDSEC
  0
SECTION
  2
OBJECTS
  0
DICTIONARY
  5
C
330
0
100
AcDbDictionary
281
     1
  3
ACAD_GROUP
350
D
  3
ACAD_LAYOUT
350
1A
  3
ACAD_MLEADERSTYLE
350
C2
  3
ACAD_MLINESTYLE
350
17
  3
ACAD_PLOTSETTINGS
350
19
  3
ACAD_PLOTSTYLENAME
350
E
  3
ACAD_SCALELIST
350
3B
  3
ACAD_TABLESTYLE
350
C1
  3
ACAD_VISUALSTYLE
350
2A
  0
DICTIONARY
  5
D
102
{ACAD_REACTORS
330
C
102
}
330
C
100
AcDbDictionary
281
     1
  0
DICTIONARY
  5
1A
102
{ACAD_REACTORS
330
C
102
}
330
C
100
AcDbDictionary
281
     1
  3
Layout1
350
1E
  3
Layout2
350
26
  3
Model
350
22
  0
DICTIONARY
  5
C2
102
{ACAD_REACTORS
330
C
102
}
330
C
100
AcDbDictionary
281
     1
  0
DICTIONARY
  5
17
102
{ACAD_REACTORS
330
C
102
}
330
C
100
AcDbDictionary
281
     1
  3
Standard
350
18
  0
DICTIONARY
  5
19
102
{ACAD_REACTORS
330
C
102
}
330
C
100
AcDbDictionary
281
     1
  0
ACDBDICTIONARYWDFLT
  5
E
102
{ACAD_REACTORS
330
C
102
}
330
C
100
AcDbDictionary
281
     1
  3
Normal
350
F
100
AcDbDictionaryWithDefault
340
F
  0
DICTIONARY
  5
3B
102
{ACAD_REACTORS
330
C
102
}
330
C
100
AcDbDictionary
281
     1
  3
A0
350
3C
  3
A1
350
3D
  3
A2
350
3E
  3
A3
350
3F
  3
A4
350
40
  3
A5
350
41
  3
A6
350
42
  3
A7
350
43
  3
A8
350
44
  3
A9
350
45
  3
B0
350
46
  3
B1
350
47
  3
B2
350
48
  3
B3
350
49
  3
B4
350
4A
  3
B5
350
4B
  3
B6
350
4C
  3
B7
350
4D
  3
B8
350
4E
  3
B9
350
4F
  3
C0
350
50
  3
C1
350
51
  3
C2
350
52
  3
C3
350
53
  3
C4
350
54
  3
C5
350
55
  3
C6
350
56
  3
C7
350
57
  3
C8
350
58
  3
C9
350
59
  3
D0
350
5A
  3
D1
350
5B
  3
D2
350
5C
  0
DICTIONARY
  5
C1
102
{ACAD_REACTORS
330
C
102
}
330
C
100
AcDbDictionary
281
     1
  0
DICTIONARY
  5
2A
102
{ACAD_REACTORS
330
C
102
}
330
C
100
AcDbDictionary
281
     1
  3
2dWireframe
350
2F
  3
3D Hidden
350
31
  3
3dWireframe
350
30
  3
Basic
350
32
  3
Brighten
350
36
  3
ColorChange
350
3A
  3
Conceptual
350
34
  3
Dim
350
35
  3
Facepattern
350
39
  3
Flat
350
2B
  3
FlatWithEdges
350
2C
  3
Gouraud
350
2D
  3
GouraudWithEdges
350
2E
  3
Linepattern
350
38
  3
Realistic
350
33
  3
Thicken
350
37
  0
LAYOUT
  5
1E
102
{ACAD_REACTORS
330
1A
102
}
330
1A
100
AcDbPlotSettings
  1

  2
none_device
  4

  6

 40
0.0
 41
0.0
 42
0.0
 43
0.0
 44
0.0
 45
0.0
 46
0.0
 47
0.0
 48
0.0
 49
0.0
140
0.0
141
0.0
142
1.0
143
1.0
 70
   688
 72
     0
 73
     0
 74
     5
  7

 75
    16
 76
     0
 77
     2
 78
   300
147
1.0
148
0.0
149
0.0
100
AcDbLayout
  1
Layout1
 70
     1
 71
     1
 10
0.0
 20
0.0
 11
12.0
 21
9.0
 12
0.0
 22
0.0
 32
0.0
 14
1.000000000000000E+20
 24
1.000000000000000E+20
 34
1.000000000000000E+20
 15
-1.000000000000000E+20
 25
-1.000000000000000E+20
 35
-1.000000000000000E+20
146
0.0
 13
0.0
 23
0.0
 33
0.0
 16
1.0
 26
0.0
 36
0.0
 17
0.0
 27
1.0
 37
0.0
 76
     0
330
1B
  0
LAYOUT
  5
26
102
{ACAD_REACTORS
330
1A
102
}
330
1A
100
AcDbPlotSettings
  1

  2
none_device
  4

  6

 40
0.0
 41
0.0
 42
0.0
 43
0.0
 44
0.0
 45
0.0
 46
0.0
 47
0.0
 48
0.0
 49
0.0
140
0.0
141
0.0
142
1.0
143
1.0
 70
   688
 72
     0
 73
     0
 74
     5
  7

 75
    16
 76
     0
 77
     2
 78
   300
147
1.0
148
0.0
149
0.0
100
AcDbLayout
  1
Layout2
 70
     1
 71
     2
 10
0.0
 20
0.0
 11
0.0
 21
0.0
 12
0.0
 22
0.0
 32
0.0
 14
0.0
 24
0.0
 34
0.0
 15
0.0
 25
0.0
 35
0.0
146
0.0
 13
0.0
 23
0.0
 33
0.0
 16
1.0
 26
0.0
 36
0.0
 17
0.0
 27
1.0
 37
0.0
 76
     0
330
23
  0
LAYOUT
  5
22
102
{ACAD_REACTORS
330
1A
102
}
330
1A
100
AcDbPlotSettings
  1

  2
none_device
  4

  6

 40
0.0
 41
0.0
 42
0.0
 43
0.0
 44
0.0
 45
0.0
 46
0.0
 47
0.0
 48
0.0
 49
0.0
140
0.0
141
0.0
142
1.0
143
1.0
 70
  1712
 72
     0
 73
     0
 74
     0
  7

 75
     0
 76
     0
 77
     2
 78
   300
147
1.0
148
0.0
149
0.0
100
AcDbLayout
  1
Model
 70
     1
 71
     0
 10
0.0
 20
0.0
 11
12.0
 21
9.0
 12
0.0
 22
0.0
 32
0.0
 14
-136.5967
 24
-114.8452
 34
0.0
 15
53.4794
 25
204.1761
 35
0.0
146
0.0
 13
0.0
 23
0.0
 33
0.0
 16
1.0
 26
0.0
 36
0.0
 17
0.0
 27
1.0
 37
0.0
 76
     0
330
1F
331
29
  0
MLINESTYLE
  5
18
102
{ACAD_REACTORS
330
17
102
}
330
17
100
AcDbMlineStyle
  2
Standard
 70
     0
  3

 62
   256
 51
90.0
 52
90.0
 71
     2
 49
0.5
 62
   256
  6
BYLAYER
 49
-0.5
 62
   256
  6
BYLAYER
  0
ACDBPLACEHOLDER
  5
F
102
{ACAD_REACTORS
330
E
102
}
330
E
  0
SCALE
  5
3C
102
{ACAD_REACTORS
330
3B
102
}
330
3B
100
AcDbScale
 70
     0
300
1:1
140
1.0
141
1.0
290
     1
  0
SCALE
  5
3D
102
{ACAD_REACTORS
330
3B
102
}
330
3B
100
AcDbScale
 70
     0
300
1:2
140
1.0
141
2.0
290
     0
  0
SCALE
  5
3E
102
{ACAD_REACTORS
330
3B
102
}
330
3B
100
AcDbScale
 70
     0
300
1:4
140
1.0
141
4.0
290
     0
  0
SCALE
  5
3F
102
{ACAD_REACTORS
330
3B
102
}
330
3B
100
AcDbScale
 70
     0
300
1:5
140
1.0
141
5.0
290
     0
  0
SCALE
  5
40
102
{ACAD_REACTORS
330
3B
102
}
330
3B
100
AcDbScale
 70
     0
300
1:8
140
1.0
141
8.0
290
     0
  0
SCALE
  5
41
102
{ACAD_REACTORS
330
3B
102
}
330
3B
100
AcDbScale
 70
     0
300
1:10
140
1.0
141
10.0
290
     0
  0
SCALE
  5
42
102
{ACAD_REACTORS
330
3B
102
}
330
3B
100
AcDbScale
 70
     0
300
1:16
140
1.0
141
16.0
290
     0
  0
SCALE
  5
43
102
{ACAD_REACTORS
330
3B
102
}
330
3B
100
AcDbScale
 70
     0
300
1:20
140
1.0
141
20.0
290
     0
  0
SCALE
  5
44
102
{ACAD_REACTORS
330
3B
102
}
330
3B
100
AcDbScale
 70
     0
300
1:30
140
1.0
141
30.0
290
     0
  0
SCALE
  5
45
102
{ACAD_REACTORS
330
3B
102
}
330
3B
100
AcDbScale
 70
     0
300
1:40
140
1.0
141
40.0
290
     0
  0
SCALE
  5
46
102
{ACAD_REACTORS
330
3B
102
}
330
3B
100
AcDbScale
 70
     0
300
1:50
140
1.0
141
50.0
290
     0
  0
SCALE
  5
47
102
{ACAD_REACTORS
330
3B
102
}
330
3B
100
AcDbScale
 70
     0
300
1:100
140
1.0
141
100.0
290
     0
  0
SCALE
  5
48
102
{ACAD_REACTORS
330
3B
102
}
330
3B
100
AcDbScale
 70
     0
300
2:1
140
2.0
141
1.0
290
     0
  0
SCALE
  5
49
102
{ACAD_REACTORS
330
3B
102
}
330
3B
100
AcDbScale
 70
     0
300
4:1
140
4.0
141
1.0
290
     0
  0
SCALE
  5
4A
102
{ACAD_REACTORS
330
3B
102
}
330
3B
100
AcDbScale
 70
     0
300
8:1
140
8.0
141
1.0
290
     0
  0
SCALE
  5
4B
102
{ACAD_REACTORS
330
3B
102
}
330
3B
100
AcDbScale
 70
     0
300
10:1
140
10.0
141
1.0
290
     0
  0
SCALE
  5
4C
102
{ACAD_REACTORS
330
3B
102
}
330
3B
100
AcDbScale
 70
     0
300
100:1
140
100.0
141
1.0
290
     0
  0
SCALE
  5
4D
102
{ACAD_REACTORS
330
3B
102
}
330
3B
100
AcDbScale
 70
     0
300
1/128" = 1'-0"
140
0.0078125
141
12.0
290
     0
  0
SCALE
  5
4E
102
{ACAD_REACTORS
330
3B
102
}
330
3B
100
AcDbScale
 70
     0
300
1/64" = 1'-0"
140
0.015625
141
12.0
290
     0
  0
SCALE
  5
4F
102
{ACAD_REACTORS
330
3B
102
}
330
3B
100
AcDbScale
 70
     0
300
1/32" = 1'-0"
140
0.03125
141
12.0
290
     0
  0
SCALE
  5
50
102
{ACAD_REACTORS
330
3B
102
}
330
3B
100
AcDbScale
 70
     0
300
1/16" = 1'-0"
140
0.0625
141
12.0
290
     0
  0
SCALE
  5
51
102
{ACAD_REACTORS
330
3B
102
}
330
3B
100
AcDbScale
 70
     0
300
3/32" = 1'-0"
140
0.09375
141
12.0
290
     0
  0
SCALE
  5
52
102
{ACAD_REACTORS
330
3B
102
}
330
3B
100
AcDbScale
 70
     0
300
1/8" = 1'-0"
140
0.125
141
12.0
290
     0
  0
SCALE
  5
53
102
{ACAD_REACTORS
330
3B
102
}
330
3B
100
AcDbScale
 70
     0
300
3/16" = 1'-0"
140
0.1875
141
12.0
290
     0
  0
SCALE
  5
54
102
{ACAD_REACTORS
330
3B
102
}
330
3B
100
AcDbScale
 70
     0
300
1/4" = 1'-0"
140
0.25
141
12.0
290
     0
  0
SCALE
  5
55
102
{ACAD_REACTORS
330
3B
102
}
330
3B
100
AcDbScale
 70
     0
300
3/8" = 1'-0"
140
0.375
141
12.0
290
     0
  0
SCALE
  5
56
102
{ACAD_REACTORS
330
3B
102
}
330
3B
100
AcDbScale
 70
     0
300
1/2" = 1'-0"
140
0.5
141
12.0
290
     0
  0
SCALE
  5
57
102
{ACAD_REACTORS
330
3B
102
}
330
3B
100
AcDbScale
 70
     0
300
3/4" = 1'-0"
140
0.75
141
12.0
290
     0
  0
SCALE
  5
58
102
{ACAD_REACTORS
330
3B
102
}
330
3B
100
AcDbScale
 70
     0
300
1" = 1'-0"
140
1.0
141
12.0
290
     0
  0
SCALE
  5
59
102
{ACAD_REACTORS
330
3B
102
}
330
3B
100
AcDbScale
 70
     0
300
1-1/2" = 1'-0"
140
1.5
141
12.0
290
     0
  0
SCALE
  5
5A
102
{ACAD_REACTORS
330
3B
102
}
330
3B
100
AcDbScale
 70
     0
300
3" = 1'-0"
140
3.0
141
12.0
290
     0
  0
SCALE
  5
5B
102
{ACAD_REACTORS
330
3B
102
}
330
3B
100
AcDbScale
 70
     0
300
6" = 1'-0"
140
6.0
141
12.0
290
     0
  0
SCALE
  5
5C
102
{ACAD_REACTORS
330
3B
102
}
330
3B
100
AcDbScale
 70
     0
300
1'-0" = 1'-0"
140
12.0
141
12.0
290
     0
  0
VISUALSTYLE
  5
2F
102
{ACAD_REACTORS
330
2A
102
}
330
2A
100
AcDbVisualStyle
  2
2dWireframe
 70
     4
 71
     0
 72
     2
 73
     0
 90
        0
 40
-0.6
 41
-30.0
 62
     5
 63
     7
421
 16777215
 74
     1
 91
        4
 64
     7
 65
   257
 75
     1
175
     1
 42
1.0
 92
        0
 66
   257
 43
1.0
 76
     1
 77
     6
 78
     2
 67
     7
 79
     5
170
     0
171
     0
290
     0
174
     0
 93
        1
 44
0.0
173
     0
291
     0
 45
0.0
  0
VISUALSTYLE
  5
31
102
{ACAD_REACTORS
330
2A
102
}
330
2A
100
AcDbVisualStyle
  2
3D Hidden
 70
     6
 71
     1
 72
     2
 73
     2
 90
        0
 40
-0.6
 41
-30.0
 62
     5
 63
     7
421
 16777215
 74
     2
 91
        2
 64
     7
 65
   257
 75
     2
175
     1
 42
40.0
 92
        0
 66
   257
 43
1.0
 76
     1
 77
     6
 78
     2
 67
     7
 79
     3
170
     0
171
     0
290
     0
174
     0
 93
        1
 44
0.0
173
     0
291
     0
 45
0.0
  0
VISUALSTYLE
  5
30
102
{ACAD_REACTORS
330
2A
102
}
330
2A
100
AcDbVisualStyle
  2
3dWireframe
 70
     5
 71
     0
 72
     2
 73
     0
 90
        0
 40
-0.6
 41
-30.0
 62
     5
 63
     7
421
 16777215
 74
     1
 91
        4
 64
     7
 65
   257
 75
     1
175
     1
 42
1.0
 92
        0
 66
   257
 43
1.0
 76
     1
 77
     6
 78
     2
 67
     7
 79
     5
170
     0
171
     0
290
     0
174
     0
 93
        1
 44
0.0
173
     0
291
     0
 45
0.0
  0
VISUALSTYLE
  5
32
102
{ACAD_REACTORS
330
2A
102
}
330
2A
100
AcDbVisualStyle
  2
Basic
 70
     7
 71
     1
 72
     0
 73
     1
 90
        0
 40
-0.6
 41
-30.0
 62
     5
 63
     7
421
 16777215
 74
     0
 91
        4
 64
     7
 65
   257
 75
     1
175
     1
 42
1.0
 92
        8
 66
     7
 43
1.0
 76
     1
 77
     6
 78
     2
 67
     7
 79
     5
170
     0
171
     0
290
     0
174
     0
 93
        1
 44
0.0
173
     0
291
     1
 45
0.0
  0
VISUALSTYLE
  5
36
102
{ACAD_REACTORS
330
2A
102
}
330
2A
100
AcDbVisualStyle
  2
Brighten
 70
    12
 71
     2
 72
     2
 73
     0
 90
        0
 40
-0.6
 41
-30.0
 62
     5
 63
     7
421
 16777215
 74
     1
 91
        4
 64
     7
 65
   257
 75
     1
175
     1
 42
1.0
 92
        8
 66
     7
 43
1.0
 76
     1
 77
     6
 78
     2
 67
     7
 79
     5
170
     0
171
     0
290
     0
174
     0
 93
        1
 44
50.0
173
     0
291
     1
 45
0.0
  0
VISUALSTYLE
  5
3A
102
{ACAD_REACTORS
330
2A
102
}
330
2A
100
AcDbVisualStyle
  2
ColorChange
 70
    16
 71
     2
 72
     2
 73
     3
 90
        0
 40
-0.6
 41
-30.0
 62
     5
 63
     8
421
  8421504
 74
     1
 91
        4
 64
     7
 65
   257
 75
     1
175
     1
 42
1.0
 92
        8
 66
     8
424
  8421504
 43
1.0
 76
     1
 77
     6
 78
     2
 67
     7
 79
     5
170
     0
171
     0
290
     0
174
     0
 93
        1
 44
0.0
173
     0
291
     1
 45
0.0
  0
VISUALSTYLE
  5
34
102
{ACAD_REACTORS
330
2A
102
}
330
2A
100
AcDbVisualStyle
  2
Conceptual
 70
     9
 71
     3
 72
     2
 73
     0
 90
        0
 40
-0.6
 41
-30.0
 62
     5
 63
     7
421
 16777215
 74
     2
 91
        2
 64
     7
 65
   257
 75
     1
175
     1
 42
40.0
 92
        8
 66
     7
 43
1.0
 76
     1
 77
     6
 78
     2
 67
     7
 79
     3
170
     0
171
     0
290
     0
174
     0
 93
        1
 44
0.0
173
     0
291
     0
 45
0.0
  0
VISUALSTYLE
  5
35
102
{ACAD_REACTORS
330
2A
102
}
330
2A
100
AcDbVisualStyle
  2
Dim
 70
    11
 71
     2
 72
     2
 73
     0
 90
        0
 40
-0.6
 41
-30.0
 62
     5
 63
     7
421
 16777215
 74
     1
 91
        4
 64
     7
 65
   257
 75
     1
175
     1
 42
1.0
 92
        8
 66
     7
 43
1.0
 76
     1
 77
     6
 78
     2
 67
     7
 79
     5
170
     0
171
     0
290
     0
174
     0
 93
        1
 44
-50.0
173
     0
291
     1
 45
0.0
  0
VISUALSTYLE
  5
39
102
{ACAD_REACTORS
330
2A
102
}
330
2A
100
AcDbVisualStyle
  2
Facepattern
 70
    15
 71
     2
 72
     2
 73
     0
 90
        0
 40
-0.6
 41
-30.0
 62
     5
 63
     7
421
 16777215
 74
     1
 91
        4
 64
     7
 65
   257
 75
     1
175
     1
 42
1.0
 92
        8
 66
     7
 43
1.0
 76
     1
 77
     6
 78
     2
 67
     7
 79
     5
170
     0
171
     0
290
     0
174
     0
 93
        1
 44
0.0
173
     0
291
     1
 45
0.0
  0
VISUALSTYLE
  5
2B
102
{ACAD_REACTORS
330
2A
102
}
330
2A
100
AcDbVisualStyle
  2
Flat
 70
     0
 71
     2
 72
     1
 73
     1
 90
        2
 40
-0.6
 41
30.0
 62
     5
 63
     7
421
 16777215
 74
     0
 91
        4
 64
     7
 65
   257
 75
     1
175
     1
 42
1.0
 92
        8
 66
     7
 43
1.0
 76
     1
 77
     6
 78
     2
 67
     7
 79
     5
170
     0
171
     0
290
     0
174
     0
 93
       13
 44
0.0
173
     0
291
     1
 45
0.0
  0
VISUALSTYLE
  5
2C
102
{ACAD_REACTORS
330
2A
102
}
330
2A
100
AcDbVisualStyle
  2
FlatWithEdges
 70
     1
 71
     2
 72
     1
 73
     1
 90
        2
 40
-0.6
 41
30.0
 62
     5
 63
     7
421
 16777215
 74
     1
 91
        4
 64
     7
 65
   257
 75
     1
175
     1
 42
1.0
 92
        0
 66
   257
 43
1.0
 76
     1
 77
     6
 78
     2
 67
     7
 79
     5
170
     0
171
     0
290
     0
174
     0
 93
       13
 44
0.0
173
     0
291
     1
 45
0.0
  0
VISUALSTYLE
  5
2D
102
{ACAD_REACTORS
330
2A
102
}
330
2A
100
AcDbVisualStyle
  2
Gouraud
 70
     2
 71
     2
 72
     2
 73
     1
 90
        2
 40
-0.6
 41
30.0
 62
     5
 63
     7
421
 16777215
 74
     0
 91
        4
 64
     7
 65
   257
 75
     1
175
     1
 42
1.0
 92
        0
 66
     7
 43
1.0
 76
     1
 77
     6
 78
     2
 67
     7
 79
     5
170
     0
171
     0
290
     0
174
     0
 93
       13
 44
0.0
173
     0
291
     1
 45
0.0
  0
VISUALSTYLE
  5
2E
102
{ACAD_REACTORS
330
2A
102
}
330
2A
100
AcDbVisualStyle
  2
GouraudWithEdges
 70
     3
 71
     2
 72
     2
 73
     1
 90
        2
 40
-0.6
 41
30.0
 62
     5
 63
     7
421
 16777215
 74
     1
 91
        4
 64
     7
 65
   257
 75
     1
175
     1
 42
1.0
 92
        0
 66
   257
 43
1.0
 76
     1
 77
     6
 78
     2
 67
     7
 79
     5
170
     0
171
     0
290
     0
174
     0
 93
       13
 44
0.0
173
     0
291
     1
 45
0.0
  0
VISUALSTYLE
  5
38
102
{ACAD_REACTORS
330
2A
102
}
330
2A
100
AcDbVisualStyle
  2
Linepattern
 70
    14
 71
     2
 72
     2
 73
     0
 90
        0
 40
-0.6
 41
-30.0
 62
     5
 63
     7
421
 16777215
 74
     1
 91
        4
 64
     7
 65
   257
 75
     7
175
     7
 42
1.0
 92
        8
 66
     7
 43
1.0
 76
     1
 77
     6
 78
     2
 67
     7
 79
     5
170
     0
171
     0
290
     0
174
     0
 93
        1
 44
0.0
173
     0
291
     1
 45
0.0
  0
VISUALSTYLE
  5
33
102
{ACAD_REACTORS
330
2A
102
}
330
2A
100
AcDbVisualStyle
  2
Realistic
 70
     8
 71
     2
 72
     2
 73
     0
 90
        0
 40
-0.6
 41
-30.0
 62
     5
 63
     7
421
 16777215
 74
     1
 91
        0
 64
     7
 65
   257
 75
     1
175
     1
 42
1.0
 92
        8
 66
     8
424
  7895160
 43
1.0
 76
     1
 77
     6
 78
     2
 67
     7
 79
     5
170
     0
171
     0
290
     0
174
     0
 93
       13
 44
0.0
173
     0
291
     0
 45
0.0
  0
VISUALSTYLE
  5
37
102
{ACAD_REACTORS
330
2A
102
}
330
2A
100
AcDbVisualStyle
  2
Thicken
 70
    13
 71
     2
 72
     2
 73
     0
 90
        0
 40
-0.6
 41
-30.0
 62
     5
 63
     7
421
 16777215
 74
     1
 91
        4
 64
     7
 65
   257
 75
     1
175
     1
 42
1.0
 92
       12
 66
     7
 43
1.0
 76
     1
 77
     6
 78
     2
 67
     7
 79
     5
170
     0
171
     0
290
     0
174
     0
 93
        1
 44
0.0
173
     0
291
     1
 45
0.0
  0
ENDSEC
  0
EOF
