  0
SECTION
  2
HEADER
  9
$ACADVER
  1
AC1021
  9
$ACADMAINTVER
 70
    25
  9
$DWGCODEPAGE
  3
ANSI_1251
  9
$INSBASE
 10
0.0
 20
0.0
 30
0.0
  9
$EXTMIN
 10
-184.7787
 20
-130.5909
 30
0.0
  9
$EXTMAX
 10
190.3128
 20
143.0848
 30
0.0
  9
$LIMMIN
 10
0.0
 20
0.0
  9
$LIMMAX
 10
12.0
 20
9.0
  9
$ORTHOMODE
 70
     0
  9
$REGENMODE
 70
     1
  9
$FILLMODE
 70
     1
  9
$QTEXTMODE
 70
     0
  9
$MIRRTEXT
 70
     1
  9
$LTSCALE
 40
1.0
  9
$ATTMODE
 70
     1
  9
$TEXTSIZE
 40
0.2
  9
$TRACEWID
 40
0.05
  9
$TEXTSTYLE
  7
Standard
  9
$CLAYER
  8
0
  9
$CELTYPE
  6
ByLayer
  9
$CECOLOR
 62
   256
  9
$CELTSCALE
 40
1.0
  9
$DISPSILH
 70
     0
  9
$DIMSCALE
 40
1.0
  9
$DIMASZ
 40
0.18
  9
$DIMEXO
 40
0.0625
  9
$DIMDLI
 40
0.38
  9
$DIMRND
 40
0.0
  9
$DIMDLE
 40
0.0
  9
$DIMEXE
 40
0.18
  9
$DIMTP
 40
0.0
  9
$DIMTM
 40
0.0
  9
$DIMTXT
 40
0.18
  9
$DIMCEN
 40
0.09
  9
$DIMTSZ
 40
0.0
  9
$DIMTOL
 70
     0
  9
$DIMLIM
 70
     0
  9
$DIMTIH
 70
     1
  9
$DIMTOH
 70
     1
  9
$DIMSE1
 70
     0
  9
$DIMSE2
 70
     0
  9
$DIMTAD
 70
     0
  9
$DIMZIN
 70
     0
  9
$DIMBLK
  1

  9
$DIMASO
 70
     1
  9
$DIMSHO
 70
     1
  9
$DIMPOST
  1

  9
$DIMAPOST
  1

  9
$DIMALT
 70
     0
  9
$DIMALTD
 70
     2
  9
$DIMALTF
 40
25.4
  9
$DIMLFAC
 40
1.0
  9
$DIMTOFL
 70
     0
  9
$DIMTVP
 40
0.0
  9
$DIMTIX
 70
     0
  9
$DIMSOXD
 70
     0
  9
$DIMSAH
 70
     0
  9
$DIMBLK1
  1

  9
$DIMBLK2
  1

  9
$DIMSTYLE
  2
Standard
  9
$DIMCLRD
 70
     0
  9
$DIMCLRE
 70
     0
  9
$DIMCLRT
 70
     0
  9
$DIMTFAC
 40
1.0
  9
$DIMGAP
 40
0.09
  9
$DIMJUST
 70
     0
  9
$DIMSD1
 70
     0
  9
$DIMSD2
 70
     0
  9
$DIMTOLJ
 70
     1
  9
$DIMTZIN
 70
     0
  9
$DIMALTZ
 70
     0
  9
$DIMALTTZ
 70
     0
  9
$DIMUPT
 70
     0
  9
$DIMDEC
 70
     4
  9
$DIMTDEC
 70
     4
  9
$DIMALTU
 70
     2
  9
$DIMALTTD
 70
     2
  9
$DIMTXSTY
  7
Standard
  9
$DIMAUNIT
 70
     0
  9
$DIMADEC
 70
     0
  9
$DIMALTRND
 40
0.0
  9
$DIMAZIN
 70
     0
  9
$DIMDSEP
 70
    46
  9
$DIMATFIT
 70
     3
  9
$DIMFRAC
 70
     0
  9
$DIMLDRBLK
  1

  9
$DIMLUNIT
 70
     2
  9
$DIMLWD
 70
    -2
  9
$DIMLWE
 70
    -2
  9
$DIMTMOVE
 70
     0
  9
$DIMFXL
 40
1.0
  9
$DIMFXLON
 70
     0
  9
$DIMJOGANG
 40
0.7853981633974483
  9
$DIMTFILL
 70
     0
  9
$DIMTFILLCLR
 70
     0
  9
$DIMARCSYM
 70
     0
  9
$DIMLTYPE
  6

  9
$DIMLTEX1
  6

  9
$DIMLTEX2
  6

  9
$LUNITS
 70
     2
  9
$LUPREC
 70
     4
  9
$SKETCHINC
 40
0.1
  9
$FILLETRAD
 40
0.5
  9
$AUNITS
 70
     0
  9
$AUPREC
 70
     0
  9
$MENU
  1
.
  9
$ELEVATION
 40
0.0
  9
$PELEVATION
 40
0.0
  9
$THICKNESS
 40
0.0
  9
$LIMCHECK
 70
     0
  9
$CHAMFERA
 40
0.0
  9
$CHAMFERB
 40
0.0
  9
$CHAMFERC
 40
0.0
  9
$CHAMFERD
 40
0.0
  9
$SKPOLY
 70
     0
  9
$TDCREATE
 40
2457975.906434248
  9
$TDUCREATE
 40
2457975.781434248
  9
$TDUPDATE
 40
2457975.906434271
  9
$TDUUPDATE
 40
2457975.781434271
  9
$TDINDWG
 40
0.0000000116
  9
$TDUSRTIMER
 40
0.0000000116
  9
$USRTIMER
 70
     1
  9
$ANGBASE
 50
0.0
  9
$ANGDIR
 70
     0
  9
$PDMODE
 70
     0
  9
$PDSIZE
 40
0.0
  9
$PLINEWID
 40
0.0
  9
$SPLFRAME
 70
     0
  9
$SPLINETYPE
 70
     6
  9
$SPLINESEGS
 70
     8
  9
$HANDSEED
  5
BC
  9
$SURFTAB1
 70
     6
  9
$SURFTAB2
 70
     6
  9
$SURFTYPE
 70
     6
  9
$SURFU
 70
     6
  9
$SURFV
 70
     6
  9
$UCSBASE
  2

  9
$UCSNAME
  2

  9
$UCSORG
 10
0.0
 20
0.0
 30
0.0
  9
$UCSXDIR
 10
1.0
 20
0.0
 30
0.0
  9
$UCSYDIR
 10
0.0
 20
1.0
 30
0.0
  9
$UCSORTHOREF
  2

  9
$UCSORTHOVIEW
 70
     0
  9
$UCSORGTOP
 10
0.0
 20
0.0
 30
0.0
  9
$UCSORGBOTTOM
 10
0.0
 20
0.0
 30
0.0
  9
$UCSORGLEFT
 10
0.0
 20
0.0
 30
0.0
  9
$UCSORGRIGHT
 10
0.0
 20
0.0
 30
0.0
  9
$UCSORGFRONT
 10
0.0
 20
0.0
 30
0.0
  9
$UCSORGBACK
 10
0.0
 20
0.0
 30
0.0
  9
$PUCSBASE
  2

  9
$PUCSNAME
  2

  9
$PUCSORG
 10
0.0
 20
0.0
 30
0.0
  9
$PUCSXDIR
 10
1.0
 20
0.0
 30
0.0
  9
$PUCSYDIR
 10
0.0
 20
1.0
 30
0.0
  9
$PUCSORTHOREF
  2

  9
$PUCSORTHOVIEW
 70
     0
  9
$PUCSORGTOP
 10
0.0
 20
0.0
 30
0.0
  9
$PUCSORGBOTTOM
 10
0.0
 20
0.0
 30
0.0
  9
$PUCSORGLEFT
 10
0.0
 20
0.0
 30
0.0
  9
$PUCSORGRIGHT
 10
0.0
 20
0.0
 30
0.0
  9
$PUCSORGFRONT
 10
0.0
 20
0.0
 30
0.0
  9
$PUCSORGBACK
 10
0.0
 20
0.0
 30
0.0
  9
$USERI1
 70
     0
  9
$USERI2
 70
     0
  9
$USERI3
 70
     0
  9
$USERI4
 70
     0
  9
$USERI5
 70
     0
  9
$USERR1
 40
0.0
  9
$USERR2
 40
0.0
  9
$USERR3
 40
0.0
  9
$USERR4
 40
0.0
  9
$USERR5
 40
0.0
  9
$WORLDVIEW
 70
     1
  9
$SHADEDGE
 70
     3
  9
$SHADEDIF
 70
    70
  9
$TILEMODE
 70
     1
  9
$MAXACTVP
 70
    64
  9
$PINSBASE
 10
0.0
 20
0.0
 30
0.0
  9
$PLIMCHECK
 70
     0
  9
$PEXTMIN
 10
1.000000000000000E+20
 20
1.000000000000000E+20
 30
1.000000000000000E+20
  9
$PEXTMAX
 10
-1.000000000000000E+20
 20
-1.000000000000000E+20
 30
-1.000000000000000E+20
  9
$PLIMMIN
 10
0.0
 20
0.0
  9
$PLIMMAX
 10
12.0
 20
9.0
  9
$UNITMODE
 70
     0
  9
$VISRETAIN
 70
     1
  9
$PLINEGEN
 70
     0
  9
$PSLTSCALE
 70
     1
  9
$TREEDEPTH
 70
  3020
  9
$CMLSTYLE
  2
Standard
  9
$CMLJUST
 70
     0
  9
$CMLSCALE
 40
1.0
  9
$PROXYGRAPHICS
 70
     1
  9
$MEASUREMENT
 70
     0
  9
$CELWEIGHT
370
    -1
  9
$ENDCAPS
280
     0
  9
$JOINSTYLE
280
     0
  9
$LWDISPLAY
290
     0
  9
$INSUNITS
 70
     4
  9
$HYPERLINKBASE
  1

  9
$STYLESHEET
  1

  9
$XEDIT
290
     1
  9
$CEPSNTYPE
380
     0
  9
$PSTYLEMODE
290
     1
  9
$FINGERPRINTGUID
  2
{A4A37EE3-1DE3-4F83-914E-2E4D47E72F4F}
  9
$VERSIONGUID
  2
{FAEB1C32-E019-11D5-929B-00C0DF256EC4}
  9
$EXTNAMES
290
     1
  9
$PSVPSCALE
 40
0.0
  9
$OLESTARTUP
290
     0
  9
$SORTENTS
280
   127
  9
$INDEXCTL
280
     0
  9
$HIDETEXT
280
     1
  9
$XCLIPFRAME
290
     0
  9
$HALOGAP
280
     0
  9
$OBSCOLOR
 70
   257
  9
$OBSLTYPE
280
     0
  9
$INTERSECTIONDISPLAY
280
     0
  9
$INTERSECTIONCOLOR
 70
   257
  9
$DIMASSOC
280
     2
  9
$PROJECTNAME
  1

  9
$CAMERADISPLAY
290
     0
  9
$LENSLENGTH
 40
50.0
  9
$CAMERAHEIGHT
 40
0.0
  9
$STEPSPERSEC
 40
2.0
  9
$STEPSIZE
 40
6.0
  9
$3DDWFPREC
 40
2.0
  9
$PSOLWIDTH
 40
0.25
  9
$PSOLHEIGHT
 40
4.0
  9
$LOFTANG1
 40
1.570796326794897
  9
$LOFTANG2
 40
1.570796326794897
  9
$LOFTMAG1
 40
0.0
  9
$LOFTMAG2
 40
0.0
  9
$LOFTPARAM
 70
     7
  9
$LOFTNORMALS
280
     1
  9
$LATITUDE
 40
37.795
  9
$LONGITUDE
 40
-122.394
  9
$NORTHDIRECTION
 40
0.0
  9
$TIMEZONE
 70
 -8000
  9
$LIGHTGLYPHDISPLAY
280
     1
  9
$TILEMODELIGHTSYNCH
280
     1
  9
$CMATERIAL
347
44
  9
$SOLIDHIST
280
     0
  9
$SHOWHIST
280
     1
  9
$DWFFRAME
280
     2
  9
$DGNFRAME
280
     2
  9
$REALWORLDSCALE
290
     1
  9
$INTERFERECOLOR
 62
   256
  9
$CSHADOW
280
     0
  9
$SHADOWPLANELOCATION
 40
0.0
  0
ENDSEC
  0
SECTION
  2
CLASSES
  0
CLASS
  1
ACDBDICTIONARYWDFLT
  2
AcDbDictionaryWithDefault
  3
ObjectDBX Classes
 90
        0
 91
        4
280
     0
281
     0
  0
CLASS
  1
VISUALSTYLE
  2
AcDbVisualStyle
  3
ObjectDBX Classes
 90
     4095
 91
        4
280
     0
281
     0
  0
CLASS
  1
MATERIAL
  2
AcDbMaterial
  3
ObjectDBX Classes
 90
     1153
 91
        4
280
     0
281
     0
  0
CLASS
  1
SCALE
  2
AcDbScale
  3
ObjectDBX Classes
 90
     1153
 91
        4
280
     0
281
     0
  0
CLASS
  1
TABLESTYLE
  2
AcDbTableStyle
  3
ObjectDBX Classes
 90
     4095
 91
        4
280
     0
281
     0
  0
CLASS
  1
MLEADERSTYLE
  2
AcDbMLeaderStyle
  3
ACDB_MLEADERSTYLE_CLASS
 90
     4095
 91
        4
280
     0
281
     0
  0
CLASS
  1
SUN
  2
AcDbSun
  3
SCENEOE
 90
     1153
 91
        4
280
     0
281
     0
  0
CLASS
  1
DICTIONARYVAR
  2
AcDbDictionaryVar
  3
ObjectDBX Classes
 90
        0
 91
        4
280
     0
281
     0
  0
CLASS
  1
CELLSTYLEMAP
  2
AcDbCellStyleMap
  3
ObjectDBX Classes
 90
     1152
 91
        4
280
     0
281
     0
  0
ENDSEC
  0
SECTION
  2
TABLES
  0
TABLE
  2
VPORT
  5
8
330
0
100
AcDbSymbolTable
 70
     1
  0
VPORT
  5
29
330
8
100
AcDbSymbolTableRecord
100
AcDbViewportTableRecord
  2
*Active
 70
     0
 10
0.0
 20
0.0
 11
1.0
 21
1.0
 12
10.42990654205607
 22
4.5
 13
0.0
 23
0.0
 14
0.5
 24
0.5
 15
0.5
 25
0.5
 16
0.0
 26
0.0
 36
1.0
 17
0.0
 27
0.0
 37
0.0
 40
9.0
 41
1.972972972850329
 42
50.0
 43
0.0
 44
0.0
 50
0.0
 51
0.0
 71
     0
 72
   100
 73
     1
 74
     3
 75
     0
 76
     0
 77
     0
 78
     0
281
     0
 65
     1
110
0.0
120
0.0
130
0.0
111
1.0
121
0.0
131
0.0
112
0.0
122
1.0
132
0.0
 79
     0
146
0.0
348
2F
 60
     3
 61
     5
292
     1
282
     1
141
0.0
142
0.0
 63
   250
361
6D
  0
ENDTAB
  0
TABLE
  2
LTYPE
  5
5
330
0
100
AcDbSymbolTable
 70
     1
  0
LTYPE
  5
14
330
5
100
AcDbSymbolTableRecord
100
AcDbLinetypeTableRecord
  2
ByBlock
 70
     0
  3

 72
    65
 73
     0
 40
0.0
  0
LTYPE
  5
15
330
5
100
AcDbSymbolTableRecord
100
AcDbLinetypeTableRecord
  2
ByLayer
 70
     0
  3

 72
    65
 73
     0
 40
0.0
  0
LTYPE
  5
16
330
5
100
AcDbSymbolTableRecord
100
AcDbLinetypeTableRecord
  2
Continuous
 70
     0
  3
Solid line
 72
    65
 73
     0
 40
0.0
  0
ENDTAB
  0
TABLE
  2
LAYER
  5
2
330
0
100
AcDbSymbolTable
 70
     2
  0
LAYER
  5
10
330
2
100
AcDbSymbolTableRecord
100
AcDbLayerTableRecord
  2
0
 70
     0
 62
     7
  6
Continuous
370
    -3
390
F
347
46
  0
LAYER
  5
6F
330
2
100
AcDbSymbolTableRecord
100
AcDbLayerTableRecord
  2
layer 1
 70
     0
 62
     7
  6
Continuous
370
    -3
390
F
347
46
  0
ENDTAB
  0
TABLE
  2
STYLE
  5
3
330
0
100
AcDbSymbolTable
 70
     1
  0
STYLE
  5
11
330
3
100
AcDbSymbolTableRecord
100
AcDbTextStyleTableRecord
  2
Standard
 70
     0
 40
0.0
 41
1.0
 50
0.0
 71
     0
 42
0.2
  3
txt
  4

  0
ENDTAB
  0
TABLE
  2
VIEW
  5
6
330
0
100
AcDbSymbolTable
 70
     0
  0
ENDTAB
  0
TABLE
  2
UCS
  5
7
330
0
100
AcDbSymbolTable
 70
     0
  0
ENDTAB
  0
TABLE
  2
APPID
  5
9
330
0
100
AcDbSymbolTable
 70
     3
  0
APPID
  5
12
330
9
100
AcDbSymbolTableRecord
100
AcDbRegAppTableRecord
  2
ACAD
 70
     0
  0
APPID
  5
6E
330
9
100
AcDbSymbolTableRecord
100
AcDbRegAppTableRecord
  2
ODA
 70
     0
  0
APPID
  5
B4
330
9
100
AcDbSymbolTableRecord
100
AcDbRegAppTableRecord
  2
ACAD_MLEADERVER
 70
     0
  0
ENDTAB
  0
TABLE
  2
DIMSTYLE
  5
A
330
0
100
AcDbSymbolTable
 70
     1
100
AcDbDimStyleTable
  0
DIMSTYLE
105
27
330
A
100
AcDbSymbolTableRecord
100
AcDbDimStyleTableRecord
  2
Standard
 70
     0
178
     0
340
11
  0
ENDTAB
  0
TABLE
  2
BLOCK_RECORD
  5
1
330
0
100
AcDbSymbolTable
 70
     1
  0
BLOCK_RECORD
  5
1F
330
1
100
AcDbSymbolTableRecord
100
AcDbBlockTableRecord
  2
*Model_Space
340
22
 70
     0
280
     1
281
     0
  0
BLOCK_RECORD
  5
1B
330
1
100
AcDbSymbolTableRecord
100
AcDbBlockTableRecord
  2
*Paper_Space
340
1E
 70
     0
280
     1
281
     0
  0
BLOCK_RECORD
  5
23
330
1
100
AcDbSymbolTableRecord
100
AcDbBlockTableRecord
  2
*Paper_Space0
340
26
 70
     0
280
     1
281
     0
  0
ENDTAB
  0
ENDSEC
  0
SECTION
  2
BLOCKS
  0
BLOCK
  5
20
330
1F
100
AcDbEntity
  8
0
100
AcDbBlockBegin
  2
*Model_Space
 70
     0
 10
0.0
 20
0.0
 30
0.0
  3
*Model_Space
  1

  0
ENDBLK
  5
21
330
1F
100
AcDbEntity
  8
0
100
AcDbBlockEnd
  0
BLOCK
  5
1C
330
1B
100
AcDbEntity
 67
     1
  8
0
100
AcDbBlockBegin
  2
*Paper_Space
 70
     0
 10
0.0
 20
0.0
 30
0.0
  3
*Paper_Space
  1

  0
ENDBLK
  5
1D
330
1B
100
AcDbEntity
 67
     1
  8
0
100
AcDbBlockEnd
  0
BLOCK
  5
24
330
23
100
AcDbEntity
  8
0
100
AcDbBlockBegin
  2
*Paper_Space0
 70
     0
 10
0.0
 20
0.0
 30
0.0
  3
*Paper_Space0
  1

  0
ENDBLK
  5
25
330
23
100
AcDbEntity
  8
0
100
AcDbBlockEnd
  0
ENDSEC
  0
SECTION
  2
ENTITIES
  0
SPLINE
  5
70
330
1F
100
AcDbEntity
  8
layer 1
370
     9
100
AcDbSpline
210
0.0
220
0.0
230
1.0
 70
    11
 71
     3
 72
   188
 73
   184
 74
     0
 42
0.000000001
 43
0.0000000001
 40
0.0
 40
0.0
 40
0.0
 40
0.0
 40
0.0212765957446809
 40
0.0212765957446809
 40
0.0212765957446809
 40
0.0212765957446809
 40
0.0425531914893617
 40
0.0425531914893617
 40
0.0425531914893617
 40
0.0425531914893617
 40
0.0638297872340425
 40
0.0638297872340425
 40
0.0638297872340425
 40
0.0638297872340425
 40
0.0851063829787234
 40
0.0851063829787234
 40
0.0851063829787234
 40
0.0851063829787234
 40
0.1063829787234043
 40
0.1063829787234043
 40
0.1063829787234043
 40
0.1063829787234043
 40
0.1276595744680851
 40
0.1276595744680851
 40
0.1276595744680851
 40
0.1276595744680851
 40
0.148936170212766
 40
0.148936170212766
 40
0.148936170212766
 40
0.148936170212766
 40
0.1702127659574468
 40
0.1702127659574468
 40
0.1702127659574468
 40
0.1702127659574468
 40
0.1914893617021277
 40
0.1914893617021277
 40
0.1914893617021277
 40
0.1914893617021277
 40
0.2127659574468085
 40
0.2127659574468085
 40
0.2127659574468085
 40
0.2127659574468085
 40
0.2340425531914894
 40
0.2340425531914894
 40
0.2340425531914894
 40
0.2340425531914894
 40
0.2553191489361702
 40
0.2553191489361702
 40
0.2553191489361702
 40
0.2553191489361702
 40
0.2765957446808511
 40
0.2765957446808511
 40
0.2765957446808511
 40
0.2765957446808511
 40
0.2978723404255319
 40
0.2978723404255319
 40
0.2978723404255319
 40
0.2978723404255319
 40
0.3191489361702128
 40
0.3191489361702128
 40
0.3191489361702128
 40
0.3191489361702128
 40
0.3404255319148936
 40
0.3404255319148936
 40
0.3404255319148936
 40
0.3404255319148936
 40
0.3617021276595745
 40
0.3617021276595745
 40
0.3617021276595745
 40
0.3617021276595745
 40
0.3829787234042553
 40
0.3829787234042553
 40
0.3829787234042553
 40
0.3829787234042553
 40
0.4042553191489361
 40
0.4042553191489361
 40
0.4042553191489361
 40
0.4042553191489361
 40
0.425531914893617
 40
0.425531914893617
 40
0.425531914893617
 40
0.425531914893617
 40
0.4468085106382979
 40
0.4468085106382979
 40
0.4468085106382979
 40
0.4468085106382979
 40
0.4680851063829787
 40
0.4680851063829787
 40
0.4680851063829787
 40
0.4680851063829787
 40
0.4893617021276596
 40
0.4893617021276596
 40
0.4893617021276596
 40
0.4893617021276596
 40
0.5106382978723404
 40
0.5106382978723404
 40
0.5106382978723404
 40
0.5106382978723404
 40
0.5319148936170213
 40
0.5319148936170213
 40
0.5319148936170213
 40
0.5319148936170213
 40
0.5531914893617021
 40
0.5531914893617021
 40
0.5531914893617021
 40
0.5531914893617021
 40
0.574468085106383
 40
0.574468085106383
 40
0.574468085106383
 40
0.574468085106383
 40
0.5957446808510638
 40
0.5957446808510638
 40
0.5957446808510638
 40
0.5957446808510638
 40
0.6170212765957447
 40
0.6170212765957447
 40
0.6170212765957447
 40
0.6170212765957447
 40
0.6382978723404256
 40
0.6382978723404256
 40
0.6382978723404256
 40
0.6382978723404256
 40
0.6595744680851063
 40
0.6595744680851063
 40
0.6595744680851063
 40
0.6595744680851063
 40
0.6808510638297872
 40
0.6808510638297872
 40
0.6808510638297872
 40
0.6808510638297872
 40
0.7021276595744681
 40
0.7021276595744681
 40
0.7021276595744681
 40
0.7021276595744681
 40
0.723404255319149
 40
0.723404255319149
 40
0.723404255319149
 40
0.723404255319149
 40
0.7446808510638298
 40
0.7446808510638298
 40
0.7446808510638298
 40
0.7446808510638298
 40
0.7659574468085106
 40
0.7659574468085106
 40
0.7659574468085106
 40
0.7659574468085106
 40
0.7872340425531915
 40
0.7872340425531915
 40
0.7872340425531915
 40
0.7872340425531915
 40
0.8085106382978723
 40
0.8085106382978723
 40
0.8085106382978723
 40
0.8085106382978723
 40
0.8297872340425532
 40
0.8297872340425532
 40
0.8297872340425532
 40
0.8297872340425532
 40
0.851063829787234
 40
0.851063829787234
 40
0.851063829787234
 40
0.851063829787234
 40
0.8723404255319149
 40
0.8723404255319149
 40
0.8723404255319149
 40
0.8723404255319149
 40
0.8936170212765957
 40
0.8936170212765957
 40
0.8936170212765957
 40
0.8936170212765957
 40
0.9148936170212766
 40
0.9148936170212766
 40
0.9148936170212766
 40
0.9148936170212766
 40
0.9361702127659575
 40
0.9361702127659575
 40
0.9361702127659575
 40
0.9361702127659575
 40
0.9574468085106383
 40
0.9574468085106383
 40
0.9574468085106383
 40
0.9574468085106383
 40
1.0
 40
1.0
 40
1.0
 40
1.0
 10
-82.829
 20
24.8051
 30
0.0
 10
-82.829
 20
24.8051
 30
0.0
 10
-118.829
 20
24.8051
 30
0.0
 10
-118.829
 20
24.8051
 30
0.0
 10
-118.829
 20
24.8051
 30
0.0
 10
-118.829
 20
24.8051
 30
0.0
 10
-120.829
 20
24.8051
 30
0.0
 10
-120.829
 20
26.8051
 30
0.0
 10
-120.829
 20
26.8051
 30
0.0
 10
-120.829
 20
26.8051
 30
0.0
 10
-120.829
 20
29.8051
 30
0.0
 10
-120.829
 20
29.8051
 30
0.0
 10
-120.829
 20
29.8051
 30
0.0
 10
-120.829
 20
29.8051
 30
0.0
 10
-180.7659
 20
29.8051
 30
0.0
 10
-180.7659
 20
29.8051
 30
0.0
 10
-180.7659
 20
29.8051
 30
0.0
 10
-180.7659
 20
29.8051
 30
0.0
 10
-180.7659
 20
133.0631
 30
0.0
 10
-180.7659
 20
133.0631
 30
0.0
 10
-180.7659
 20
133.0631
 30
0.0
 10
-180.7659
 20
133.0631
 30
0.0
 10
-182.2829
 20
133.0631
 30
0.0
 10
-182.2829
 20
133.0631
 30
0.0
 10
-182.2829
 20
133.0631
 30
0.0
 10
-182.2829
 20
133.0631
 30
0.0
 10
-182.5651
 20
133.0631
 30
0.0
 10
-182.5651
 20
133.0631
 30
0.0
 10
-182.5651
 20
133.0631
 30
0.0
 10
-182.5651
 20
133.0631
 30
0.0
 10
-182.8473
 20
133.1689
 30
0.0
 10
-182.8473
 20
133.1689
 30
0.0
 10
-182.8473
 20
133.1689
 30
0.0
 10
-182.8473
 20
133.1689
 30
0.0
 10
-183.1295
 20
133.3101
 30
0.0
 10
-183.1295
 20
133.3101
 30
0.0
 10
-183.1295
 20
133.3101
 30
0.0
 10
-183.1295
 20
133.3101
 30
0.0
 10
-183.3412
 20
133.4864
 30
0.0
 10
-183.3412
 20
133.4864
 30
0.0
 10
-183.3412
 20
133.4864
 30
0.0
 10
-183.3412
 20
133.4864
 30
0.0
 10
-183.5176
 20
133.6981
 30
0.0
 10
-183.5176
 20
133.6981
 30
0.0
 10
-183.5176
 20
133.6981
 30
0.0
 10
-183.5176
 20
133.6981
 30
0.0
 10
-183.6587
 20
133.9803
 30
0.0
 10
-183.6587
 20
133.9803
 30
0.0
 10
-183.6587
 20
133.9803
 30
0.0
 10
-183.6587
 20
133.9803
 30
0.0
 10
-183.7645
 20
134.2626
 30
0.0
 10
-183.7645
 20
134.2626
 30
0.0
 10
-183.7645
 20
134.2626
 30
0.0
 10
-183.7645
 20
134.2626
 30
0.0
 10
-183.7645
 20
134.5448
 30
0.0
 10
-183.7645
 20
134.5448
 30
0.0
 10
-183.7645
 20
134.5448
 30
0.0
 10
-183.7645
 20
134.5448
 30
0.0
 10
-183.7645
 20
141.5298
 30
0.0
 10
-183.7645
 20
141.5298
 30
0.0
 10
-183.7645
 20
141.5298
 30
0.0
 10
-183.7645
 20
141.5298
 30
0.0
 10
-183.7645
 20
141.8473
 30
0.0
 10
-183.7645
 20
141.8473
 30
0.0
 10
-183.7645
 20
141.8473
 30
0.0
 10
-183.7645
 20
141.8473
 30
0.0
 10
-183.6587
 20
142.1295
 30
0.0
 10
-183.6587
 20
142.1295
 30
0.0
 10
-183.6587
 20
142.1295
 30
0.0
 10
-183.6587
 20
142.1295
 30
0.0
 10
-183.5176
 20
142.3764
 30
0.0
 10
-183.5176
 20
142.3764
 30
0.0
 10
-183.5176
 20
142.3764
 30
0.0
 10
-183.5176
 20
142.3764
 30
0.0
 10
-183.3412
 20
142.6234
 30
0.0
 10
-183.3412
 20
142.6234
 30
0.0
 10
-183.3412
 20
142.6234
 30
0.0
 10
-183.3412
 20
142.6234
 30
0.0
 10
-183.1295
 20
142.7998
 30
0.0
 10
-183.1295
 20
142.7998
 30
0.0
 10
-183.1295
 20
142.7998
 30
0.0
 10
-183.1295
 20
142.7998
 30
0.0
 10
-182.8473
 20
142.9409
 30
0.0
 10
-182.8473
 20
142.9409
 30
0.0
 10
-182.8473
 20
142.9409
 30
0.0
 10
-182.8473
 20
142.9409
 30
0.0
 10
-182.5651
 20
143.0114
 30
0.0
 10
-182.5651
 20
143.0114
 30
0.0
 10
-182.5651
 20
143.0114
 30
0.0
 10
-182.5651
 20
143.0114
 30
0.0
 10
-182.2829
 20
143.0467
 30
0.0
 10
-182.2829
 20
143.0467
 30
0.0
 10
-182.2829
 20
143.0467
 30
0.0
 10
-182.2829
 20
143.0467
 30
0.0
 10
-19.2995
 20
143.0467
 30
0.0
 10
-19.2995
 20
143.0467
 30
0.0
 10
-19.2995
 20
143.0467
 30
0.0
 10
-19.2995
 20
143.0467
 30
0.0
 10
-19.0173
 20
143.0114
 30
0.0
 10
-19.0173
 20
143.0114
 30
0.0
 10
-19.0173
 20
143.0114
 30
0.0
 10
-19.0173
 20
143.0114
 30
0.0
 10
-18.7351
 20
142.9409
 30
0.0
 10
-18.7351
 20
142.9409
 30
0.0
 10
-18.7351
 20
142.9409
 30
0.0
 10
-18.7351
 20
142.9409
 30
0.0
 10
-18.4882
 20
142.7998
 30
0.0
 10
-18.4882
 20
142.7998
 30
0.0
 10
-18.4882
 20
142.7998
 30
0.0
 10
-18.4882
 20
142.7998
 30
0.0
 10
-18.2412
 20
142.6234
 30
0.0
 10
-18.2412
 20
142.6234
 30
0.0
 10
-18.2412
 20
142.6234
 30
0.0
 10
-18.2412
 20
142.6234
 30
0.0
 10
-18.0648
 20
142.3764
 30
0.0
 10
-18.0648
 20
142.3764
 30
0.0
 10
-18.0648
 20
142.3764
 30
0.0
 10
-18.0648
 20
142.3764
 30
0.0
 10
-17.9237
 20
142.1295
 30
0.0
 10
-17.9237
 20
142.1295
 30
0.0
 10
-17.9237
 20
142.1295
 30
0.0
 10
-17.9237
 20
142.1295
 30
0.0
 10
-17.8532
 20
141.8473
 30
0.0
 10
-17.8532
 20
141.8473
 30
0.0
 10
-17.8532
 20
141.8473
 30
0.0
 10
-17.8532
 20
141.8473
 30
0.0
 10
-17.8179
 20
141.5298
 30
0.0
 10
-17.8179
 20
141.5298
 30
0.0
 10
-17.8179
 20
141.5298
 30
0.0
 10
-17.8179
 20
141.5298
 30
0.0
 10
-17.8179
 20
134.5448
 30
0.0
 10
-17.8179
 20
134.5448
 30
0.0
 10
-17.8179
 20
134.5448
 30
0.0
 10
-17.8179
 20
134.5448
 30
0.0
 10
-17.8532
 20
134.2626
 30
0.0
 10
-17.8532
 20
134.2626
 30
0.0
 10
-17.8532
 20
134.2626
 30
0.0
 10
-17.8532
 20
134.2626
 30
0.0
 10
-17.9237
 20
133.9803
 30
0.0
 10
-17.9237
 20
133.9803
 30
0.0
 10
-17.9237
 20
133.9803
 30
0.0
 10
-17.9237
 20
133.9803
 30
0.0
 10
-18.0648
 20
133.6981
 30
0.0
 10
-18.0648
 20
133.6981
 30
0.0
 10
-18.0648
 20
133.6981
 30
0.0
 10
-18.0648
 20
133.6981
 30
0.0
 10
-18.2412
 20
133.4864
 30
0.0
 10
-18.2412
 20
133.4864
 30
0.0
 10
-18.2412
 20
133.4864
 30
0.0
 10
-18.2412
 20
133.4864
 30
0.0
 10
-18.4882
 20
133.3101
 30
0.0
 10
-18.4882
 20
133.3101
 30
0.0
 10
-18.4882
 20
133.3101
 30
0.0
 10
-18.4882
 20
133.3101
 30
0.0
 10
-18.7351
 20
133.1689
 30
0.0
 10
-18.7351
 20
133.1689
 30
0.0
 10
-18.7351
 20
133.1689
 30
0.0
 10
-18.7351
 20
133.1689
 30
0.0
 10
-19.0173
 20
133.0631
 30
0.0
 10
-19.0173
 20
133.0631
 30
0.0
 10
-19.0173
 20
133.0631
 30
0.0
 10
-19.0173
 20
133.0631
 30
0.0
 10
-19.2995
 20
133.0631
 30
0.0
 10
-19.2995
 20
133.0631
 30
0.0
 10
-19.2995
 20
133.0631
 30
0.0
 10
-19.2995
 20
133.0631
 30
0.0
 10
-20.8165
 20
133.0631
 30
0.0
 10
-20.8165
 20
133.0631
 30
0.0
 10
-20.8165
 20
133.0631
 30
0.0
 10
-20.8165
 20
133.0631
 30
0.0
 10
-20.8165
 20
29.8051
 30
0.0
 10
-20.8165
 20
29.8051
 30
0.0
 10
-20.8165
 20
29.8051
 30
0.0
 10
-20.8165
 20
29.8051
 30
0.0
 10
-80.824
 20
29.8051
 30
0.0
 10
-80.824
 20
29.8051
 30
0.0
 10
-80.824
 20
29.8051
 30
0.0
 10
-80.824
 20
29.8051
 30
0.0
 10
-80.829
 20
26.8051
 30
0.0
 10
-80.829
 20
26.8051
 30
0.0
 10
-80.829
 20
26.8051
 30
0.0
 10
-80.829
 20
24.8051
 30
0.0
 10
-82.829
 20
24.8051
 30
0.0
 10
-82.829
 20
24.8051
 30
0.0
  0
SPLINE
  5
71
330
1F
100
AcDbEntity
  8
layer 1
 62
     1
370
     9
100
AcDbSpline
210
0.0
220
0.0
230
1.0
 70
    11
 71
     3
 72
   132
 73
   128
 74
     0
 42
0.000000001
 43
0.0000000001
 40
0.0
 40
0.0
 40
0.0
 40
0.0
 40
0.0303030303030303
 40
0.0303030303030303
 40
0.0303030303030303
 40
0.0303030303030303
 40
0.0606060606060606
 40
0.0606060606060606
 40
0.0606060606060606
 40
0.0606060606060606
 40
0.0909090909090909
 40
0.0909090909090909
 40
0.0909090909090909
 40
0.0909090909090909
 40
0.1212121212121212
 40
0.1212121212121212
 40
0.1212121212121212
 40
0.1212121212121212
 40
0.1515151515151515
 40
0.1515151515151515
 40
0.1515151515151515
 40
0.1515151515151515
 40
0.1818181818181818
 40
0.1818181818181818
 40
0.1818181818181818
 40
0.1818181818181818
 40
0.2121212121212121
 40
0.2121212121212121
 40
0.2121212121212121
 40
0.2121212121212121
 40
0.2424242424242424
 40
0.2424242424242424
 40
0.2424242424242424
 40
0.2424242424242424
 40
0.2727272727272727
 40
0.2727272727272727
 40
0.2727272727272727
 40
0.2727272727272727
 40
0.303030303030303
 40
0.303030303030303
 40
0.303030303030303
 40
0.303030303030303
 40
0.3333333333333333
 40
0.3333333333333333
 40
0.3333333333333333
 40
0.3333333333333333
 40
0.3636363636363636
 40
0.3636363636363636
 40
0.3636363636363636
 40
0.3636363636363636
 40
0.3939393939393939
 40
0.3939393939393939
 40
0.3939393939393939
 40
0.3939393939393939
 40
0.4242424242424243
 40
0.4242424242424243
 40
0.4242424242424243
 40
0.4242424242424243
 40
0.4545454545454545
 40
0.4545454545454545
 40
0.4545454545454545
 40
0.4545454545454545
 40
0.4848484848484849
 40
0.4848484848484849
 40
0.4848484848484849
 40
0.4848484848484849
 40
0.5151515151515151
 40
0.5151515151515151
 40
0.5151515151515151
 40
0.5151515151515151
 40
0.5454545454545454
 40
0.5454545454545454
 40
0.5454545454545454
 40
0.5454545454545454
 40
0.5757575757575758
 40
0.5757575757575758
 40
0.5757575757575758
 40
0.5757575757575758
 40
0.6060606060606061
 40
0.6060606060606061
 40
0.6060606060606061
 40
0.6060606060606061
 40
0.6363636363636364
 40
0.6363636363636364
 40
0.6363636363636364
 40
0.6363636363636364
 40
0.6666666666666666
 40
0.6666666666666666
 40
0.6666666666666666
 40
0.6666666666666666
 40
0.696969696969697
 40
0.696969696969697
 40
0.696969696969697
 40
0.696969696969697
 40
0.7272727272727273
 40
0.7272727272727273
 40
0.7272727272727273
 40
0.7272727272727273
 40
0.7575757575757576
 40
0.7575757575757576
 40
0.7575757575757576
 40
0.7575757575757576
 40
0.7878787878787878
 40
0.7878787878787878
 40
0.7878787878787878
 40
0.7878787878787878
 40
0.8181818181818182
 40
0.8181818181818182
 40
0.8181818181818182
 40
0.8181818181818182
 40
0.8484848484848485
 40
0.8484848484848485
 40
0.8484848484848485
 40
0.8484848484848485
 40
0.8787878787878788
 40
0.8787878787878788
 40
0.8787878787878788
 40
0.8787878787878788
 40
0.9090909090909091
 40
0.9090909090909091
 40
0.9090909090909091
 40
0.9090909090909091
 40
0.9393939393939394
 40
0.9393939393939394
 40
0.9393939393939394
 40
0.9393939393939394
 40
1.0
 40
1.0
 40
1.0
 40
1.0
 10
45.9455
 20
-18.4868
 30
0.0
 10
45.9455
 20
-18.4868
 30
0.0
 10
46.263
 20
-19.8626
 30
0.0
 10
46.263
 20
-19.8626
 30
0.0
 10
46.263
 20
-19.8626
 30
0.0
 10
46.263
 20
-19.8626
 30
0.0
 10
46.1572
 20
-21.2384
 30
0.0
 10
46.1572
 20
-21.2384
 30
0.0
 10
46.1572
 20
-21.2384
 30
0.0
 10
46.1572
 20
-21.2384
 30
0.0
 10
45.7338
 20
-22.579
 30
0.0
 10
45.7338
 20
-22.579
 30
0.0
 10
45.7338
 20
-22.579
 30
0.0
 10
45.7338
 20
-22.579
 30
0.0
 10
44.9224
 20
-23.7431
 30
0.0
 10
44.9224
 20
-23.7431
 30
0.0
 10
44.9224
 20
-23.7431
 30
0.0
 10
44.9224
 20
-23.7431
 30
0.0
 10
43.8641
 20
-24.6251
 30
0.0
 10
43.8641
 20
-24.6251
 30
0.0
 10
43.8641
 20
-24.6251
 30
0.0
 10
43.8641
 20
-24.6251
 30
0.0
 10
42.6294
 20
-25.2248
 30
0.0
 10
42.6294
 20
-25.2248
 30
0.0
 10
42.6294
 20
-25.2248
 30
0.0
 10
42.6294
 20
-25.2248
 30
0.0
 10
41.2536
 20
-25.4718
 30
0.0
 10
41.2536
 20
-25.4718
 30
0.0
 10
41.2536
 20
-25.4718
 30
0.0
 10
41.2536
 20
-25.4718
 30
0.0
 10
39.8424
 20
-25.3659
 30
0.0
 10
39.8424
 20
-25.3659
 30
0.0
 10
39.8424
 20
-25.3659
 30
0.0
 10
39.8424
 20
-25.3659
 30
0.0
 10
38.5372
 20
-24.872
 30
0.0
 10
38.5372
 20
-24.872
 30
0.0
 10
38.5372
 20
-24.872
 30
0.0
 10
38.5372
 20
-24.872
 30
0.0
 10
37.4083
 20
-24.0606
 30
0.0
 10
37.4083
 20
-24.0606
 30
0.0
 10
37.4083
 20
-24.0606
 30
0.0
 10
37.4083
 20
-24.0606
 30
0.0
 10
36.5263
 20
-22.967
 30
0.0
 10
36.5263
 20
-22.967
 30
0.0
 10
36.5263
 20
-22.967
 30
0.0
 10
36.5263
 20
-22.967
 30
0.0
 10
35.9619
 20
-21.697
 30
0.0
 10
35.9619
 20
-21.697
 30
0.0
 10
35.9619
 20
-21.697
 30
0.0
 10
35.9619
 20
-21.697
 30
0.0
 10
35.7502
 20
-20.3212
 30
0.0
 10
35.7502
 20
-20.3212
 30
0.0
 10
35.7502
 20
-20.3212
 30
0.0
 10
35.7502
 20
-20.3212
 30
0.0
 10
35.9266
 20
-18.9454
 30
0.0
 10
35.9266
 20
-18.9454
 30
0.0
 10
35.9266
 20
-18.9454
 30
0.0
 10
35.9266
 20
-18.9454
 30
0.0
 10
36.4558
 20
-17.6401
 30
0.0
 10
36.4558
 20
-17.6401
 30
0.0
 10
36.4558
 20
-17.6401
 30
0.0
 10
36.4558
 20
-17.6401
 30
0.0
 10
37.3024
 20
-16.5465
 30
0.0
 10
37.3024
 20
-16.5465
 30
0.0
 10
37.3024
 20
-16.5465
 30
0.0
 10
37.3024
 20
-16.5465
 30
0.0
 10
38.3961
 20
-15.6645
 30
0.0
 10
38.3961
 20
-15.6645
 30
0.0
 10
38.3961
 20
-15.6645
 30
0.0
 10
38.3961
 20
-15.6645
 30
0.0
 10
39.7013
 20
-15.1706
 30
0.0
 10
39.7013
 20
-15.1706
 30
0.0
 10
39.7013
 20
-15.1706
 30
0.0
 10
39.7013
 20
-15.1706
 30
0.0
 10
41.0772
 20
-14.9943
 30
0.0
 10
41.0772
 20
-14.9943
 30
0.0
 10
41.0772
 20
-14.9943
 30
0.0
 10
41.0772
 20
-14.9943
 30
0.0
 10
42.453
 20
-15.2059
 30
0.0
 10
42.453
 20
-15.2059
 30
0.0
 10
42.453
 20
-15.2059
 30
0.0
 10
42.453
 20
-15.2059
 30
0.0
 10
43.7583
 20
-15.7704
 30
0.0
 10
43.7583
 20
-15.7704
 30
0.0
 10
43.7583
 20
-15.7704
 30
0.0
 10
43.7583
 20
-15.7704
 30
0.0
 10
44.8166
 20
-16.617
 30
0.0
 10
44.8166
 20
-16.617
 30
0.0
 10
44.8166
 20
-16.617
 30
0.0
 10
44.8166
 20
-16.617
 30
0.0
 10
43.9347
 20
-18.2045
 30
0.0
 10
43.9347
 20
-18.2045
 30
0.0
 10
43.9347
 20
-18.2045
 30
0.0
 10
43.9347
 20
-18.2045
 30
0.0
 10
43.8994
 20
-18.2398
 30
0.0
 10
43.8994
 20
-18.2398
 30
0.0
 10
43.8994
 20
-18.2398
 30
0.0
 10
43.8994
 20
-18.2398
 30
0.0
 10
43.8994
 20
-18.2751
 30
0.0
 10
43.8994
 20
-18.2751
 30
0.0
 10
43.8994
 20
-18.2751
 30
0.0
 10
43.8994
 20
-18.2751
 30
0.0
 10
43.8994
 20
-18.3456
 30
0.0
 10
43.8994
 20
-18.3456
 30
0.0
 10
43.8994
 20
-18.3456
 30
0.0
 10
43.8994
 20
-18.3456
 30
0.0
 10
43.9347
 20
-18.3809
 30
0.0
 10
43.9347
 20
-18.3809
 30
0.0
 10
43.9347
 20
-18.3809
 30
0.0
 10
43.9347
 20
-18.3809
 30
0.0
 10
43.9699
 20
-18.4162
 30
0.0
 10
43.9699
 20
-18.4162
 30
0.0
 10
43.9699
 20
-18.4162
 30
0.0
 10
43.9699
 20
-18.4162
 30
0.0
 10
44.0052
 20
-18.4515
 30
0.0
 10
44.0052
 20
-18.4515
 30
0.0
 10
44.0052
 20
-18.4515
 30
0.0
 10
44.0052
 20
-18.4515
 30
0.0
 10
44.0405
 20
-18.4868
 30
0.0
 10
44.0405
 20
-18.4868
 30
0.0
 10
44.0405
 20
-18.4868
 30
0.0
 10
44.0405
 20
-18.4868
 30
0.0
 10
44.1111
 20
-18.4868
 30
0.0
 10
44.1111
 20
-18.4868
 30
0.0
 10
44.1111
 20
-18.4868
 30
0.0
 10
44.1111
 20
-18.4868
 30
0.0
 10
45.9455
 20
-18.4868
 30
0.0
 10
45.9455
 20
-18.4868
 30
0.0
  0
SPLINE
  5
72
330
1F
100
AcDbEntity
  8
layer 1
 62
     1
370
     9
100
AcDbSpline
210
0.0
220
0.0
230
1.0
 70
    11
 71
     3
 72
    20
 73
    16
 74
     0
 42
0.000000001
 43
0.0000000001
 40
0.0
 40
0.0
 40
0.0
 40
0.0
 40
0.2
 40
0.2
 40
0.2
 40
0.2
 40
0.4
 40
0.4
 40
0.4
 40
0.4
 40
0.6
 40
0.6
 40
0.6
 40
0.6
 40
1.0
 40
1.0
 40
1.0
 40
1.0
 10
2.7655
 20
-64.7359
 30
0.0
 10
2.7655
 20
-64.7359
 30
0.0
 10
-37.2042
 20
-64.7359
 30
0.0
 10
-37.2042
 20
-64.7359
 30
0.0
 10
-37.2042
 20
-64.7359
 30
0.0
 10
-37.2042
 20
-64.7359
 30
0.0
 10
-37.2042
 20
-61.7373
 30
0.0
 10
-37.2042
 20
-61.7373
 30
0.0
 10
-37.2042
 20
-61.7373
 30
0.0
 10
-37.2042
 20
-61.7373
 30
0.0
 10
2.7655
 20
-61.7373
 30
0.0
 10
2.7655
 20
-61.7373
 30
0.0
 10
2.7655
 20
-61.7373
 30
0.0
 10
2.7655
 20
-61.7373
 30
0.0
 10
2.7655
 20
-64.7359
 30
0.0
 10
2.7655
 20
-64.7359
 30
0.0
  0
SPLINE
  5
73
330
1F
100
AcDbEntity
  8
layer 1
370
     9
100
AcDbSpline
210
0.0
220
0.0
230
1.0
 70
    11
 71
     3
 72
   388
 73
   384
 74
     0
 42
0.000000001
 43
0.0000000001
 40
0.0
 40
0.0
 40
0.0
 40
0.0
 40
0.0103092783505155
 40
0.0103092783505155
 40
0.0103092783505155
 40
0.0103092783505155
 40
0.0206185567010309
 40
0.0206185567010309
 40
0.0206185567010309
 40
0.0206185567010309
 40
0.0309278350515464
 40
0.0309278350515464
 40
0.0309278350515464
 40
0.0309278350515464
 40
0.0412371134020619
 40
0.0412371134020619
 40
0.0412371134020619
 40
0.0412371134020619
 40
0.0515463917525773
 40
0.0515463917525773
 40
0.0515463917525773
 40
0.0515463917525773
 40
0.0618556701030928
 40
0.0618556701030928
 40
0.0618556701030928
 40
0.0618556701030928
 40
0.0721649484536082
 40
0.0721649484536082
 40
0.0721649484536082
 40
0.0721649484536082
 40
0.0824742268041237
 40
0.0824742268041237
 40
0.0824742268041237
 40
0.0824742268041237
 40
0.0927835051546392
 40
0.0927835051546392
 40
0.0927835051546392
 40
0.0927835051546392
 40
0.1030927835051546
 40
0.1030927835051546
 40
0.1030927835051546
 40
0.1030927835051546
 40
0.1134020618556701
 40
0.1134020618556701
 40
0.1134020618556701
 40
0.1134020618556701
 40
0.1237113402061856
 40
0.1237113402061856
 40
0.1237113402061856
 40
0.1237113402061856
 40
0.134020618556701
 40
0.134020618556701
 40
0.134020618556701
 40
0.134020618556701
 40
0.1443298969072165
 40
0.1443298969072165
 40
0.1443298969072165
 40
0.1443298969072165
 40
0.154639175257732
 40
0.154639175257732
 40
0.154639175257732
 40
0.154639175257732
 40
0.1649484536082474
 40
0.1649484536082474
 40
0.1649484536082474
 40
0.1649484536082474
 40
0.1752577319587629
 40
0.1752577319587629
 40
0.1752577319587629
 40
0.1752577319587629
 40
0.1855670103092784
 40
0.1855670103092784
 40
0.1855670103092784
 40
0.1855670103092784
 40
0.1958762886597938
 40
0.1958762886597938
 40
0.1958762886597938
 40
0.1958762886597938
 40
0.2061855670103093
 40
0.2061855670103093
 40
0.2061855670103093
 40
0.2061855670103093
 40
0.2164948453608248
 40
0.2164948453608248
 40
0.2164948453608248
 40
0.2164948453608248
 40
0.2268041237113402
 40
0.2268041237113402
 40
0.2268041237113402
 40
0.2268041237113402
 40
0.2371134020618557
 40
0.2371134020618557
 40
0.2371134020618557
 40
0.2371134020618557
 40
0.2474226804123711
 40
0.2474226804123711
 40
0.2474226804123711
 40
0.2474226804123711
 40
0.2577319587628866
 40
0.2577319587628866
 40
0.2577319587628866
 40
0.2577319587628866
 40
0.2680412371134021
 40
0.2680412371134021
 40
0.2680412371134021
 40
0.2680412371134021
 40
0.2783505154639175
 40
0.2783505154639175
 40
0.2783505154639175
 40
0.2783505154639175
 40
0.288659793814433
 40
0.288659793814433
 40
0.288659793814433
 40
0.288659793814433
 40
0.2989690721649484
 40
0.2989690721649484
 40
0.2989690721649484
 40
0.2989690721649484
 40
0.3092783505154639
 40
0.3092783505154639
 40
0.3092783505154639
 40
0.3092783505154639
 40
0.3195876288659794
 40
0.3195876288659794
 40
0.3195876288659794
 40
0.3195876288659794
 40
0.3298969072164948
 40
0.3298969072164948
 40
0.3298969072164948
 40
0.3298969072164948
 40
0.3402061855670103
 40
0.3402061855670103
 40
0.3402061855670103
 40
0.3402061855670103
 40
0.3505154639175257
 40
0.3505154639175257
 40
0.3505154639175257
 40
0.3505154639175257
 40
0.3608247422680412
 40
0.3608247422680412
 40
0.3608247422680412
 40
0.3608247422680412
 40
0.3711340206185567
 40
0.3711340206185567
 40
0.3711340206185567
 40
0.3711340206185567
 40
0.3814432989690721
 40
0.3814432989690721
 40
0.3814432989690721
 40
0.3814432989690721
 40
0.3917525773195876
 40
0.3917525773195876
 40
0.3917525773195876
 40
0.3917525773195876
 40
0.4020618556701031
 40
0.4020618556701031
 40
0.4020618556701031
 40
0.4020618556701031
 40
0.4123711340206185
 40
0.4123711340206185
 40
0.4123711340206185
 40
0.4123711340206185
 40
0.422680412371134
 40
0.422680412371134
 40
0.422680412371134
 40
0.422680412371134
 40
0.4329896907216495
 40
0.4329896907216495
 40
0.4329896907216495
 40
0.4329896907216495
 40
0.4432989690721649
 40
0.4432989690721649
 40
0.4432989690721649
 40
0.4432989690721649
 40
0.4536082474226804
 40
0.4536082474226804
 40
0.4536082474226804
 40
0.4536082474226804
 40
0.4639175257731959
 40
0.4639175257731959
 40
0.4639175257731959
 40
0.4639175257731959
 40
0.4742268041237113
 40
0.4742268041237113
 40
0.4742268041237113
 40
0.4742268041237113
 40
0.4845360824742268
 40
0.4845360824742268
 40
0.4845360824742268
 40
0.4845360824742268
 40
0.4948453608247423
 40
0.4948453608247423
 40
0.4948453608247423
 40
0.4948453608247423
 40
0.5051546391752577
 40
0.5051546391752577
 40
0.5051546391752577
 40
0.5051546391752577
 40
0.5154639175257731
 40
0.5154639175257731
 40
0.5154639175257731
 40
0.5154639175257731
 40
0.5257731958762887
 40
0.5257731958762887
 40
0.5257731958762887
 40
0.5257731958762887
 40
0.5360824742268041
 40
0.5360824742268041
 40
0.5360824742268041
 40
0.5360824742268041
 40
0.5463917525773195
 40
0.5463917525773195
 40
0.5463917525773195
 40
0.5463917525773195
 40
0.5567010309278351
 40
0.5567010309278351
 40
0.5567010309278351
 40
0.5567010309278351
 40
0.5670103092783505
 40
0.5670103092783505
 40
0.5670103092783505
 40
0.5670103092783505
 40
0.5773195876288659
 40
0.5773195876288659
 40
0.5773195876288659
 40
0.5773195876288659
 40
0.5876288659793815
 40
0.5876288659793815
 40
0.5876288659793815
 40
0.5876288659793815
 40
0.5979381443298969
 40
0.5979381443298969
 40
0.5979381443298969
 40
0.5979381443298969
 40
0.6082474226804123
 40
0.6082474226804123
 40
0.6082474226804123
 40
0.6082474226804123
 40
0.6185567010309279
 40
0.6185567010309279
 40
0.6185567010309279
 40
0.6185567010309279
 40
0.6288659793814433
 40
0.6288659793814433
 40
0.6288659793814433
 40
0.6288659793814433
 40
0.6391752577319587
 40
0.6391752577319587
 40
0.6391752577319587
 40
0.6391752577319587
 40
0.6494845360824743
 40
0.6494845360824743
 40
0.6494845360824743
 40
0.6494845360824743
 40
0.6597938144329897
 40
0.6597938144329897
 40
0.6597938144329897
 40
0.6597938144329897
 40
0.6701030927835051
 40
0.6701030927835051
 40
0.6701030927835051
 40
0.6701030927835051
 40
0.6804123711340206
 40
0.6804123711340206
 40
0.6804123711340206
 40
0.6804123711340206
 40
0.6907216494845361
 40
0.6907216494845361
 40
0.6907216494845361
 40
0.6907216494845361
 40
0.7010309278350515
 40
0.7010309278350515
 40
0.7010309278350515
 40
0.7010309278350515
 40
0.711340206185567
 40
0.711340206185567
 40
0.711340206185567
 40
0.711340206185567
 40
0.7216494845360825
 40
0.7216494845360825
 40
0.7216494845360825
 40
0.7216494845360825
 40
0.7319587628865979
 40
0.7319587628865979
 40
0.7319587628865979
 40
0.7319587628865979
 40
0.7422680412371134
 40
0.7422680412371134
 40
0.7422680412371134
 40
0.7422680412371134
 40
0.7525773195876289
 40
0.7525773195876289
 40
0.7525773195876289
 40
0.7525773195876289
 40
0.7628865979381443
 40
0.7628865979381443
 40
0.7628865979381443
 40
0.7628865979381443
 40
0.7731958762886598
 40
0.7731958762886598
 40
0.7731958762886598
 40
0.7731958762886598
 40
0.7835051546391752
 40
0.7835051546391752
 40
0.7835051546391752
 40
0.7835051546391752
 40
0.7938144329896907
 40
0.7938144329896907
 40
0.7938144329896907
 40
0.7938144329896907
 40
0.8041237113402062
 40
0.8041237113402062
 40
0.8041237113402062
 40
0.8041237113402062
 40
0.8144329896907216
 40
0.8144329896907216
 40
0.8144329896907216
 40
0.8144329896907216
 40
0.8247422680412371
 40
0.8247422680412371
 40
0.8247422680412371
 40
0.8247422680412371
 40
0.8350515463917526
 40
0.8350515463917526
 40
0.8350515463917526
 40
0.8350515463917526
 40
0.845360824742268
 40
0.845360824742268
 40
0.845360824742268
 40
0.845360824742268
 40
0.8556701030927835
 40
0.8556701030927835
 40
0.8556701030927835
 40
0.8556701030927835
 40
0.865979381443299
 40
0.865979381443299
 40
0.865979381443299
 40
0.865979381443299
 40
0.8762886597938144
 40
0.8762886597938144
 40
0.8762886597938144
 40
0.8762886597938144
 40
0.8865979381443299
 40
0.8865979381443299
 40
0.8865979381443299
 40
0.8865979381443299
 40
0.8969072164948454
 40
0.8969072164948454
 40
0.8969072164948454
 40
0.8969072164948454
 40
0.9072164948453608
 40
0.9072164948453608
 40
0.9072164948453608
 40
0.9072164948453608
 40
0.9175257731958762
 40
0.9175257731958762
 40
0.9175257731958762
 40
0.9175257731958762
 40
0.9278350515463918
 40
0.9278350515463918
 40
0.9278350515463918
 40
0.9278350515463918
 40
0.9381443298969072
 40
0.9381443298969072
 40
0.9381443298969072
 40
0.9381443298969072
 40
0.9484536082474226
 40
0.9484536082474226
 40
0.9484536082474226
 40
0.9484536082474226
 40
0.9587628865979382
 40
0.9587628865979382
 40
0.9587628865979382
 40
0.9587628865979382
 40
0.9690721649484536
 40
0.9690721649484536
 40
0.9690721649484536
 40
0.9690721649484536
 40
0.979381443298969
 40
0.979381443298969
 40
0.979381443298969
 40
0.979381443298969
 40
1.0
 40
1.0
 40
1.0
 40
1.0
 10
50.7786
 20
-24.237
 30
0.0
 10
50.7786
 20
-24.237
 30
0.0
 10
50.6727
 20
-25.0131
 30
0.0
 10
50.6727
 20
-25.0131
 30
0.0
 10
50.6727
 20
-25.0131
 30
0.0
 10
50.6727
 20
-25.0131
 30
0.0
 10
50.4611
 20
-25.754
 30
0.0
 10
50.4611
 20
-25.754
 30
0.0
 10
50.4611
 20
-25.754
 30
0.0
 10
50.4611
 20
-25.754
 30
0.0
 10
50.073
 20
-26.4595
 30
0.0
 10
50.073
 20
-26.4595
 30
0.0
 10
50.073
 20
-26.4595
 30
0.0
 10
50.073
 20
-26.4595
 30
0.0
 10
49.5791
 20
-27.0593
 30
0.0
 10
49.5791
 20
-27.0593
 30
0.0
 10
49.5791
 20
-27.0593
 30
0.0
 10
49.5791
 20
-27.0593
 30
0.0
 10
48.9794
 20
-27.5531
 30
0.0
 10
48.9794
 20
-27.5531
 30
0.0
 10
48.9794
 20
-27.5531
 30
0.0
 10
48.9794
 20
-27.5531
 30
0.0
 10
48.3091
 20
-27.9412
 30
0.0
 10
48.3091
 20
-27.9412
 30
0.0
 10
48.3091
 20
-27.9412
 30
0.0
 10
48.3091
 20
-27.9412
 30
0.0
 10
47.533
 20
-28.1529
 30
0.0
 10
47.533
 20
-28.1529
 30
0.0
 10
47.533
 20
-28.1529
 30
0.0
 10
47.533
 20
-28.1529
 30
0.0
 10
46.7569
 20
-28.2234
 30
0.0
 10
46.7569
 20
-28.2234
 30
0.0
 10
46.7569
 20
-28.2234
 30
0.0
 10
46.7569
 20
-28.2234
 30
0.0
 10
45.7691
 20
-28.2234
 30
0.0
 10
45.7691
 20
-28.2234
 30
0.0
 10
45.7691
 20
-28.2234
 30
0.0
 10
45.7691
 20
-28.2234
 30
0.0
 10
45.7691
 20
-71.7209
 30
0.0
 10
45.7691
 20
-71.7209
 30
0.0
 10
45.7691
 20
-71.7209
 30
0.0
 10
45.7691
 20
-71.7209
 30
0.0
 10
45.7338
 20
-72.1443
 30
0.0
 10
45.7338
 20
-72.1443
 30
0.0
 10
45.7338
 20
-72.1443
 30
0.0
 10
45.7338
 20
-72.1443
 30
0.0
 10
45.5927
 20
-72.497
 30
0.0
 10
45.5927
 20
-72.497
 30
0.0
 10
45.5927
 20
-72.497
 30
0.0
 10
45.5927
 20
-72.497
 30
0.0
 10
45.4163
 20
-72.8498
 30
0.0
 10
45.4163
 20
-72.8498
 30
0.0
 10
45.4163
 20
-72.8498
 30
0.0
 10
45.4163
 20
-72.8498
 30
0.0
 10
45.1694
 20
-73.1673
 30
0.0
 10
45.1694
 20
-73.1673
 30
0.0
 10
45.1694
 20
-73.1673
 30
0.0
 10
45.1694
 20
-73.1673
 30
0.0
 10
44.8872
 20
-73.4143
 30
0.0
 10
44.8872
 20
-73.4143
 30
0.0
 10
44.8872
 20
-73.4143
 30
0.0
 10
44.8872
 20
-73.4143
 30
0.0
 10
44.5344
 20
-73.5906
 30
0.0
 10
44.5344
 20
-73.5906
 30
0.0
 10
44.5344
 20
-73.5906
 30
0.0
 10
44.5344
 20
-73.5906
 30
0.0
 10
44.1463
 20
-73.6965
 30
0.0
 10
44.1463
 20
-73.6965
 30
0.0
 10
44.1463
 20
-73.6965
 30
0.0
 10
44.1463
 20
-73.6965
 30
0.0
 10
43.7583
 20
-73.7318
 30
0.0
 10
43.7583
 20
-73.7318
 30
0.0
 10
43.7583
 20
-73.7318
 30
0.0
 10
43.7583
 20
-73.7318
 30
0.0
 10
37.7611
 20
-73.7318
 30
0.0
 10
37.7611
 20
-73.7318
 30
0.0
 10
37.7611
 20
-73.7318
 30
0.0
 10
37.7611
 20
-73.7318
 30
0.0
 10
37.373
 20
-73.6965
 30
0.0
 10
37.373
 20
-73.6965
 30
0.0
 10
37.373
 20
-73.6965
 30
0.0
 10
37.373
 20
-73.6965
 30
0.0
 10
36.9849
 20
-73.5906
 30
0.0
 10
36.9849
 20
-73.5906
 30
0.0
 10
36.9849
 20
-73.5906
 30
0.0
 10
36.9849
 20
-73.5906
 30
0.0
 10
36.6674
 20
-73.4143
 30
0.0
 10
36.6674
 20
-73.4143
 30
0.0
 10
36.6674
 20
-73.4143
 30
0.0
 10
36.6674
 20
-73.4143
 30
0.0
 10
36.3499
 20
-73.1673
 30
0.0
 10
36.3499
 20
-73.1673
 30
0.0
 10
36.3499
 20
-73.1673
 30
0.0
 10
36.3499
 20
-73.1673
 30
0.0
 10
36.103
 20
-72.8498
 30
0.0
 10
36.103
 20
-72.8498
 30
0.0
 10
36.103
 20
-72.8498
 30
0.0
 10
36.103
 20
-72.8498
 30
0.0
 10
35.9266
 20
-72.497
 30
0.0
 10
35.9266
 20
-72.497
 30
0.0
 10
35.9266
 20
-72.497
 30
0.0
 10
35.9266
 20
-72.497
 30
0.0
 10
35.7855
 20
-72.1443
 30
0.0
 10
35.7855
 20
-72.1443
 30
0.0
 10
35.7855
 20
-72.1443
 30
0.0
 10
35.7855
 20
-72.1443
 30
0.0
 10
35.7502
 20
-71.7209
 30
0.0
 10
35.7502
 20
-71.7209
 30
0.0
 10
35.7502
 20
-71.7209
 30
0.0
 10
35.7502
 20
-71.7209
 30
0.0
 10
35.7502
 20
-43.7456
 30
0.0
 10
35.7502
 20
-43.7456
 30
0.0
 10
35.7502
 20
-43.7456
 30
0.0
 10
35.7502
 20
-43.7456
 30
0.0
 10
32.7516
 20
-43.7456
 30
0.0
 10
32.7516
 20
-43.7456
 30
0.0
 10
32.7516
 20
-43.7456
 30
0.0
 10
32.7516
 20
-43.7456
 30
0.0
 10
32.7516
 20
-66.7468
 30
0.0
 10
32.7516
 20
-66.7468
 30
0.0
 10
32.7516
 20
-66.7468
 30
0.0
 10
32.7516
 20
-66.7468
 30
0.0
 10
32.7163
 20
-67.1348
 30
0.0
 10
32.7163
 20
-67.1348
 30
0.0
 10
32.7163
 20
-67.1348
 30
0.0
 10
32.7163
 20
-67.1348
 30
0.0
 10
32.6105
 20
-67.4876
 30
0.0
 10
32.6105
 20
-67.4876
 30
0.0
 10
32.6105
 20
-67.4876
 30
0.0
 10
32.6105
 20
-67.4876
 30
0.0
 10
32.4341
 20
-67.8404
 30
0.0
 10
32.4341
 20
-67.8404
 30
0.0
 10
32.4341
 20
-67.8404
 30
0.0
 10
32.4341
 20
-67.8404
 30
0.0
 10
32.1872
 20
-68.1579
 30
0.0
 10
32.1872
 20
-68.1579
 30
0.0
 10
32.1872
 20
-68.1579
 30
0.0
 10
32.1872
 20
-68.1579
 30
0.0
 10
31.8697
 20
-68.4048
 30
0.0
 10
31.8697
 20
-68.4048
 30
0.0
 10
31.8697
 20
-68.4048
 30
0.0
 10
31.8697
 20
-68.4048
 30
0.0
 10
31.5169
 20
-68.5812
 30
0.0
 10
31.5169
 20
-68.5812
 30
0.0
 10
31.5169
 20
-68.5812
 30
0.0
 10
31.5169
 20
-68.5812
 30
0.0
 10
31.1641
 20
-68.687
 30
0.0
 10
31.1641
 20
-68.687
 30
0.0
 10
31.1641
 20
-68.687
 30
0.0
 10
31.1641
 20
-68.687
 30
0.0
 10
30.7761
 20
-68.7223
 30
0.0
 10
30.7761
 20
-68.7223
 30
0.0
 10
30.7761
 20
-68.7223
 30
0.0
 10
30.7761
 20
-68.7223
 30
0.0
 10
-65.2148
 20
-68.7223
 30
0.0
 10
-65.2148
 20
-68.7223
 30
0.0
 10
-65.2148
 20
-68.7223
 30
0.0
 10
-65.2148
 20
-68.7223
 30
0.0
 10
-65.6028
 20
-68.687
 30
0.0
 10
-65.6028
 20
-68.687
 30
0.0
 10
-65.6028
 20
-68.687
 30
0.0
 10
-65.6028
 20
-68.687
 30
0.0
 10
-65.9556
 20
-68.5812
 30
0.0
 10
-65.9556
 20
-68.5812
 30
0.0
 10
-65.9556
 20
-68.5812
 30
0.0
 10
-65.9556
 20
-68.5812
 30
0.0
 10
-66.3084
 20
-68.4048
 30
0.0
 10
-66.3084
 20
-68.4048
 30
0.0
 10
-66.3084
 20
-68.4048
 30
0.0
 10
-66.3084
 20
-68.4048
 30
0.0
 10
-66.6259
 20
-68.1579
 30
0.0
 10
-66.6259
 20
-68.1579
 30
0.0
 10
-66.6259
 20
-68.1579
 30
0.0
 10
-66.6259
 20
-68.1579
 30
0.0
 10
-66.8728
 20
-67.8404
 30
0.0
 10
-66.8728
 20
-67.8404
 30
0.0
 10
-66.8728
 20
-67.8404
 30
0.0
 10
-66.8728
 20
-67.8404
 30
0.0
 10
-67.0492
 20
-67.4876
 30
0.0
 10
-67.0492
 20
-67.4876
 30
0.0
 10
-67.0492
 20
-67.4876
 30
0.0
 10
-67.0492
 20
-67.4876
 30
0.0
 10
-67.1551
 20
-67.1348
 30
0.0
 10
-67.1551
 20
-67.1348
 30
0.0
 10
-67.1551
 20
-67.1348
 30
0.0
 10
-67.1551
 20
-67.1348
 30
0.0
 10
-67.1903
 20
-66.7468
 30
0.0
 10
-67.1903
 20
-66.7468
 30
0.0
 10
-67.1903
 20
-66.7468
 30
0.0
 10
-67.1903
 20
-66.7468
 30
0.0
 10
-67.1903
 20
-43.7456
 30
0.0
 10
-67.1903
 20
-43.7456
 30
0.0
 10
-67.1903
 20
-43.7456
 30
0.0
 10
-67.1903
 20
-43.7456
 30
0.0
 10
-70.1889
 20
-43.7456
 30
0.0
 10
-70.1889
 20
-43.7456
 30
0.0
 10
-70.1889
 20
-43.7456
 30
0.0
 10
-70.1889
 20
-43.7456
 30
0.0
 10
-70.1889
 20
-71.7209
 30
0.0
 10
-70.1889
 20
-71.7209
 30
0.0
 10
-70.1889
 20
-71.7209
 30
0.0
 10
-70.1889
 20
-71.7209
 30
0.0
 10
-70.2242
 20
-72.1443
 30
0.0
 10
-70.2242
 20
-72.1443
 30
0.0
 10
-70.2242
 20
-72.1443
 30
0.0
 10
-70.2242
 20
-72.1443
 30
0.0
 10
-70.3653
 20
-72.497
 30
0.0
 10
-70.3653
 20
-72.497
 30
0.0
 10
-70.3653
 20
-72.497
 30
0.0
 10
-70.3653
 20
-72.497
 30
0.0
 10
-70.5417
 20
-72.8498
 30
0.0
 10
-70.5417
 20
-72.8498
 30
0.0
 10
-70.5417
 20
-72.8498
 30
0.0
 10
-70.5417
 20
-72.8498
 30
0.0
 10
-70.7887
 20
-73.1673
 30
0.0
 10
-70.7887
 20
-73.1673
 30
0.0
 10
-70.7887
 20
-73.1673
 30
0.0
 10
-70.7887
 20
-73.1673
 30
0.0
 10
-71.1062
 20
-73.4143
 30
0.0
 10
-71.1062
 20
-73.4143
 30
0.0
 10
-71.1062
 20
-73.4143
 30
0.0
 10
-71.1062
 20
-73.4143
 30
0.0
 10
-71.4237
 20
-73.5906
 30
0.0
 10
-71.4237
 20
-73.5906
 30
0.0
 10
-71.4237
 20
-73.5906
 30
0.0
 10
-71.4237
 20
-73.5906
 30
0.0
 10
-71.8117
 20
-73.6965
 30
0.0
 10
-71.8117
 20
-73.6965
 30
0.0
 10
-71.8117
 20
-73.6965
 30
0.0
 10
-71.8117
 20
-73.6965
 30
0.0
 10
-72.1998
 20
-73.7318
 30
0.0
 10
-72.1998
 20
-73.7318
 30
0.0
 10
-72.1998
 20
-73.7318
 30
0.0
 10
-72.1998
 20
-73.7318
 30
0.0
 10
-78.197
 20
-73.7318
 30
0.0
 10
-78.197
 20
-73.7318
 30
0.0
 10
-78.197
 20
-73.7318
 30
0.0
 10
-78.197
 20
-73.7318
 30
0.0
 10
-78.5851
 20
-73.6965
 30
0.0
 10
-78.5851
 20
-73.6965
 30
0.0
 10
-78.5851
 20
-73.6965
 30
0.0
 10
-78.5851
 20
-73.6965
 30
0.0
 10
-78.9731
 20
-73.5906
 30
0.0
 10
-78.9731
 20
-73.5906
 30
0.0
 10
-78.9731
 20
-73.5906
 30
0.0
 10
-78.9731
 20
-73.5906
 30
0.0
 10
-79.3259
 20
-73.4143
 30
0.0
 10
-79.3259
 20
-73.4143
 30
0.0
 10
-79.3259
 20
-73.4143
 30
0.0
 10
-79.3259
 20
-73.4143
 30
0.0
 10
-79.6081
 20
-73.1673
 30
0.0
 10
-79.6081
 20
-73.1673
 30
0.0
 10
-79.6081
 20
-73.1673
 30
0.0
 10
-79.6081
 20
-73.1673
 30
0.0
 10
-79.8551
 20
-72.8498
 30
0.0
 10
-79.8551
 20
-72.8498
 30
0.0
 10
-79.8551
 20
-72.8498
 30
0.0
 10
-79.8551
 20
-72.8498
 30
0.0
 10
-80.0667
 20
-72.497
 30
0.0
 10
-80.0667
 20
-72.497
 30
0.0
 10
-80.0667
 20
-72.497
 30
0.0
 10
-80.0667
 20
-72.497
 30
0.0
 10
-80.1726
 20
-72.1443
 30
0.0
 10
-80.1726
 20
-72.1443
 30
0.0
 10
-80.1726
 20
-72.1443
 30
0.0
 10
-80.1726
 20
-72.1443
 30
0.0
 10
-80.2078
 20
-71.7209
 30
0.0
 10
-80.2078
 20
-71.7209
 30
0.0
 10
-80.2078
 20
-71.7209
 30
0.0
 10
-80.2078
 20
-71.7209
 30
0.0
 10
-80.2078
 20
-23.7431
 30
0.0
 10
-80.2078
 20
-23.7431
 30
0.0
 10
-80.2078
 20
-23.7431
 30
0.0
 10
-80.2078
 20
-23.7431
 30
0.0
 10
-80.102
 20
-22.7554
 30
0.0
 10
-80.102
 20
-22.7554
 30
0.0
 10
-80.102
 20
-22.7554
 30
0.0
 10
-80.102
 20
-22.7554
 30
0.0
 10
-79.8198
 20
-21.8381
 30
0.0
 10
-79.8198
 20
-21.8381
 30
0.0
 10
-79.8198
 20
-21.8381
 30
0.0
 10
-79.8198
 20
-21.8381
 30
0.0
 10
-79.3612
 20
-20.9562
 30
0.0
 10
-79.3612
 20
-20.9562
 30
0.0
 10
-79.3612
 20
-20.9562
 30
0.0
 10
-79.3612
 20
-20.9562
 30
0.0
 10
-78.7262
 20
-20.2154
 30
0.0
 10
-78.7262
 20
-20.2154
 30
0.0
 10
-78.7262
 20
-20.2154
 30
0.0
 10
-78.7262
 20
-20.2154
 30
0.0
 10
-77.9853
 20
-19.5804
 30
0.0
 10
-77.9853
 20
-19.5804
 30
0.0
 10
-77.9853
 20
-19.5804
 30
0.0
 10
-77.9853
 20
-19.5804
 30
0.0
 10
-77.1034
 20
-19.1218
 30
0.0
 10
-77.1034
 20
-19.1218
 30
0.0
 10
-77.1034
 20
-19.1218
 30
0.0
 10
-77.1034
 20
-19.1218
 30
0.0
 10
-76.1862
 20
-18.8395
 30
0.0
 10
-76.1862
 20
-18.8395
 30
0.0
 10
-76.1862
 20
-18.8395
 30
0.0
 10
-76.1862
 20
-18.8395
 30
0.0
 10
-75.1984
 20
-18.7337
 30
0.0
 10
-75.1984
 20
-18.7337
 30
0.0
 10
-75.1984
 20
-18.7337
 30
0.0
 10
-75.1984
 20
-18.7337
 30
0.0
 10
31.7638
 20
-18.7337
 30
0.0
 10
31.7638
 20
-18.7337
 30
0.0
 10
31.7638
 20
-18.7337
 30
0.0
 10
31.7638
 20
-18.7337
 30
0.0
 10
31.7638
 20
-15.2412
 30
0.0
 10
31.7638
 20
-15.2412
 30
0.0
 10
31.7638
 20
-15.2412
 30
0.0
 10
31.7638
 20
-15.2412
 30
0.0
 10
31.8697
 20
-14.2534
 30
0.0
 10
31.8697
 20
-14.2534
 30
0.0
 10
31.8697
 20
-14.2534
 30
0.0
 10
31.8697
 20
-14.2534
 30
0.0
 10
32.1519
 20
-13.3362
 30
0.0
 10
32.1519
 20
-13.3362
 30
0.0
 10
32.1519
 20
-13.3362
 30
0.0
 10
32.1519
 20
-13.3362
 30
0.0
 10
32.6105
 20
-12.4543
 30
0.0
 10
32.6105
 20
-12.4543
 30
0.0
 10
32.6105
 20
-12.4543
 30
0.0
 10
32.6105
 20
-12.4543
 30
0.0
 10
33.2102
 20
-11.7134
 30
0.0
 10
33.2102
 20
-11.7134
 30
0.0
 10
33.2102
 20
-11.7134
 30
0.0
 10
33.2102
 20
-11.7134
 30
0.0
 10
33.9863
 20
-11.0784
 30
0.0
 10
33.9863
 20
-11.0784
 30
0.0
 10
33.9863
 20
-11.0784
 30
0.0
 10
33.9863
 20
-11.0784
 30
0.0
 10
34.833
 20
-10.6198
 30
0.0
 10
34.833
 20
-10.6198
 30
0.0
 10
34.833
 20
-10.6198
 30
0.0
 10
34.833
 20
-10.6198
 30
0.0
 10
35.7855
 20
-10.3376
 30
0.0
 10
35.7855
 20
-10.3376
 30
0.0
 10
35.7855
 20
-10.3376
 30
0.0
 10
35.7855
 20
-10.3376
 30
0.0
 10
36.7733
 20
-10.2318
 30
0.0
 10
36.7733
 20
-10.2318
 30
0.0
 10
36.7733
 20
-10.2318
 30
0.0
 10
36.7733
 20
-10.2318
 30
0.0
 10
45.7691
 20
-10.2318
 30
0.0
 10
45.7691
 20
-10.2318
 30
0.0
 10
45.7691
 20
-10.2318
 30
0.0
 10
45.7691
 20
-10.2318
 30
0.0
 10
46.7216
 20
-10.3376
 30
0.0
 10
46.7216
 20
-10.3376
 30
0.0
 10
46.7216
 20
-10.3376
 30
0.0
 10
46.7216
 20
-10.3376
 30
0.0
 10
47.6741
 20
-10.6198
 30
0.0
 10
47.6741
 20
-10.6198
 30
0.0
 10
47.6741
 20
-10.6198
 30
0.0
 10
47.6741
 20
-10.6198
 30
0.0
 10
48.5561
 20
-11.0784
 30
0.0
 10
48.5561
 20
-11.0784
 30
0.0
 10
48.5561
 20
-11.0784
 30
0.0
 10
48.5561
 20
-11.0784
 30
0.0
 10
49.2969
 20
-11.7134
 30
0.0
 10
49.2969
 20
-11.7134
 30
0.0
 10
49.2969
 20
-11.7134
 30
0.0
 10
49.2969
 20
-11.7134
 30
0.0
 10
49.9319
 20
-12.4543
 30
0.0
 10
49.9319
 20
-12.4543
 30
0.0
 10
49.9319
 20
-12.4543
 30
0.0
 10
49.9319
 20
-12.4543
 30
0.0
 10
50.3905
 20
-13.3362
 30
0.0
 10
50.3905
 20
-13.3362
 30
0.0
 10
50.3905
 20
-13.3362
 30
0.0
 10
50.3905
 20
-13.3362
 30
0.0
 10
50.6727
 20
-14.2534
 30
0.0
 10
50.6727
 20
-14.2534
 30
0.0
 10
50.6727
 20
-14.2534
 30
0.0
 10
50.6727
 20
-14.2534
 30
0.0
 10
50.7786
 20
-15.2412
 30
0.0
 10
50.7786
 20
-15.2412
 30
0.0
 10
50.7786
 20
-15.2412
 30
0.0
 10
50.7786
 20
-15.2412
 30
0.0
 10
50.7786
 20
-24.237
 30
0.0
 10
50.7786
 20
-24.237
 30
0.0
  0
SPLINE
  5
74
330
1F
100
AcDbEntity
  8
layer 1
370
     9
100
AcDbSpline
210
0.0
220
0.0
230
1.0
 70
    11
 71
     3
 72
   324
 73
   320
 74
     0
 42
0.000000001
 43
0.0000000001
 40
0.0
 40
0.0
 40
0.0
 40
0.0
 40
0.0123456790123457
 40
0.0123456790123457
 40
0.0123456790123457
 40
0.0123456790123457
 40
0.0246913580246914
 40
0.0246913580246914
 40
0.0246913580246914
 40
0.0246913580246914
 40
0.037037037037037
 40
0.037037037037037
 40
0.037037037037037
 40
0.037037037037037
 40
0.0493827160493827
 40
0.0493827160493827
 40
0.0493827160493827
 40
0.0493827160493827
 40
0.0617283950617284
 40
0.0617283950617284
 40
0.0617283950617284
 40
0.0617283950617284
 40
0.0740740740740741
 40
0.0740740740740741
 40
0.0740740740740741
 40
0.0740740740740741
 40
0.0864197530864197
 40
0.0864197530864197
 40
0.0864197530864197
 40
0.0864197530864197
 40
0.0987654320987654
 40
0.0987654320987654
 40
0.0987654320987654
 40
0.0987654320987654
 40
0.1111111111111111
 40
0.1111111111111111
 40
0.1111111111111111
 40
0.1111111111111111
 40
0.1234567901234568
 40
0.1234567901234568
 40
0.1234567901234568
 40
0.1234567901234568
 40
0.1358024691358025
 40
0.1358024691358025
 40
0.1358024691358025
 40
0.1358024691358025
 40
0.1481481481481481
 40
0.1481481481481481
 40
0.1481481481481481
 40
0.1481481481481481
 40
0.1604938271604938
 40
0.1604938271604938
 40
0.1604938271604938
 40
0.1604938271604938
 40
0.1728395061728395
 40
0.1728395061728395
 40
0.1728395061728395
 40
0.1728395061728395
 40
0.1851851851851852
 40
0.1851851851851852
 40
0.1851851851851852
 40
0.1851851851851852
 40
0.1975308641975309
 40
0.1975308641975309
 40
0.1975308641975309
 40
0.1975308641975309
 40
0.2098765432098765
 40
0.2098765432098765
 40
0.2098765432098765
 40
0.2098765432098765
 40
0.2222222222222222
 40
0.2222222222222222
 40
0.2222222222222222
 40
0.2222222222222222
 40
0.2345679012345679
 40
0.2345679012345679
 40
0.2345679012345679
 40
0.2345679012345679
 40
0.2469135802469136
 40
0.2469135802469136
 40
0.2469135802469136
 40
0.2469135802469136
 40
0.2592592592592592
 40
0.2592592592592592
 40
0.2592592592592592
 40
0.2592592592592592
 40
0.2716049382716049
 40
0.2716049382716049
 40
0.2716049382716049
 40
0.2716049382716049
 40
0.2839506172839506
 40
0.2839506172839506
 40
0.2839506172839506
 40
0.2839506172839506
 40
0.2962962962962963
 40
0.2962962962962963
 40
0.2962962962962963
 40
0.2962962962962963
 40
0.308641975308642
 40
0.308641975308642
 40
0.308641975308642
 40
0.308641975308642
 40
0.3209876543209876
 40
0.3209876543209876
 40
0.3209876543209876
 40
0.3209876543209876
 40
0.3333333333333333
 40
0.3333333333333333
 40
0.3333333333333333
 40
0.3333333333333333
 40
0.345679012345679
 40
0.345679012345679
 40
0.345679012345679
 40
0.345679012345679
 40
0.3580246913580247
 40
0.3580246913580247
 40
0.3580246913580247
 40
0.3580246913580247
 40
0.3703703703703703
 40
0.3703703703703703
 40
0.3703703703703703
 40
0.3703703703703703
 40
0.382716049382716
 40
0.382716049382716
 40
0.382716049382716
 40
0.382716049382716
 40
0.3950617283950617
 40
0.3950617283950617
 40
0.3950617283950617
 40
0.3950617283950617
 40
0.4074074074074074
 40
0.4074074074074074
 40
0.4074074074074074
 40
0.4074074074074074
 40
0.4197530864197531
 40
0.4197530864197531
 40
0.4197530864197531
 40
0.4197530864197531
 40
0.4320987654320987
 40
0.4320987654320987
 40
0.4320987654320987
 40
0.4320987654320987
 40
0.4444444444444444
 40
0.4444444444444444
 40
0.4444444444444444
 40
0.4444444444444444
 40
0.4567901234567901
 40
0.4567901234567901
 40
0.4567901234567901
 40
0.4567901234567901
 40
0.4691358024691358
 40
0.4691358024691358
 40
0.4691358024691358
 40
0.4691358024691358
 40
0.4814814814814815
 40
0.4814814814814815
 40
0.4814814814814815
 40
0.4814814814814815
 40
0.4938271604938271
 40
0.4938271604938271
 40
0.4938271604938271
 40
0.4938271604938271
 40
0.5061728395061729
 40
0.5061728395061729
 40
0.5061728395061729
 40
0.5061728395061729
 40
0.5185185185185185
 40
0.5185185185185185
 40
0.5185185185185185
 40
0.5185185185185185
 40
0.5308641975308642
 40
0.5308641975308642
 40
0.5308641975308642
 40
0.5308641975308642
 40
0.5432098765432098
 40
0.5432098765432098
 40
0.5432098765432098
 40
0.5432098765432098
 40
0.5555555555555556
 40
0.5555555555555556
 40
0.5555555555555556
 40
0.5555555555555556
 40
0.5679012345679012
 40
0.5679012345679012
 40
0.5679012345679012
 40
0.5679012345679012
 40
0.5802469135802469
 40
0.5802469135802469
 40
0.5802469135802469
 40
0.5802469135802469
 40
0.5925925925925926
 40
0.5925925925925926
 40
0.5925925925925926
 40
0.5925925925925926
 40
0.6049382716049383
 40
0.6049382716049383
 40
0.6049382716049383
 40
0.6049382716049383
 40
0.6172839506172839
 40
0.6172839506172839
 40
0.6172839506172839
 40
0.6172839506172839
 40
0.6296296296296297
 40
0.6296296296296297
 40
0.6296296296296297
 40
0.6296296296296297
 40
0.6419753086419753
 40
0.6419753086419753
 40
0.6419753086419753
 40
0.6419753086419753
 40
0.654320987654321
 40
0.654320987654321
 40
0.654320987654321
 40
0.654320987654321
 40
0.6666666666666666
 40
0.6666666666666666
 40
0.6666666666666666
 40
0.6666666666666666
 40
0.6790123456790124
 40
0.6790123456790124
 40
0.6790123456790124
 40
0.6790123456790124
 40
0.691358024691358
 40
0.691358024691358
 40
0.691358024691358
 40
0.691358024691358
 40
0.7037037037037037
 40
0.7037037037037037
 40
0.7037037037037037
 40
0.7037037037037037
 40
0.7160493827160493
 40
0.7160493827160493
 40
0.7160493827160493
 40
0.7160493827160493
 40
0.7283950617283951
 40
0.7283950617283951
 40
0.7283950617283951
 40
0.7283950617283951
 40
0.7407407407407407
 40
0.7407407407407407
 40
0.7407407407407407
 40
0.7407407407407407
 40
0.7530864197530864
 40
0.7530864197530864
 40
0.7530864197530864
 40
0.7530864197530864
 40
0.7654320987654321
 40
0.7654320987654321
 40
0.7654320987654321
 40
0.7654320987654321
 40
0.7777777777777778
 40
0.7777777777777778
 40
0.7777777777777778
 40
0.7777777777777778
 40
0.7901234567901234
 40
0.7901234567901234
 40
0.7901234567901234
 40
0.7901234567901234
 40
0.8024691358024691
 40
0.8024691358024691
 40
0.8024691358024691
 40
0.8024691358024691
 40
0.8148148148148148
 40
0.8148148148148148
 40
0.8148148148148148
 40
0.8148148148148148
 40
0.8271604938271605
 40
0.8271604938271605
 40
0.8271604938271605
 40
0.8271604938271605
 40
0.8395061728395061
 40
0.8395061728395061
 40
0.8395061728395061
 40
0.8395061728395061
 40
0.8518518518518519
 40
0.8518518518518519
 40
0.8518518518518519
 40
0.8518518518518519
 40
0.8641975308641975
 40
0.8641975308641975
 40
0.8641975308641975
 40
0.8641975308641975
 40
0.8765432098765432
 40
0.8765432098765432
 40
0.8765432098765432
 40
0.8765432098765432
 40
0.8888888888888888
 40
0.8888888888888888
 40
0.8888888888888888
 40
0.8888888888888888
 40
0.9012345679012346
 40
0.9012345679012346
 40
0.9012345679012346
 40
0.9012345679012346
 40
0.9135802469135802
 40
0.9135802469135802
 40
0.9135802469135802
 40
0.9135802469135802
 40
0.9259259259259259
 40
0.9259259259259259
 40
0.9259259259259259
 40
0.9259259259259259
 40
0.9382716049382716
 40
0.9382716049382716
 40
0.9382716049382716
 40
0.9382716049382716
 40
0.9506172839506173
 40
0.9506172839506173
 40
0.9506172839506173
 40
0.9506172839506173
 40
0.9629629629629629
 40
0.9629629629629629
 40
0.9629629629629629
 40
0.9629629629629629
 40
0.9753086419753086
 40
0.9753086419753086
 40
0.9753086419753086
 40
0.9753086419753086
 40
1.0
 40
1.0
 40
1.0
 40
1.0
 10
-7.7889
 20
-123.5234
 30
0.0
 10
-7.7889
 20
-123.5234
 30
0.0
 10
-7.8947
 20
-123.1706
 30
0.0
 10
-7.8947
 20
-123.1706
 30
0.0
 10
-7.8947
 20
-123.1706
 30
0.0
 10
-7.8947
 20
-123.1706
 30
0.0
 10
-8.1064
 20
-122.8178
 30
0.0
 10
-8.1064
 20
-122.8178
 30
0.0
 10
-8.1064
 20
-122.8178
 30
0.0
 10
-8.1064
 20
-122.8178
 30
0.0
 10
-8.3533
 20
-122.5003
 30
0.0
 10
-8.3533
 20
-122.5003
 30
0.0
 10
-8.3533
 20
-122.5003
 30
0.0
 10
-8.3533
 20
-122.5003
 30
0.0
 10
-8.6356
 20
-122.2534
 30
0.0
 10
-8.6356
 20
-122.2534
 30
0.0
 10
-8.6356
 20
-122.2534
 30
0.0
 10
-8.6356
 20
-122.2534
 30
0.0
 10
-8.9883
 20
-122.077
 30
0.0
 10
-8.9883
 20
-122.077
 30
0.0
 10
-8.9883
 20
-122.077
 30
0.0
 10
-8.9883
 20
-122.077
 30
0.0
 10
-9.3764
 20
-121.9711
 30
0.0
 10
-9.3764
 20
-121.9711
 30
0.0
 10
-9.3764
 20
-121.9711
 30
0.0
 10
-9.3764
 20
-121.9711
 30
0.0
 10
-9.7645
 20
-121.9359
 30
0.0
 10
-9.7645
 20
-121.9359
 30
0.0
 10
-9.7645
 20
-121.9359
 30
0.0
 10
-9.7645
 20
-121.9359
 30
0.0
 10
-171.76
 20
-121.9359
 30
0.0
 10
-171.76
 20
-121.9359
 30
0.0
 10
-171.76
 20
-121.9359
 30
0.0
 10
-171.76
 20
-121.9359
 30
0.0
 10
-172.1481
 20
-121.9711
 30
0.0
 10
-172.1481
 20
-121.9711
 30
0.0
 10
-172.1481
 20
-121.9711
 30
0.0
 10
-172.1481
 20
-121.9711
 30
0.0
 10
-172.5008
 20
-122.077
 30
0.0
 10
-172.5008
 20
-122.077
 30
0.0
 10
-172.5008
 20
-122.077
 30
0.0
 10
-172.5008
 20
-122.077
 30
0.0
 10
-172.8536
 20
-122.2534
 30
0.0
 10
-172.8536
 20
-122.2534
 30
0.0
 10
-172.8536
 20
-122.2534
 30
0.0
 10
-172.8536
 20
-122.2534
 30
0.0
 10
-173.1711
 20
-122.5003
 30
0.0
 10
-173.1711
 20
-122.5003
 30
0.0
 10
-173.1711
 20
-122.5003
 30
0.0
 10
-173.1711
 20
-122.5003
 30
0.0
 10
-173.4181
 20
-122.8178
 30
0.0
 10
-173.4181
 20
-122.8178
 30
0.0
 10
-173.4181
 20
-122.8178
 30
0.0
 10
-173.4181
 20
-122.8178
 30
0.0
 10
-173.5945
 20
-123.1706
 30
0.0
 10
-173.5945
 20
-123.1706
 30
0.0
 10
-173.5945
 20
-123.1706
 30
0.0
 10
-173.5945
 20
-123.1706
 30
0.0
 10
-173.7003
 20
-123.5234
 30
0.0
 10
-173.7003
 20
-123.5234
 30
0.0
 10
-173.7003
 20
-123.5234
 30
0.0
 10
-173.7003
 20
-123.5234
 30
0.0
 10
-173.7356
 20
-123.9114
 30
0.0
 10
-173.7356
 20
-123.9114
 30
0.0
 10
-173.7356
 20
-123.9114
 30
0.0
 10
-173.7356
 20
-123.9114
 30
0.0
 10
-173.7356
 20
-124.9345
 30
0.0
 10
-173.7356
 20
-124.9345
 30
0.0
 10
-173.7356
 20
-124.9345
 30
0.0
 10
-173.7356
 20
-124.9345
 30
0.0
 10
-173.8061
 20
-125.3225
 30
0.0
 10
-173.8061
 20
-125.3225
 30
0.0
 10
-173.8061
 20
-125.3225
 30
0.0
 10
-173.8061
 20
-125.3225
 30
0.0
 10
-173.912
 20
-125.7106
 30
0.0
 10
-173.912
 20
-125.7106
 30
0.0
 10
-173.912
 20
-125.7106
 30
0.0
 10
-173.912
 20
-125.7106
 30
0.0
 10
-174.0883
 20
-126.0281
 30
0.0
 10
-174.0883
 20
-126.0281
 30
0.0
 10
-174.0883
 20
-126.0281
 30
0.0
 10
-174.0883
 20
-126.0281
 30
0.0
 10
-174.3353
 20
-126.3456
 30
0.0
 10
-174.3353
 20
-126.3456
 30
0.0
 10
-174.3353
 20
-126.3456
 30
0.0
 10
-174.3353
 20
-126.3456
 30
0.0
 10
-174.6528
 20
-126.5925
 30
0.0
 10
-174.6528
 20
-126.5925
 30
0.0
 10
-174.6528
 20
-126.5925
 30
0.0
 10
-174.6528
 20
-126.5925
 30
0.0
 10
-174.9703
 20
-126.7689
 30
0.0
 10
-174.9703
 20
-126.7689
 30
0.0
 10
-174.9703
 20
-126.7689
 30
0.0
 10
-174.9703
 20
-126.7689
 30
0.0
 10
-175.3583
 20
-126.8747
 30
0.0
 10
-175.3583
 20
-126.8747
 30
0.0
 10
-175.3583
 20
-126.8747
 30
0.0
 10
-175.3583
 20
-126.8747
 30
0.0
 10
-175.7464
 20
-126.9453
 30
0.0
 10
-175.7464
 20
-126.9453
 30
0.0
 10
-175.7464
 20
-126.9453
 30
0.0
 10
-175.7464
 20
-126.9453
 30
0.0
 10
-181.7436
 20
-126.9453
 30
0.0
 10
-181.7436
 20
-126.9453
 30
0.0
 10
-181.7436
 20
-126.9453
 30
0.0
 10
-181.7436
 20
-126.9453
 30
0.0
 10
-182.1317
 20
-126.8747
 30
0.0
 10
-182.1317
 20
-126.8747
 30
0.0
 10
-182.1317
 20
-126.8747
 30
0.0
 10
-182.1317
 20
-126.8747
 30
0.0
 10
-182.5197
 20
-126.7689
 30
0.0
 10
-182.5197
 20
-126.7689
 30
0.0
 10
-182.5197
 20
-126.7689
 30
0.0
 10
-182.5197
 20
-126.7689
 30
0.0
 10
-182.8725
 20
-126.5925
 30
0.0
 10
-182.8725
 20
-126.5925
 30
0.0
 10
-182.8725
 20
-126.5925
 30
0.0
 10
-182.8725
 20
-126.5925
 30
0.0
 10
-183.1547
 20
-126.3456
 30
0.0
 10
-183.1547
 20
-126.3456
 30
0.0
 10
-183.1547
 20
-126.3456
 30
0.0
 10
-183.1547
 20
-126.3456
 30
0.0
 10
-183.4017
 20
-126.0281
 30
0.0
 10
-183.4017
 20
-126.0281
 30
0.0
 10
-183.4017
 20
-126.0281
 30
0.0
 10
-183.4017
 20
-126.0281
 30
0.0
 10
-183.6133
 20
-125.7106
 30
0.0
 10
-183.6133
 20
-125.7106
 30
0.0
 10
-183.6133
 20
-125.7106
 30
0.0
 10
-183.6133
 20
-125.7106
 30
0.0
 10
-183.7192
 20
-125.3225
 30
0.0
 10
-183.7192
 20
-125.3225
 30
0.0
 10
-183.7192
 20
-125.3225
 30
0.0
 10
-183.7192
 20
-125.3225
 30
0.0
 10
-183.7545
 20
-124.9345
 30
0.0
 10
-183.7545
 20
-124.9345
 30
0.0
 10
-183.7545
 20
-124.9345
 30
0.0
 10
-183.7545
 20
-124.9345
 30
0.0
 10
-183.7545
 20
-76.9214
 30
0.0
 10
-183.7545
 20
-76.9214
 30
0.0
 10
-183.7545
 20
-76.9214
 30
0.0
 10
-183.7545
 20
-76.9214
 30
0.0
 10
-183.6486
 20
-75.9689
 30
0.0
 10
-183.6486
 20
-75.9689
 30
0.0
 10
-183.6486
 20
-75.9689
 30
0.0
 10
-183.6486
 20
-75.9689
 30
0.0
 10
-183.3664
 20
-75.0164
 30
0.0
 10
-183.3664
 20
-75.0164
 30
0.0
 10
-183.3664
 20
-75.0164
 30
0.0
 10
-183.3664
 20
-75.0164
 30
0.0
 10
-182.9078
 20
-74.1345
 30
0.0
 10
-182.9078
 20
-74.1345
 30
0.0
 10
-182.9078
 20
-74.1345
 30
0.0
 10
-182.9078
 20
-74.1345
 30
0.0
 10
-182.2728
 20
-73.3936
 30
0.0
 10
-182.2728
 20
-73.3936
 30
0.0
 10
-182.2728
 20
-73.3936
 30
0.0
 10
-182.2728
 20
-73.3936
 30
0.0
 10
-181.532
 20
-72.7586
 30
0.0
 10
-181.532
 20
-72.7586
 30
0.0
 10
-181.532
 20
-72.7586
 30
0.0
 10
-181.532
 20
-72.7586
 30
0.0
 10
-180.65
 20
-72.3
 30
0.0
 10
-180.65
 20
-72.3
 30
0.0
 10
-180.65
 20
-72.3
 30
0.0
 10
-180.65
 20
-72.3
 30
0.0
 10
-179.7328
 20
-72.0178
 30
0.0
 10
-179.7328
 20
-72.0178
 30
0.0
 10
-179.7328
 20
-72.0178
 30
0.0
 10
-179.7328
 20
-72.0178
 30
0.0
 10
-178.745
 20
-71.912
 30
0.0
 10
-178.745
 20
-71.912
 30
0.0
 10
-178.745
 20
-71.912
 30
0.0
 10
-178.745
 20
-71.912
 30
0.0
 10
-173.7356
 20
-71.912
 30
0.0
 10
-173.7356
 20
-71.912
 30
0.0
 10
-173.7356
 20
-71.912
 30
0.0
 10
-173.7356
 20
-71.912
 30
0.0
 10
-173.7356
 20
-96.9239
 30
0.0
 10
-173.7356
 20
-96.9239
 30
0.0
 10
-173.7356
 20
-96.9239
 30
0.0
 10
-173.7356
 20
-96.9239
 30
0.0
 10
-170.737
 20
-96.9239
 30
0.0
 10
-170.737
 20
-96.9239
 30
0.0
 10
-170.737
 20
-96.9239
 30
0.0
 10
-170.737
 20
-96.9239
 30
0.0
 10
-170.737
 20
-74.9459
 30
0.0
 10
-170.737
 20
-74.9459
 30
0.0
 10
-170.737
 20
-74.9459
 30
0.0
 10
-170.737
 20
-74.9459
 30
0.0
 10
-10.7522
 20
-74.9459
 30
0.0
 10
-10.7522
 20
-74.9459
 30
0.0
 10
-10.7522
 20
-74.9459
 30
0.0
 10
-10.7522
 20
-74.9459
 30
0.0
 10
-10.7522
 20
-96.9239
 30
0.0
 10
-10.7522
 20
-96.9239
 30
0.0
 10
-10.7522
 20
-96.9239
 30
0.0
 10
-10.7522
 20
-96.9239
 30
0.0
 10
-7.7536
 20
-96.9239
 30
0.0
 10
-7.7536
 20
-96.9239
 30
0.0
 10
-7.7536
 20
-96.9239
 30
0.0
 10
-7.7536
 20
-96.9239
 30
0.0
 10
-7.7536
 20
-71.912
 30
0.0
 10
-7.7536
 20
-71.912
 30
0.0
 10
-7.7536
 20
-71.912
 30
0.0
 10
-7.7536
 20
-71.912
 30
0.0
 10
-2.7442
 20
-71.912
 30
0.0
 10
-2.7442
 20
-71.912
 30
0.0
 10
-2.7442
 20
-71.912
 30
0.0
 10
-2.7442
 20
-71.912
 30
0.0
 10
-1.7917
 20
-72.0178
 30
0.0
 10
-1.7917
 20
-72.0178
 30
0.0
 10
-1.7917
 20
-72.0178
 30
0.0
 10
-1.7917
 20
-72.0178
 30
0.0
 10
-0.8392
 20
-72.3
 30
0.0
 10
-0.8392
 20
-72.3
 30
0.0
 10
-0.8392
 20
-72.3
 30
0.0
 10
-0.8392
 20
-72.3
 30
0.0
 10
0.0428
 20
-72.7586
 30
0.0
 10
0.0428
 20
-72.7586
 30
0.0
 10
0.0428
 20
-72.7586
 30
0.0
 10
0.0428
 20
-72.7586
 30
0.0
 10
0.7836
 20
-73.3936
 30
0.0
 10
0.7836
 20
-73.3936
 30
0.0
 10
0.7836
 20
-73.3936
 30
0.0
 10
0.7836
 20
-73.3936
 30
0.0
 10
1.4186
 20
-74.1345
 30
0.0
 10
1.4186
 20
-74.1345
 30
0.0
 10
1.4186
 20
-74.1345
 30
0.0
 10
1.4186
 20
-74.1345
 30
0.0
 10
1.8772
 20
-75.0164
 30
0.0
 10
1.8772
 20
-75.0164
 30
0.0
 10
1.8772
 20
-75.0164
 30
0.0
 10
1.8772
 20
-75.0164
 30
0.0
 10
2.1594
 20
-75.9689
 30
0.0
 10
2.1594
 20
-75.9689
 30
0.0
 10
2.1594
 20
-75.9689
 30
0.0
 10
2.1594
 20
-75.9689
 30
0.0
 10
2.23
 20
-76.9214
 30
0.0
 10
2.23
 20
-76.9214
 30
0.0
 10
2.23
 20
-76.9214
 30
0.0
 10
2.23
 20
-76.9214
 30
0.0
 10
2.23
 20
-124.9345
 30
0.0
 10
2.23
 20
-124.9345
 30
0.0
 10
2.23
 20
-124.9345
 30
0.0
 10
2.23
 20
-124.9345
 30
0.0
 10
2.1947
 20
-125.3225
 30
0.0
 10
2.1947
 20
-125.3225
 30
0.0
 10
2.1947
 20
-125.3225
 30
0.0
 10
2.1947
 20
-125.3225
 30
0.0
 10
2.0889
 20
-125.7106
 30
0.0
 10
2.0889
 20
-125.7106
 30
0.0
 10
2.0889
 20
-125.7106
 30
0.0
 10
2.0889
 20
-125.7106
 30
0.0
 10
1.9125
 20
-126.0281
 30
0.0
 10
1.9125
 20
-126.0281
 30
0.0
 10
1.9125
 20
-126.0281
 30
0.0
 10
1.9125
 20
-126.0281
 30
0.0
 10
1.6655
 20
-126.3456
 30
0.0
 10
1.6655
 20
-126.3456
 30
0.0
 10
1.6655
 20
-126.3456
 30
0.0
 10
1.6655
 20
-126.3456
 30
0.0
 10
1.348
 20
-126.5925
 30
0.0
 10
1.348
 20
-126.5925
 30
0.0
 10
1.348
 20
-126.5925
 30
0.0
 10
1.348
 20
-126.5925
 30
0.0
 10
1.0305
 20
-126.7689
 30
0.0
 10
1.0305
 20
-126.7689
 30
0.0
 10
1.0305
 20
-126.7689
 30
0.0
 10
1.0305
 20
-126.7689
 30
0.0
 10
0.6425
 20
-126.8747
 30
0.0
 10
0.6425
 20
-126.8747
 30
0.0
 10
0.6425
 20
-126.8747
 30
0.0
 10
0.6425
 20
-126.8747
 30
0.0
 10
0.2544
 20
-126.9453
 30
0.0
 10
0.2544
 20
-126.9453
 30
0.0
 10
0.2544
 20
-126.9453
 30
0.0
 10
0.2544
 20
-126.9453
 30
0.0
 10
-5.7428
 20
-126.9453
 30
0.0
 10
-5.7428
 20
-126.9453
 30
0.0
 10
-5.7428
 20
-126.9453
 30
0.0
 10
-5.7428
 20
-126.9453
 30
0.0
 10
-6.1308
 20
-126.8747
 30
0.0
 10
-6.1308
 20
-126.8747
 30
0.0
 10
-6.1308
 20
-126.8747
 30
0.0
 10
-6.1308
 20
-126.8747
 30
0.0
 10
-6.5189
 20
-126.7689
 30
0.0
 10
-6.5189
 20
-126.7689
 30
0.0
 10
-6.5189
 20
-126.7689
 30
0.0
 10
-6.5189
 20
-126.7689
 30
0.0
 10
-6.8717
 20
-126.5925
 30
0.0
 10
-6.8717
 20
-126.5925
 30
0.0
 10
-6.8717
 20
-126.5925
 30
0.0
 10
-6.8717
 20
-126.5925
 30
0.0
 10
-7.1539
 20
-126.3456
 30
0.0
 10
-7.1539
 20
-126.3456
 30
0.0
 10
-7.1539
 20
-126.3456
 30
0.0
 10
-7.1539
 20
-126.3456
 30
0.0
 10
-7.4008
 20
-126.0281
 30
0.0
 10
-7.4008
 20
-126.0281
 30
0.0
 10
-7.4008
 20
-126.0281
 30
0.0
 10
-7.4008
 20
-126.0281
 30
0.0
 10
-7.6125
 20
-125.7106
 30
0.0
 10
-7.6125
 20
-125.7106
 30
0.0
 10
-7.6125
 20
-125.7106
 30
0.0
 10
-7.6125
 20
-125.7106
 30
0.0
 10
-7.7183
 20
-125.3225
 30
0.0
 10
-7.7183
 20
-125.3225
 30
0.0
 10
-7.7183
 20
-125.3225
 30
0.0
 10
-7.7183
 20
-125.3225
 30
0.0
 10
-7.7536
 20
-124.9345
 30
0.0
 10
-7.7536
 20
-124.9345
 30
0.0
 10
-7.7536
 20
-124.9345
 30
0.0
 10
-7.7536
 20
-124.9345
 30
0.0
 10
-7.7536
 20
-123.9114
 30
0.0
 10
-7.7536
 20
-123.9114
 30
0.0
 10
-7.7536
 20
-123.9114
 30
0.0
 10
-7.7536
 20
-123.9114
 30
0.0
 10
-7.7889
 20
-123.5234
 30
0.0
 10
-7.7889
 20
-123.5234
 30
0.0
  0
SPLINE
  5
75
330
1F
100
AcDbEntity
  8
layer 1
 62
     1
370
     9
100
AcDbSpline
210
0.0
220
0.0
230
1.0
 70
    11
 71
     3
 72
    20
 73
    16
 74
     0
 42
0.000000001
 43
0.0000000001
 40
0.0
 40
0.0
 40
0.0
 40
0.0
 40
0.2
 40
0.2
 40
0.2
 40
0.2
 40
0.4
 40
0.4
 40
0.4
 40
0.4
 40
0.6
 40
0.6
 40
0.6
 40
0.6
 40
1.0
 40
1.0
 40
1.0
 40
1.0
 10
-60.7408
 20
-117.9142
 30
0.0
 10
-60.7408
 20
-117.9142
 30
0.0
 10
-120.7483
 20
-117.9142
 30
0.0
 10
-120.7483
 20
-117.9142
 30
0.0
 10
-120.7483
 20
-117.9142
 30
0.0
 10
-120.7483
 20
-117.9142
 30
0.0
 10
-120.7483
 20
-114.9156
 30
0.0
 10
-120.7483
 20
-114.9156
 30
0.0
 10
-120.7483
 20
-114.9156
 30
0.0
 10
-120.7483
 20
-114.9156
 30
0.0
 10
-60.7408
 20
-114.9156
 30
0.0
 10
-60.7408
 20
-114.9156
 30
0.0
 10
-60.7408
 20
-114.9156
 30
0.0
 10
-60.7408
 20
-114.9156
 30
0.0
 10
-60.7408
 20
-117.9142
 30
0.0
 10
-60.7408
 20
-117.9142
 30
0.0
  0
SPLINE
  5
76
330
1F
100
AcDbEntity
  8
layer 1
370
     9
100
AcDbSpline
210
0.0
220
0.0
230
1.0
 70
    11
 71
     3
 72
   340
 73
   336
 74
     0
 42
0.000000001
 43
0.0000000001
 40
0.0
 40
0.0
 40
0.0
 40
0.0
 40
0.0117647058823529
 40
0.0117647058823529
 40
0.0117647058823529
 40
0.0117647058823529
 40
0.0235294117647059
 40
0.0235294117647059
 40
0.0235294117647059
 40
0.0235294117647059
 40
0.0352941176470588
 40
0.0352941176470588
 40
0.0352941176470588
 40
0.0352941176470588
 40
0.0470588235294118
 40
0.0470588235294118
 40
0.0470588235294118
 40
0.0470588235294118
 40
0.0588235294117647
 40
0.0588235294117647
 40
0.0588235294117647
 40
0.0588235294117647
 40
0.0705882352941176
 40
0.0705882352941176
 40
0.0705882352941176
 40
0.0705882352941176
 40
0.0823529411764706
 40
0.0823529411764706
 40
0.0823529411764706
 40
0.0823529411764706
 40
0.0941176470588235
 40
0.0941176470588235
 40
0.0941176470588235
 40
0.0941176470588235
 40
0.1058823529411765
 40
0.1058823529411765
 40
0.1058823529411765
 40
0.1058823529411765
 40
0.1176470588235294
 40
0.1176470588235294
 40
0.1176470588235294
 40
0.1176470588235294
 40
0.1294117647058824
 40
0.1294117647058824
 40
0.1294117647058824
 40
0.1294117647058824
 40
0.1411764705882353
 40
0.1411764705882353
 40
0.1411764705882353
 40
0.1411764705882353
 40
0.1529411764705882
 40
0.1529411764705882
 40
0.1529411764705882
 40
0.1529411764705882
 40
0.1647058823529412
 40
0.1647058823529412
 40
0.1647058823529412
 40
0.1647058823529412
 40
0.1764705882352941
 40
0.1764705882352941
 40
0.1764705882352941
 40
0.1764705882352941
 40
0.1882352941176471
 40
0.1882352941176471
 40
0.1882352941176471
 40
0.1882352941176471
 40
0.2
 40
0.2
 40
0.2
 40
0.2
 40
0.2117647058823529
 40
0.2117647058823529
 40
0.2117647058823529
 40
0.2117647058823529
 40
0.2235294117647059
 40
0.2235294117647059
 40
0.2235294117647059
 40
0.2235294117647059
 40
0.2352941176470588
 40
0.2352941176470588
 40
0.2352941176470588
 40
0.2352941176470588
 40
0.2470588235294118
 40
0.2470588235294118
 40
0.2470588235294118
 40
0.2470588235294118
 40
0.2588235294117647
 40
0.2588235294117647
 40
0.2588235294117647
 40
0.2588235294117647
 40
0.2705882352941176
 40
0.2705882352941176
 40
0.2705882352941176
 40
0.2705882352941176
 40
0.2823529411764706
 40
0.2823529411764706
 40
0.2823529411764706
 40
0.2823529411764706
 40
0.2941176470588235
 40
0.2941176470588235
 40
0.2941176470588235
 40
0.2941176470588235
 40
0.3058823529411765
 40
0.3058823529411765
 40
0.3058823529411765
 40
0.3058823529411765
 40
0.3176470588235294
 40
0.3176470588235294
 40
0.3176470588235294
 40
0.3176470588235294
 40
0.3294117647058823
 40
0.3294117647058823
 40
0.3294117647058823
 40
0.3294117647058823
 40
0.3411764705882353
 40
0.3411764705882353
 40
0.3411764705882353
 40
0.3411764705882353
 40
0.3529411764705883
 40
0.3529411764705883
 40
0.3529411764705883
 40
0.3529411764705883
 40
0.3647058823529412
 40
0.3647058823529412
 40
0.3647058823529412
 40
0.3647058823529412
 40
0.3764705882352941
 40
0.3764705882352941
 40
0.3764705882352941
 40
0.3764705882352941
 40
0.3882352941176471
 40
0.3882352941176471
 40
0.3882352941176471
 40
0.3882352941176471
 40
0.4
 40
0.4
 40
0.4
 40
0.4
 40
0.4117647058823529
 40
0.4117647058823529
 40
0.4117647058823529
 40
0.4117647058823529
 40
0.4235294117647059
 40
0.4235294117647059
 40
0.4235294117647059
 40
0.4235294117647059
 40
0.4352941176470588
 40
0.4352941176470588
 40
0.4352941176470588
 40
0.4352941176470588
 40
0.4470588235294118
 40
0.4470588235294118
 40
0.4470588235294118
 40
0.4470588235294118
 40
0.4588235294117647
 40
0.4588235294117647
 40
0.4588235294117647
 40
0.4588235294117647
 40
0.4705882352941176
 40
0.4705882352941176
 40
0.4705882352941176
 40
0.4705882352941176
 40
0.4823529411764706
 40
0.4823529411764706
 40
0.4823529411764706
 40
0.4823529411764706
 40
0.4941176470588236
 40
0.4941176470588236
 40
0.4941176470588236
 40
0.4941176470588236
 40
0.5058823529411764
 40
0.5058823529411764
 40
0.5058823529411764
 40
0.5058823529411764
 40
0.5176470588235295
 40
0.5176470588235295
 40
0.5176470588235295
 40
0.5176470588235295
 40
0.5294117647058824
 40
0.5294117647058824
 40
0.5294117647058824
 40
0.5294117647058824
 40
0.5411764705882353
 40
0.5411764705882353
 40
0.5411764705882353
 40
0.5411764705882353
 40
0.5529411764705883
 40
0.5529411764705883
 40
0.5529411764705883
 40
0.5529411764705883
 40
0.5647058823529412
 40
0.5647058823529412
 40
0.5647058823529412
 40
0.5647058823529412
 40
0.5764705882352941
 40
0.5764705882352941
 40
0.5764705882352941
 40
0.5764705882352941
 40
0.5882352941176471
 40
0.5882352941176471
 40
0.5882352941176471
 40
0.5882352941176471
 40
0.6
 40
0.6
 40
0.6
 40
0.6
 40
0.611764705882353
 40
0.611764705882353
 40
0.611764705882353
 40
0.611764705882353
 40
0.6235294117647059
 40
0.6235294117647059
 40
0.6235294117647059
 40
0.6235294117647059
 40
0.6352941176470588
 40
0.6352941176470588
 40
0.6352941176470588
 40
0.6352941176470588
 40
0.6470588235294118
 40
0.6470588235294118
 40
0.6470588235294118
 40
0.6470588235294118
 40
0.6588235294117647
 40
0.6588235294117647
 40
0.6588235294117647
 40
0.6588235294117647
 40
0.6705882352941176
 40
0.6705882352941176
 40
0.6705882352941176
 40
0.6705882352941176
 40
0.6823529411764706
 40
0.6823529411764706
 40
0.6823529411764706
 40
0.6823529411764706
 40
0.6941176470588235
 40
0.6941176470588235
 40
0.6941176470588235
 40
0.6941176470588235
 40
0.7058823529411765
 40
0.7058823529411765
 40
0.7058823529411765
 40
0.7058823529411765
 40
0.7176470588235294
 40
0.7176470588235294
 40
0.7176470588235294
 40
0.7176470588235294
 40
0.7294117647058823
 40
0.7294117647058823
 40
0.7294117647058823
 40
0.7294117647058823
 40
0.7411764705882353
 40
0.7411764705882353
 40
0.7411764705882353
 40
0.7411764705882353
 40
0.7529411764705882
 40
0.7529411764705882
 40
0.7529411764705882
 40
0.7529411764705882
 40
0.7647058823529411
 40
0.7647058823529411
 40
0.7647058823529411
 40
0.7647058823529411
 40
0.7764705882352941
 40
0.7764705882352941
 40
0.7764705882352941
 40
0.7764705882352941
 40
0.788235294117647
 40
0.788235294117647
 40
0.788235294117647
 40
0.788235294117647
 40
0.8
 40
0.8
 40
0.8
 40
0.8
 40
0.8117647058823529
 40
0.8117647058823529
 40
0.8117647058823529
 40
0.8117647058823529
 40
0.8235294117647058
 40
0.8235294117647058
 40
0.8235294117647058
 40
0.8235294117647058
 40
0.8352941176470589
 40
0.8352941176470589
 40
0.8352941176470589
 40
0.8352941176470589
 40
0.8470588235294118
 40
0.8470588235294118
 40
0.8470588235294118
 40
0.8470588235294118
 40
0.8588235294117647
 40
0.8588235294117647
 40
0.8588235294117647
 40
0.8588235294117647
 40
0.8705882352941177
 40
0.8705882352941177
 40
0.8705882352941177
 40
0.8705882352941177
 40
0.8823529411764706
 40
0.8823529411764706
 40
0.8823529411764706
 40
0.8823529411764706
 40
0.8941176470588236
 40
0.8941176470588236
 40
0.8941176470588236
 40
0.8941176470588236
 40
0.9058823529411765
 40
0.9058823529411765
 40
0.9058823529411765
 40
0.9058823529411765
 40
0.9176470588235294
 40
0.9176470588235294
 40
0.9176470588235294
 40
0.9176470588235294
 40
0.9294117647058824
 40
0.9294117647058824
 40
0.9294117647058824
 40
0.9294117647058824
 40
0.9411764705882353
 40
0.9411764705882353
 40
0.9411764705882353
 40
0.9411764705882353
 40
0.9529411764705882
 40
0.9529411764705882
 40
0.9529411764705882
 40
0.9529411764705882
 40
0.9647058823529412
 40
0.9647058823529412
 40
0.9647058823529412
 40
0.9647058823529412
 40
0.9764705882352941
 40
0.9764705882352941
 40
0.9764705882352941
 40
0.9764705882352941
 40
1.0
 40
1.0
 40
1.0
 40
1.0
 10
188.2639
 20
-130.5528
 30
0.0
 10
188.2639
 20
-130.5528
 30
0.0
 10
188.6519
 20
-130.4822
 30
0.0
 10
188.6519
 20
-130.4822
 30
0.0
 10
188.6519
 20
-130.4822
 30
0.0
 10
188.6519
 20
-130.4822
 30
0.0
 10
189.04
 20
-130.3764
 30
0.0
 10
189.04
 20
-130.3764
 30
0.0
 10
189.04
 20
-130.3764
 30
0.0
 10
189.04
 20
-130.3764
 30
0.0
 10
189.3575
 20
-130.2
 30
0.0
 10
189.3575
 20
-130.2
 30
0.0
 10
189.3575
 20
-130.2
 30
0.0
 10
189.3575
 20
-130.2
 30
0.0
 10
189.675
 20
-129.953
 30
0.0
 10
189.675
 20
-129.953
 30
0.0
 10
189.675
 20
-129.953
 30
0.0
 10
189.675
 20
-129.953
 30
0.0
 10
189.9219
 20
-129.6355
 30
0.0
 10
189.9219
 20
-129.6355
 30
0.0
 10
189.9219
 20
-129.6355
 30
0.0
 10
189.9219
 20
-129.6355
 30
0.0
 10
190.0983
 20
-129.318
 30
0.0
 10
190.0983
 20
-129.318
 30
0.0
 10
190.0983
 20
-129.318
 30
0.0
 10
190.0983
 20
-129.318
 30
0.0
 10
190.2042
 20
-128.93
 30
0.0
 10
190.2042
 20
-128.93
 30
0.0
 10
190.2042
 20
-128.93
 30
0.0
 10
190.2042
 20
-128.93
 30
0.0
 10
190.2747
 20
-128.5419
 30
0.0
 10
190.2747
 20
-128.5419
 30
0.0
 10
190.2747
 20
-128.5419
 30
0.0
 10
190.2747
 20
-128.5419
 30
0.0
 10
190.2747
 20
-80.5289
 30
0.0
 10
190.2747
 20
-80.5289
 30
0.0
 10
190.2747
 20
-80.5289
 30
0.0
 10
190.2747
 20
-80.5289
 30
0.0
 10
190.1689
 20
-79.5764
 30
0.0
 10
190.1689
 20
-79.5764
 30
0.0
 10
190.1689
 20
-79.5764
 30
0.0
 10
190.1689
 20
-79.5764
 30
0.0
 10
189.8867
 20
-78.6239
 30
0.0
 10
189.8867
 20
-78.6239
 30
0.0
 10
189.8867
 20
-78.6239
 30
0.0
 10
189.8867
 20
-78.6239
 30
0.0
 10
189.4281
 20
-77.7419
 30
0.0
 10
189.4281
 20
-77.7419
 30
0.0
 10
189.4281
 20
-77.7419
 30
0.0
 10
189.4281
 20
-77.7419
 30
0.0
 10
188.7931
 20
-77.0011
 30
0.0
 10
188.7931
 20
-77.0011
 30
0.0
 10
188.7931
 20
-77.0011
 30
0.0
 10
188.7931
 20
-77.0011
 30
0.0
 10
188.0522
 20
-76.3661
 30
0.0
 10
188.0522
 20
-76.3661
 30
0.0
 10
188.0522
 20
-76.3661
 30
0.0
 10
188.0522
 20
-76.3661
 30
0.0
 10
187.1703
 20
-75.9075
 30
0.0
 10
187.1703
 20
-75.9075
 30
0.0
 10
187.1703
 20
-75.9075
 30
0.0
 10
187.1703
 20
-75.9075
 30
0.0
 10
186.2178
 20
-75.6253
 30
0.0
 10
186.2178
 20
-75.6253
 30
0.0
 10
186.2178
 20
-75.6253
 30
0.0
 10
186.2178
 20
-75.6253
 30
0.0
 10
185.2653
 20
-75.5194
 30
0.0
 10
185.2653
 20
-75.5194
 30
0.0
 10
185.2653
 20
-75.5194
 30
0.0
 10
185.2653
 20
-75.5194
 30
0.0
 10
180.2558
 20
-75.5194
 30
0.0
 10
180.2558
 20
-75.5194
 30
0.0
 10
180.2558
 20
-75.5194
 30
0.0
 10
180.2558
 20
-75.5194
 30
0.0
 10
180.2558
 20
-100.5314
 30
0.0
 10
180.2558
 20
-100.5314
 30
0.0
 10
180.2558
 20
-100.5314
 30
0.0
 10
180.2558
 20
-100.5314
 30
0.0
 10
177.2572
 20
-100.5314
 30
0.0
 10
177.2572
 20
-100.5314
 30
0.0
 10
177.2572
 20
-100.5314
 30
0.0
 10
177.2572
 20
-100.5314
 30
0.0
 10
177.2572
 20
-75.5194
 30
0.0
 10
177.2572
 20
-75.5194
 30
0.0
 10
177.2572
 20
-75.5194
 30
0.0
 10
177.2572
 20
-75.5194
 30
0.0
 10
117.2497
 20
-75.5194
 30
0.0
 10
117.2497
 20
-75.5194
 30
0.0
 10
117.2497
 20
-75.5194
 30
0.0
 10
117.2497
 20
-75.5194
 30
0.0
 10
117.2497
 20
-78.5533
 30
0.0
 10
117.2497
 20
-78.5533
 30
0.0
 10
117.2497
 20
-78.5533
 30
0.0
 10
117.2497
 20
-78.5533
 30
0.0
 10
77.2447
 20
-78.5533
 30
0.0
 10
77.2447
 20
-78.5533
 30
0.0
 10
77.2447
 20
-78.5533
 30
0.0
 10
77.2447
 20
-78.5533
 30
0.0
 10
77.2447
 20
-75.5194
 30
0.0
 10
77.2447
 20
-75.5194
 30
0.0
 10
77.2447
 20
-75.5194
 30
0.0
 10
77.2447
 20
-75.5194
 30
0.0
 10
17.2725
 20
-75.5194
 30
0.0
 10
17.2725
 20
-75.5194
 30
0.0
 10
17.2725
 20
-75.5194
 30
0.0
 10
17.2725
 20
-75.5194
 30
0.0
 10
17.2725
 20
-100.5314
 30
0.0
 10
17.2725
 20
-100.5314
 30
0.0
 10
17.2725
 20
-100.5314
 30
0.0
 10
17.2725
 20
-100.5314
 30
0.0
 10
14.2739
 20
-100.5314
 30
0.0
 10
14.2739
 20
-100.5314
 30
0.0
 10
14.2739
 20
-100.5314
 30
0.0
 10
14.2739
 20
-100.5314
 30
0.0
 10
14.2739
 20
-75.5194
 30
0.0
 10
14.2739
 20
-75.5194
 30
0.0
 10
14.2739
 20
-75.5194
 30
0.0
 10
14.2739
 20
-75.5194
 30
0.0
 10
9.2645
 20
-75.5194
 30
0.0
 10
9.2645
 20
-75.5194
 30
0.0
 10
9.2645
 20
-75.5194
 30
0.0
 10
9.2645
 20
-75.5194
 30
0.0
 10
8.2767
 20
-75.6253
 30
0.0
 10
8.2767
 20
-75.6253
 30
0.0
 10
8.2767
 20
-75.6253
 30
0.0
 10
8.2767
 20
-75.6253
 30
0.0
 10
7.3595
 20
-75.9075
 30
0.0
 10
7.3595
 20
-75.9075
 30
0.0
 10
7.3595
 20
-75.9075
 30
0.0
 10
7.3595
 20
-75.9075
 30
0.0
 10
6.4775
 20
-76.3661
 30
0.0
 10
6.4775
 20
-76.3661
 30
0.0
 10
6.4775
 20
-76.3661
 30
0.0
 10
6.4775
 20
-76.3661
 30
0.0
 10
5.7367
 20
-77.0011
 30
0.0
 10
5.7367
 20
-77.0011
 30
0.0
 10
5.7367
 20
-77.0011
 30
0.0
 10
5.7367
 20
-77.0011
 30
0.0
 10
5.1017
 20
-77.7419
 30
0.0
 10
5.1017
 20
-77.7419
 30
0.0
 10
5.1017
 20
-77.7419
 30
0.0
 10
5.1017
 20
-77.7419
 30
0.0
 10
4.6431
 20
-78.6239
 30
0.0
 10
4.6431
 20
-78.6239
 30
0.0
 10
4.6431
 20
-78.6239
 30
0.0
 10
4.6431
 20
-78.6239
 30
0.0
 10
4.3608
 20
-79.5764
 30
0.0
 10
4.3608
 20
-79.5764
 30
0.0
 10
4.3608
 20
-79.5764
 30
0.0
 10
4.3608
 20
-79.5764
 30
0.0
 10
4.255
 20
-80.5289
 30
0.0
 10
4.255
 20
-80.5289
 30
0.0
 10
4.255
 20
-80.5289
 30
0.0
 10
4.255
 20
-80.5289
 30
0.0
 10
4.255
 20
-128.5419
 30
0.0
 10
4.255
 20
-128.5419
 30
0.0
 10
4.255
 20
-128.5419
 30
0.0
 10
4.255
 20
-128.5419
 30
0.0
 10
4.2903
 20
-128.93
 30
0.0
 10
4.2903
 20
-128.93
 30
0.0
 10
4.2903
 20
-128.93
 30
0.0
 10
4.2903
 20
-128.93
 30
0.0
 10
4.3961
 20
-129.318
 30
0.0
 10
4.3961
 20
-129.318
 30
0.0
 10
4.3961
 20
-129.318
 30
0.0
 10
4.3961
 20
-129.318
 30
0.0
 10
4.6078
 20
-129.6355
 30
0.0
 10
4.6078
 20
-129.6355
 30
0.0
 10
4.6078
 20
-129.6355
 30
0.0
 10
4.6078
 20
-129.6355
 30
0.0
 10
4.8547
 20
-129.953
 30
0.0
 10
4.8547
 20
-129.953
 30
0.0
 10
4.8547
 20
-129.953
 30
0.0
 10
4.8547
 20
-129.953
 30
0.0
 10
5.137
 20
-130.2
 30
0.0
 10
5.137
 20
-130.2
 30
0.0
 10
5.137
 20
-130.2
 30
0.0
 10
5.137
 20
-130.2
 30
0.0
 10
5.4897
 20
-130.3764
 30
0.0
 10
5.4897
 20
-130.3764
 30
0.0
 10
5.4897
 20
-130.3764
 30
0.0
 10
5.4897
 20
-130.3764
 30
0.0
 10
5.8778
 20
-130.4822
 30
0.0
 10
5.8778
 20
-130.4822
 30
0.0
 10
5.8778
 20
-130.4822
 30
0.0
 10
5.8778
 20
-130.4822
 30
0.0
 10
6.2658
 20
-130.5528
 30
0.0
 10
6.2658
 20
-130.5528
 30
0.0
 10
6.2658
 20
-130.5528
 30
0.0
 10
6.2658
 20
-130.5528
 30
0.0
 10
12.2631
 20
-130.5528
 30
0.0
 10
12.2631
 20
-130.5528
 30
0.0
 10
12.2631
 20
-130.5528
 30
0.0
 10
12.2631
 20
-130.5528
 30
0.0
 10
12.6511
 20
-130.4822
 30
0.0
 10
12.6511
 20
-130.4822
 30
0.0
 10
12.6511
 20
-130.4822
 30
0.0
 10
12.6511
 20
-130.4822
 30
0.0
 10
13.0392
 20
-130.3764
 30
0.0
 10
13.0392
 20
-130.3764
 30
0.0
 10
13.0392
 20
-130.3764
 30
0.0
 10
13.0392
 20
-130.3764
 30
0.0
 10
13.3567
 20
-130.2
 30
0.0
 10
13.3567
 20
-130.2
 30
0.0
 10
13.3567
 20
-130.2
 30
0.0
 10
13.3567
 20
-130.2
 30
0.0
 10
13.6742
 20
-129.953
 30
0.0
 10
13.6742
 20
-129.953
 30
0.0
 10
13.6742
 20
-129.953
 30
0.0
 10
13.6742
 20
-129.953
 30
0.0
 10
13.9211
 20
-129.6355
 30
0.0
 10
13.9211
 20
-129.6355
 30
0.0
 10
13.9211
 20
-129.6355
 30
0.0
 10
13.9211
 20
-129.6355
 30
0.0
 10
14.0975
 20
-129.318
 30
0.0
 10
14.0975
 20
-129.318
 30
0.0
 10
14.0975
 20
-129.318
 30
0.0
 10
14.0975
 20
-129.318
 30
0.0
 10
14.2386
 20
-128.93
 30
0.0
 10
14.2386
 20
-128.93
 30
0.0
 10
14.2386
 20
-128.93
 30
0.0
 10
14.2386
 20
-128.93
 30
0.0
 10
14.2739
 20
-128.5419
 30
0.0
 10
14.2739
 20
-128.5419
 30
0.0
 10
14.2739
 20
-128.5419
 30
0.0
 10
14.2739
 20
-128.5419
 30
0.0
 10
14.2739
 20
-127.5189
 30
0.0
 10
14.2739
 20
-127.5189
 30
0.0
 10
14.2739
 20
-127.5189
 30
0.0
 10
14.2739
 20
-127.5189
 30
0.0
 10
14.3092
 20
-127.1308
 30
0.0
 10
14.3092
 20
-127.1308
 30
0.0
 10
14.3092
 20
-127.1308
 30
0.0
 10
14.3092
 20
-127.1308
 30
0.0
 10
14.415
 20
-126.778
 30
0.0
 10
14.415
 20
-126.778
 30
0.0
 10
14.415
 20
-126.778
 30
0.0
 10
14.415
 20
-126.778
 30
0.0
 10
14.5914
 20
-126.4253
 30
0.0
 10
14.5914
 20
-126.4253
 30
0.0
 10
14.5914
 20
-126.4253
 30
0.0
 10
14.5914
 20
-126.4253
 30
0.0
 10
14.8383
 20
-126.1078
 30
0.0
 10
14.8383
 20
-126.1078
 30
0.0
 10
14.8383
 20
-126.1078
 30
0.0
 10
14.8383
 20
-126.1078
 30
0.0
 10
15.1558
 20
-125.8608
 30
0.0
 10
15.1558
 20
-125.8608
 30
0.0
 10
15.1558
 20
-125.8608
 30
0.0
 10
15.1558
 20
-125.8608
 30
0.0
 10
15.5086
 20
-125.6844
 30
0.0
 10
15.5086
 20
-125.6844
 30
0.0
 10
15.5086
 20
-125.6844
 30
0.0
 10
15.5086
 20
-125.6844
 30
0.0
 10
15.8614
 20
-125.5786
 30
0.0
 10
15.8614
 20
-125.5786
 30
0.0
 10
15.8614
 20
-125.5786
 30
0.0
 10
15.8614
 20
-125.5786
 30
0.0
 10
16.2495
 20
-125.5433
 30
0.0
 10
16.2495
 20
-125.5433
 30
0.0
 10
16.2495
 20
-125.5433
 30
0.0
 10
16.2495
 20
-125.5433
 30
0.0
 10
178.245
 20
-125.5433
 30
0.0
 10
178.245
 20
-125.5433
 30
0.0
 10
178.245
 20
-125.5433
 30
0.0
 10
178.245
 20
-125.5433
 30
0.0
 10
178.6331
 20
-125.5786
 30
0.0
 10
178.6331
 20
-125.5786
 30
0.0
 10
178.6331
 20
-125.5786
 30
0.0
 10
178.6331
 20
-125.5786
 30
0.0
 10
179.0211
 20
-125.6844
 30
0.0
 10
179.0211
 20
-125.6844
 30
0.0
 10
179.0211
 20
-125.6844
 30
0.0
 10
179.0211
 20
-125.6844
 30
0.0
 10
179.3739
 20
-125.8608
 30
0.0
 10
179.3739
 20
-125.8608
 30
0.0
 10
179.3739
 20
-125.8608
 30
0.0
 10
179.3739
 20
-125.8608
 30
0.0
 10
179.6914
 20
-126.1078
 30
0.0
 10
179.6914
 20
-126.1078
 30
0.0
 10
179.6914
 20
-126.1078
 30
0.0
 10
179.6914
 20
-126.1078
 30
0.0
 10
179.9383
 20
-126.4253
 30
0.0
 10
179.9383
 20
-126.4253
 30
0.0
 10
179.9383
 20
-126.4253
 30
0.0
 10
179.9383
 20
-126.4253
 30
0.0
 10
180.1147
 20
-126.778
 30
0.0
 10
180.1147
 20
-126.778
 30
0.0
 10
180.1147
 20
-126.778
 30
0.0
 10
180.1147
 20
-126.778
 30
0.0
 10
180.2206
 20
-127.1308
 30
0.0
 10
180.2206
 20
-127.1308
 30
0.0
 10
180.2206
 20
-127.1308
 30
0.0
 10
180.2206
 20
-127.1308
 30
0.0
 10
180.2558
 20
-127.5189
 30
0.0
 10
180.2558
 20
-127.5189
 30
0.0
 10
180.2558
 20
-127.5189
 30
0.0
 10
180.2558
 20
-127.5189
 30
0.0
 10
180.2558
 20
-128.5419
 30
0.0
 10
180.2558
 20
-128.5419
 30
0.0
 10
180.2558
 20
-128.5419
 30
0.0
 10
180.2558
 20
-128.5419
 30
0.0
 10
180.2911
 20
-128.93
 30
0.0
 10
180.2911
 20
-128.93
 30
0.0
 10
180.2911
 20
-128.93
 30
0.0
 10
180.2911
 20
-128.93
 30
0.0
 10
180.3969
 20
-129.318
 30
0.0
 10
180.3969
 20
-129.318
 30
0.0
 10
180.3969
 20
-129.318
 30
0.0
 10
180.3969
 20
-129.318
 30
0.0
 10
180.6086
 20
-129.6355
 30
0.0
 10
180.6086
 20
-129.6355
 30
0.0
 10
180.6086
 20
-129.6355
 30
0.0
 10
180.6086
 20
-129.6355
 30
0.0
 10
180.8556
 20
-129.953
 30
0.0
 10
180.8556
 20
-129.953
 30
0.0
 10
180.8556
 20
-129.953
 30
0.0
 10
180.8556
 20
-129.953
 30
0.0
 10
181.1378
 20
-130.2
 30
0.0
 10
181.1378
 20
-130.2
 30
0.0
 10
181.1378
 20
-130.2
 30
0.0
 10
181.1378
 20
-130.2
 30
0.0
 10
181.4906
 20
-130.3764
 30
0.0
 10
181.4906
 20
-130.3764
 30
0.0
 10
181.4906
 20
-130.3764
 30
0.0
 10
181.4906
 20
-130.3764
 30
0.0
 10
181.8786
 20
-130.4822
 30
0.0
 10
181.8786
 20
-130.4822
 30
0.0
 10
181.8786
 20
-130.4822
 30
0.0
 10
181.8786
 20
-130.4822
 30
0.0
 10
182.2667
 20
-130.5528
 30
0.0
 10
182.2667
 20
-130.5528
 30
0.0
 10
182.2667
 20
-130.5528
 30
0.0
 10
182.2667
 20
-130.5528
 30
0.0
 10
188.2639
 20
-130.5528
 30
0.0
 10
188.2639
 20
-130.5528
 30
0.0
  0
SPLINE
  5
77
330
1F
100
AcDbEntity
  8
layer 1
 62
     1
370
     9
100
AcDbSpline
210
0.0
220
0.0
230
1.0
 70
    11
 71
     3
 72
    20
 73
    16
 74
     0
 42
0.000000001
 43
0.0000000001
 40
0.0
 40
0.0
 40
0.0
 40
0.0
 40
0.2
 40
0.2
 40
0.2
 40
0.2
 40
0.4
 40
0.4
 40
0.4
 40
0.4
 40
0.6
 40
0.6
 40
0.6
 40
0.6
 40
1.0
 40
1.0
 40
1.0
 40
1.0
 10
67.2611
 20
-121.5217
 30
0.0
 10
67.2611
 20
-121.5217
 30
0.0
 10
67.2611
 20
-118.523
 30
0.0
 10
67.2611
 20
-118.523
 30
0.0
 10
67.2611
 20
-118.523
 30
0.0
 10
67.2611
 20
-118.523
 30
0.0
 10
127.2686
 20
-118.523
 30
0.0
 10
127.2686
 20
-118.523
 30
0.0
 10
127.2686
 20
-118.523
 30
0.0
 10
127.2686
 20
-118.523
 30
0.0
 10
127.2686
 20
-121.5217
 30
0.0
 10
127.2686
 20
-121.5217
 30
0.0
 10
127.2686
 20
-121.5217
 30
0.0
 10
127.2686
 20
-121.5217
 30
0.0
 10
67.2611
 20
-121.5217
 30
0.0
 10
67.2611
 20
-121.5217
 30
0.0
  0
SPLINE
  5
78
330
1F
100
AcDbEntity
  8
layer 1
 62
     1
370
     9
100
AcDbSpline
210
0.0
220
0.0
230
1.0
 70
    11
 71
     3
 72
   132
 73
   128
 74
     0
 42
0.000000001
 43
0.0000000001
 40
0.0
 40
0.0
 40
0.0
 40
0.0
 40
0.0303030303030303
 40
0.0303030303030303
 40
0.0303030303030303
 40
0.0303030303030303
 40
0.0606060606060606
 40
0.0606060606060606
 40
0.0606060606060606
 40
0.0606060606060606
 40
0.0909090909090909
 40
0.0909090909090909
 40
0.0909090909090909
 40
0.0909090909090909
 40
0.1212121212121212
 40
0.1212121212121212
 40
0.1212121212121212
 40
0.1212121212121212
 40
0.1515151515151515
 40
0.1515151515151515
 40
0.1515151515151515
 40
0.1515151515151515
 40
0.1818181818181818
 40
0.1818181818181818
 40
0.1818181818181818
 40
0.1818181818181818
 40
0.2121212121212121
 40
0.2121212121212121
 40
0.2121212121212121
 40
0.2121212121212121
 40
0.2424242424242424
 40
0.2424242424242424
 40
0.2424242424242424
 40
0.2424242424242424
 40
0.2727272727272727
 40
0.2727272727272727
 40
0.2727272727272727
 40
0.2727272727272727
 40
0.303030303030303
 40
0.303030303030303
 40
0.303030303030303
 40
0.303030303030303
 40
0.3333333333333333
 40
0.3333333333333333
 40
0.3333333333333333
 40
0.3333333333333333
 40
0.3636363636363636
 40
0.3636363636363636
 40
0.3636363636363636
 40
0.3636363636363636
 40
0.3939393939393939
 40
0.3939393939393939
 40
0.3939393939393939
 40
0.3939393939393939
 40
0.4242424242424243
 40
0.4242424242424243
 40
0.4242424242424243
 40
0.4242424242424243
 40
0.4545454545454545
 40
0.4545454545454545
 40
0.4545454545454545
 40
0.4545454545454545
 40
0.4848484848484849
 40
0.4848484848484849
 40
0.4848484848484849
 40
0.4848484848484849
 40
0.5151515151515151
 40
0.5151515151515151
 40
0.5151515151515151
 40
0.5151515151515151
 40
0.5454545454545454
 40
0.5454545454545454
 40
0.5454545454545454
 40
0.5454545454545454
 40
0.5757575757575758
 40
0.5757575757575758
 40
0.5757575757575758
 40
0.5757575757575758
 40
0.6060606060606061
 40
0.6060606060606061
 40
0.6060606060606061
 40
0.6060606060606061
 40
0.6363636363636364
 40
0.6363636363636364
 40
0.6363636363636364
 40
0.6363636363636364
 40
0.6666666666666666
 40
0.6666666666666666
 40
0.6666666666666666
 40
0.6666666666666666
 40
0.696969696969697
 40
0.696969696969697
 40
0.696969696969697
 40
0.696969696969697
 40
0.7272727272727273
 40
0.7272727272727273
 40
0.7272727272727273
 40
0.7272727272727273
 40
0.7575757575757576
 40
0.7575757575757576
 40
0.7575757575757576
 40
0.7575757575757576
 40
0.7878787878787878
 40
0.7878787878787878
 40
0.7878787878787878
 40
0.7878787878787878
 40
0.8181818181818182
 40
0.8181818181818182
 40
0.8181818181818182
 40
0.8181818181818182
 40
0.8484848484848485
 40
0.8484848484848485
 40
0.8484848484848485
 40
0.8484848484848485
 40
0.8787878787878788
 40
0.8787878787878788
 40
0.8787878787878788
 40
0.8787878787878788
 40
0.9090909090909091
 40
0.9090909090909091
 40
0.9090909090909091
 40
0.9090909090909091
 40
0.9393939393939394
 40
0.9393939393939394
 40
0.9393939393939394
 40
0.9393939393939394
 40
1.0
 40
1.0
 40
1.0
 40
1.0
 10
178.5863
 20
-8.4927
 30
0.0
 10
178.5863
 20
-8.4927
 30
0.0
 10
178.9037
 20
-9.8685
 30
0.0
 10
178.9037
 20
-9.8685
 30
0.0
 10
178.9037
 20
-9.8685
 30
0.0
 10
178.9037
 20
-9.8685
 30
0.0
 10
178.7979
 20
-11.2444
 30
0.0
 10
178.7979
 20
-11.2444
 30
0.0
 10
178.7979
 20
-11.2444
 30
0.0
 10
178.7979
 20
-11.2444
 30
0.0
 10
178.3746
 20
-12.5849
 30
0.0
 10
178.3746
 20
-12.5849
 30
0.0
 10
178.3746
 20
-12.5849
 30
0.0
 10
178.3746
 20
-12.5849
 30
0.0
 10
177.5632
 20
-13.7491
 30
0.0
 10
177.5632
 20
-13.7491
 30
0.0
 10
177.5632
 20
-13.7491
 30
0.0
 10
177.5632
 20
-13.7491
 30
0.0
 10
176.5049
 20
-14.6311
 30
0.0
 10
176.5049
 20
-14.6311
 30
0.0
 10
176.5049
 20
-14.6311
 30
0.0
 10
176.5049
 20
-14.6311
 30
0.0
 10
175.2701
 20
-15.2308
 30
0.0
 10
175.2701
 20
-15.2308
 30
0.0
 10
175.2701
 20
-15.2308
 30
0.0
 10
175.2701
 20
-15.2308
 30
0.0
 10
173.8943
 20
-15.4778
 30
0.0
 10
173.8943
 20
-15.4778
 30
0.0
 10
173.8943
 20
-15.4778
 30
0.0
 10
173.8943
 20
-15.4778
 30
0.0
 10
172.4832
 20
-15.3719
 30
0.0
 10
172.4832
 20
-15.3719
 30
0.0
 10
172.4832
 20
-15.3719
 30
0.0
 10
172.4832
 20
-15.3719
 30
0.0
 10
171.1779
 20
-14.878
 30
0.0
 10
171.1779
 20
-14.878
 30
0.0
 10
171.1779
 20
-14.878
 30
0.0
 10
171.1779
 20
-14.878
 30
0.0
 10
170.049
 20
-14.0666
 30
0.0
 10
170.049
 20
-14.0666
 30
0.0
 10
170.049
 20
-14.0666
 30
0.0
 10
170.049
 20
-14.0666
 30
0.0
 10
169.1671
 20
-12.973
 30
0.0
 10
169.1671
 20
-12.973
 30
0.0
 10
169.1671
 20
-12.973
 30
0.0
 10
169.1671
 20
-12.973
 30
0.0
 10
168.6026
 20
-11.703
 30
0.0
 10
168.6026
 20
-11.703
 30
0.0
 10
168.6026
 20
-11.703
 30
0.0
 10
168.6026
 20
-11.703
 30
0.0
 10
168.3909
 20
-10.3271
 30
0.0
 10
168.3909
 20
-10.3271
 30
0.0
 10
168.3909
 20
-10.3271
 30
0.0
 10
168.3909
 20
-10.3271
 30
0.0
 10
168.5674
 20
-8.9514
 30
0.0
 10
168.5674
 20
-8.9514
 30
0.0
 10
168.5674
 20
-8.9514
 30
0.0
 10
168.5674
 20
-8.9514
 30
0.0
 10
169.0965
 20
-7.646
 30
0.0
 10
169.0965
 20
-7.646
 30
0.0
 10
169.0965
 20
-7.646
 30
0.0
 10
169.0965
 20
-7.646
 30
0.0
 10
169.9432
 20
-6.5524
 30
0.0
 10
169.9432
 20
-6.5524
 30
0.0
 10
169.9432
 20
-6.5524
 30
0.0
 10
169.9432
 20
-6.5524
 30
0.0
 10
171.0368
 20
-5.6705
 30
0.0
 10
171.0368
 20
-5.6705
 30
0.0
 10
171.0368
 20
-5.6705
 30
0.0
 10
171.0368
 20
-5.6705
 30
0.0
 10
172.3421
 20
-5.1766
 30
0.0
 10
172.3421
 20
-5.1766
 30
0.0
 10
172.3421
 20
-5.1766
 30
0.0
 10
172.3421
 20
-5.1766
 30
0.0
 10
173.7179
 20
-5.0002
 30
0.0
 10
173.7179
 20
-5.0002
 30
0.0
 10
173.7179
 20
-5.0002
 30
0.0
 10
173.7179
 20
-5.0002
 30
0.0
 10
175.0937
 20
-5.2119
 30
0.0
 10
175.0937
 20
-5.2119
 30
0.0
 10
175.0937
 20
-5.2119
 30
0.0
 10
175.0937
 20
-5.2119
 30
0.0
 10
176.399
 20
-5.7763
 30
0.0
 10
176.399
 20
-5.7763
 30
0.0
 10
176.399
 20
-5.7763
 30
0.0
 10
176.399
 20
-5.7763
 30
0.0
 10
177.4574
 20
-6.623
 30
0.0
 10
177.4574
 20
-6.623
 30
0.0
 10
177.4574
 20
-6.623
 30
0.0
 10
177.4574
 20
-6.623
 30
0.0
 10
176.5754
 20
-8.2105
 30
0.0
 10
176.5754
 20
-8.2105
 30
0.0
 10
176.5754
 20
-8.2105
 30
0.0
 10
176.5754
 20
-8.2105
 30
0.0
 10
176.5401
 20
-8.2457
 30
0.0
 10
176.5401
 20
-8.2457
 30
0.0
 10
176.5401
 20
-8.2457
 30
0.0
 10
176.5401
 20
-8.2457
 30
0.0
 10
176.5401
 20
-8.281
 30
0.0
 10
176.5401
 20
-8.281
 30
0.0
 10
176.5401
 20
-8.281
 30
0.0
 10
176.5401
 20
-8.281
 30
0.0
 10
176.5402
 20
-8.3516
 30
0.0
 10
176.5402
 20
-8.3516
 30
0.0
 10
176.5402
 20
-8.3516
 30
0.0
 10
176.5402
 20
-8.3516
 30
0.0
 10
176.5754
 20
-8.3869
 30
0.0
 10
176.5754
 20
-8.3869
 30
0.0
 10
176.5754
 20
-8.3869
 30
0.0
 10
176.5754
 20
-8.3869
 30
0.0
 10
176.6108
 20
-8.4222
 30
0.0
 10
176.6108
 20
-8.4222
 30
0.0
 10
176.6108
 20
-8.4222
 30
0.0
 10
176.6108
 20
-8.4222
 30
0.0
 10
176.646
 20
-8.4575
 30
0.0
 10
176.646
 20
-8.4575
 30
0.0
 10
176.646
 20
-8.4575
 30
0.0
 10
176.646
 20
-8.4575
 30
0.0
 10
176.6813
 20
-8.4927
 30
0.0
 10
176.6813
 20
-8.4927
 30
0.0
 10
176.6813
 20
-8.4927
 30
0.0
 10
176.6813
 20
-8.4927
 30
0.0
 10
176.7519
 20
-8.4928
 30
0.0
 10
176.7519
 20
-8.4928
 30
0.0
 10
176.7519
 20
-8.4928
 30
0.0
 10
176.7519
 20
-8.4928
 30
0.0
 10
178.5863
 20
-8.4927
 30
0.0
 10
178.5863
 20
-8.4927
 30
0.0
  0
SPLINE
  5
79
330
1F
100
AcDbEntity
  8
layer 1
 62
     1
370
     9
100
AcDbSpline
210
0.0
220
0.0
230
1.0
 70
    11
 71
     3
 72
    20
 73
    16
 74
     0
 42
0.000000001
 43
0.0000000001
 40
0.0
 40
0.0
 40
0.0
 40
0.0
 40
0.2
 40
0.2
 40
0.2
 40
0.2
 40
0.4
 40
0.4
 40
0.4
 40
0.4
 40
0.6
 40
0.6
 40
0.6
 40
0.6
 40
1.0
 40
1.0
 40
1.0
 40
1.0
 10
135.4063
 20
-54.7419
 30
0.0
 10
135.4063
 20
-54.7419
 30
0.0
 10
95.4365
 20
-54.7419
 30
0.0
 10
95.4365
 20
-54.7419
 30
0.0
 10
95.4365
 20
-54.7419
 30
0.0
 10
95.4365
 20
-54.7419
 30
0.0
 10
95.4365
 20
-51.7433
 30
0.0
 10
95.4365
 20
-51.7433
 30
0.0
 10
95.4365
 20
-51.7433
 30
0.0
 10
95.4365
 20
-51.7433
 30
0.0
 10
135.4063
 20
-51.7433
 30
0.0
 10
135.4063
 20
-51.7433
 30
0.0
 10
135.4063
 20
-51.7433
 30
0.0
 10
135.4063
 20
-51.7433
 30
0.0
 10
135.4063
 20
-54.7419
 30
0.0
 10
135.4063
 20
-54.7419
 30
0.0
  0
SPLINE
  5
7A
330
1F
100
AcDbEntity
  8
layer 1
370
     9
100
AcDbSpline
210
0.0
220
0.0
230
1.0
 70
    11
 71
     3
 72
   388
 73
   384
 74
     0
 42
0.000000001
 43
0.0000000001
 40
0.0
 40
0.0
 40
0.0
 40
0.0
 40
0.0103092783505155
 40
0.0103092783505155
 40
0.0103092783505155
 40
0.0103092783505155
 40
0.0206185567010309
 40
0.0206185567010309
 40
0.0206185567010309
 40
0.0206185567010309
 40
0.0309278350515464
 40
0.0309278350515464
 40
0.0309278350515464
 40
0.0309278350515464
 40
0.0412371134020619
 40
0.0412371134020619
 40
0.0412371134020619
 40
0.0412371134020619
 40
0.0515463917525773
 40
0.0515463917525773
 40
0.0515463917525773
 40
0.0515463917525773
 40
0.0618556701030928
 40
0.0618556701030928
 40
0.0618556701030928
 40
0.0618556701030928
 40
0.0721649484536082
 40
0.0721649484536082
 40
0.0721649484536082
 40
0.0721649484536082
 40
0.0824742268041237
 40
0.0824742268041237
 40
0.0824742268041237
 40
0.0824742268041237
 40
0.0927835051546392
 40
0.0927835051546392
 40
0.0927835051546392
 40
0.0927835051546392
 40
0.1030927835051546
 40
0.1030927835051546
 40
0.1030927835051546
 40
0.1030927835051546
 40
0.1134020618556701
 40
0.1134020618556701
 40
0.1134020618556701
 40
0.1134020618556701
 40
0.1237113402061856
 40
0.1237113402061856
 40
0.1237113402061856
 40
0.1237113402061856
 40
0.134020618556701
 40
0.134020618556701
 40
0.134020618556701
 40
0.134020618556701
 40
0.1443298969072165
 40
0.1443298969072165
 40
0.1443298969072165
 40
0.1443298969072165
 40
0.154639175257732
 40
0.154639175257732
 40
0.154639175257732
 40
0.154639175257732
 40
0.1649484536082474
 40
0.1649484536082474
 40
0.1649484536082474
 40
0.1649484536082474
 40
0.1752577319587629
 40
0.1752577319587629
 40
0.1752577319587629
 40
0.1752577319587629
 40
0.1855670103092784
 40
0.1855670103092784
 40
0.1855670103092784
 40
0.1855670103092784
 40
0.1958762886597938
 40
0.1958762886597938
 40
0.1958762886597938
 40
0.1958762886597938
 40
0.2061855670103093
 40
0.2061855670103093
 40
0.2061855670103093
 40
0.2061855670103093
 40
0.2164948453608248
 40
0.2164948453608248
 40
0.2164948453608248
 40
0.2164948453608248
 40
0.2268041237113402
 40
0.2268041237113402
 40
0.2268041237113402
 40
0.2268041237113402
 40
0.2371134020618557
 40
0.2371134020618557
 40
0.2371134020618557
 40
0.2371134020618557
 40
0.2474226804123711
 40
0.2474226804123711
 40
0.2474226804123711
 40
0.2474226804123711
 40
0.2577319587628866
 40
0.2577319587628866
 40
0.2577319587628866
 40
0.2577319587628866
 40
0.2680412371134021
 40
0.2680412371134021
 40
0.2680412371134021
 40
0.2680412371134021
 40
0.2783505154639175
 40
0.2783505154639175
 40
0.2783505154639175
 40
0.2783505154639175
 40
0.288659793814433
 40
0.288659793814433
 40
0.288659793814433
 40
0.288659793814433
 40
0.2989690721649484
 40
0.2989690721649484
 40
0.2989690721649484
 40
0.2989690721649484
 40
0.3092783505154639
 40
0.3092783505154639
 40
0.3092783505154639
 40
0.3092783505154639
 40
0.3195876288659794
 40
0.3195876288659794
 40
0.3195876288659794
 40
0.3195876288659794
 40
0.3298969072164948
 40
0.3298969072164948
 40
0.3298969072164948
 40
0.3298969072164948
 40
0.3402061855670103
 40
0.3402061855670103
 40
0.3402061855670103
 40
0.3402061855670103
 40
0.3505154639175257
 40
0.3505154639175257
 40
0.3505154639175257
 40
0.3505154639175257
 40
0.3608247422680412
 40
0.3608247422680412
 40
0.3608247422680412
 40
0.3608247422680412
 40
0.3711340206185567
 40
0.3711340206185567
 40
0.3711340206185567
 40
0.3711340206185567
 40
0.3814432989690721
 40
0.3814432989690721
 40
0.3814432989690721
 40
0.3814432989690721
 40
0.3917525773195876
 40
0.3917525773195876
 40
0.3917525773195876
 40
0.3917525773195876
 40
0.4020618556701031
 40
0.4020618556701031
 40
0.4020618556701031
 40
0.4020618556701031
 40
0.4123711340206185
 40
0.4123711340206185
 40
0.4123711340206185
 40
0.4123711340206185
 40
0.422680412371134
 40
0.422680412371134
 40
0.422680412371134
 40
0.422680412371134
 40
0.4329896907216495
 40
0.4329896907216495
 40
0.4329896907216495
 40
0.4329896907216495
 40
0.4432989690721649
 40
0.4432989690721649
 40
0.4432989690721649
 40
0.4432989690721649
 40
0.4536082474226804
 40
0.4536082474226804
 40
0.4536082474226804
 40
0.4536082474226804
 40
0.4639175257731959
 40
0.4639175257731959
 40
0.4639175257731959
 40
0.4639175257731959
 40
0.4742268041237113
 40
0.4742268041237113
 40
0.4742268041237113
 40
0.4742268041237113
 40
0.4845360824742268
 40
0.4845360824742268
 40
0.4845360824742268
 40
0.4845360824742268
 40
0.4948453608247423
 40
0.4948453608247423
 40
0.4948453608247423
 40
0.4948453608247423
 40
0.5051546391752577
 40
0.5051546391752577
 40
0.5051546391752577
 40
0.5051546391752577
 40
0.5154639175257731
 40
0.5154639175257731
 40
0.5154639175257731
 40
0.5154639175257731
 40
0.5257731958762887
 40
0.5257731958762887
 40
0.5257731958762887
 40
0.5257731958762887
 40
0.5360824742268041
 40
0.5360824742268041
 40
0.5360824742268041
 40
0.5360824742268041
 40
0.5463917525773195
 40
0.5463917525773195
 40
0.5463917525773195
 40
0.5463917525773195
 40
0.5567010309278351
 40
0.5567010309278351
 40
0.5567010309278351
 40
0.5567010309278351
 40
0.5670103092783505
 40
0.5670103092783505
 40
0.5670103092783505
 40
0.5670103092783505
 40
0.5773195876288659
 40
0.5773195876288659
 40
0.5773195876288659
 40
0.5773195876288659
 40
0.5876288659793815
 40
0.5876288659793815
 40
0.5876288659793815
 40
0.5876288659793815
 40
0.5979381443298969
 40
0.5979381443298969
 40
0.5979381443298969
 40
0.5979381443298969
 40
0.6082474226804123
 40
0.6082474226804123
 40
0.6082474226804123
 40
0.6082474226804123
 40
0.6185567010309279
 40
0.6185567010309279
 40
0.6185567010309279
 40
0.6185567010309279
 40
0.6288659793814433
 40
0.6288659793814433
 40
0.6288659793814433
 40
0.6288659793814433
 40
0.6391752577319587
 40
0.6391752577319587
 40
0.6391752577319587
 40
0.6391752577319587
 40
0.6494845360824743
 40
0.6494845360824743
 40
0.6494845360824743
 40
0.6494845360824743
 40
0.6597938144329897
 40
0.6597938144329897
 40
0.6597938144329897
 40
0.6597938144329897
 40
0.6701030927835051
 40
0.6701030927835051
 40
0.6701030927835051
 40
0.6701030927835051
 40
0.6804123711340206
 40
0.6804123711340206
 40
0.6804123711340206
 40
0.6804123711340206
 40
0.6907216494845361
 40
0.6907216494845361
 40
0.6907216494845361
 40
0.6907216494845361
 40
0.7010309278350515
 40
0.7010309278350515
 40
0.7010309278350515
 40
0.7010309278350515
 40
0.711340206185567
 40
0.711340206185567
 40
0.711340206185567
 40
0.711340206185567
 40
0.7216494845360825
 40
0.7216494845360825
 40
0.7216494845360825
 40
0.7216494845360825
 40
0.7319587628865979
 40
0.7319587628865979
 40
0.7319587628865979
 40
0.7319587628865979
 40
0.7422680412371134
 40
0.7422680412371134
 40
0.7422680412371134
 40
0.7422680412371134
 40
0.7525773195876289
 40
0.7525773195876289
 40
0.7525773195876289
 40
0.7525773195876289
 40
0.7628865979381443
 40
0.7628865979381443
 40
0.7628865979381443
 40
0.7628865979381443
 40
0.7731958762886598
 40
0.7731958762886598
 40
0.7731958762886598
 40
0.7731958762886598
 40
0.7835051546391752
 40
0.7835051546391752
 40
0.7835051546391752
 40
0.7835051546391752
 40
0.7938144329896907
 40
0.7938144329896907
 40
0.7938144329896907
 40
0.7938144329896907
 40
0.8041237113402062
 40
0.8041237113402062
 40
0.8041237113402062
 40
0.8041237113402062
 40
0.8144329896907216
 40
0.8144329896907216
 40
0.8144329896907216
 40
0.8144329896907216
 40
0.8247422680412371
 40
0.8247422680412371
 40
0.8247422680412371
 40
0.8247422680412371
 40
0.8350515463917526
 40
0.8350515463917526
 40
0.8350515463917526
 40
0.8350515463917526
 40
0.845360824742268
 40
0.845360824742268
 40
0.845360824742268
 40
0.845360824742268
 40
0.8556701030927835
 40
0.8556701030927835
 40
0.8556701030927835
 40
0.8556701030927835
 40
0.865979381443299
 40
0.865979381443299
 40
0.865979381443299
 40
0.865979381443299
 40
0.8762886597938144
 40
0.8762886597938144
 40
0.8762886597938144
 40
0.8762886597938144
 40
0.8865979381443299
 40
0.8865979381443299
 40
0.8865979381443299
 40
0.8865979381443299
 40
0.8969072164948454
 40
0.8969072164948454
 40
0.8969072164948454
 40
0.8969072164948454
 40
0.9072164948453608
 40
0.9072164948453608
 40
0.9072164948453608
 40
0.9072164948453608
 40
0.9175257731958762
 40
0.9175257731958762
 40
0.9175257731958762
 40
0.9175257731958762
 40
0.9278350515463918
 40
0.9278350515463918
 40
0.9278350515463918
 40
0.9278350515463918
 40
0.9381443298969072
 40
0.9381443298969072
 40
0.9381443298969072
 40
0.9381443298969072
 40
0.9484536082474226
 40
0.9484536082474226
 40
0.9484536082474226
 40
0.9484536082474226
 40
0.9587628865979382
 40
0.9587628865979382
 40
0.9587628865979382
 40
0.9587628865979382
 40
0.9690721649484536
 40
0.9690721649484536
 40
0.9690721649484536
 40
0.9690721649484536
 40
0.979381443298969
 40
0.979381443298969
 40
0.979381443298969
 40
0.979381443298969
 40
1.0
 40
1.0
 40
1.0
 40
1.0
 10
183.4193
 20
-14.243
 30
0.0
 10
183.4193
 20
-14.243
 30
0.0
 10
183.3135
 20
-15.0191
 30
0.0
 10
183.3135
 20
-15.0191
 30
0.0
 10
183.3135
 20
-15.0191
 30
0.0
 10
183.3135
 20
-15.0191
 30
0.0
 10
183.1018
 20
-15.76
 30
0.0
 10
183.1018
 20
-15.76
 30
0.0
 10
183.1018
 20
-15.76
 30
0.0
 10
183.1018
 20
-15.76
 30
0.0
 10
182.7137
 20
-16.4654
 30
0.0
 10
182.7137
 20
-16.4654
 30
0.0
 10
182.7137
 20
-16.4654
 30
0.0
 10
182.7137
 20
-16.4654
 30
0.0
 10
182.2198
 20
-17.0652
 30
0.0
 10
182.2198
 20
-17.0652
 30
0.0
 10
182.2198
 20
-17.0652
 30
0.0
 10
182.2198
 20
-17.0652
 30
0.0
 10
181.6201
 20
-17.5591
 30
0.0
 10
181.6201
 20
-17.5591
 30
0.0
 10
181.6201
 20
-17.5591
 30
0.0
 10
181.6201
 20
-17.5591
 30
0.0
 10
180.9494
 20
-17.9464
 30
0.0
 10
180.9494
 20
-17.9464
 30
0.0
 10
180.9494
 20
-17.9464
 30
0.0
 10
180.9494
 20
-17.9464
 30
0.0
 10
180.1732
 20
-18.158
 30
0.0
 10
180.1732
 20
-18.158
 30
0.0
 10
180.1732
 20
-18.158
 30
0.0
 10
180.1732
 20
-18.158
 30
0.0
 10
179.3971
 20
-18.2285
 30
0.0
 10
179.3971
 20
-18.2285
 30
0.0
 10
179.3971
 20
-18.2285
 30
0.0
 10
179.3971
 20
-18.2285
 30
0.0
 10
178.4093
 20
-18.2285
 30
0.0
 10
178.4093
 20
-18.2285
 30
0.0
 10
178.4093
 20
-18.2285
 30
0.0
 10
178.4093
 20
-18.2285
 30
0.0
 10
178.4093
 20
-61.726
 30
0.0
 10
178.4093
 20
-61.726
 30
0.0
 10
178.4093
 20
-61.726
 30
0.0
 10
178.4093
 20
-61.726
 30
0.0
 10
178.374
 20
-62.1494
 30
0.0
 10
178.374
 20
-62.1494
 30
0.0
 10
178.374
 20
-62.1494
 30
0.0
 10
178.374
 20
-62.1494
 30
0.0
 10
178.2329
 20
-62.5021
 30
0.0
 10
178.2329
 20
-62.5021
 30
0.0
 10
178.2329
 20
-62.5021
 30
0.0
 10
178.2329
 20
-62.5021
 30
0.0
 10
178.0565
 20
-62.8549
 30
0.0
 10
178.0565
 20
-62.8549
 30
0.0
 10
178.0565
 20
-62.8549
 30
0.0
 10
178.0565
 20
-62.8549
 30
0.0
 10
177.8096
 20
-63.1724
 30
0.0
 10
177.8096
 20
-63.1724
 30
0.0
 10
177.8096
 20
-63.1724
 30
0.0
 10
177.8096
 20
-63.1724
 30
0.0
 10
177.5273
 20
-63.4193
 30
0.0
 10
177.5273
 20
-63.4193
 30
0.0
 10
177.5273
 20
-63.4193
 30
0.0
 10
177.5273
 20
-63.4193
 30
0.0
 10
177.1745
 20
-63.5957
 30
0.0
 10
177.1745
 20
-63.5957
 30
0.0
 10
177.1745
 20
-63.5957
 30
0.0
 10
177.1745
 20
-63.5957
 30
0.0
 10
176.7869
 20
-63.7032
 30
0.0
 10
176.7869
 20
-63.7032
 30
0.0
 10
176.7869
 20
-63.7032
 30
0.0
 10
176.7869
 20
-63.7032
 30
0.0
 10
176.3989
 20
-63.7385
 30
0.0
 10
176.3989
 20
-63.7385
 30
0.0
 10
176.3989
 20
-63.7385
 30
0.0
 10
176.3989
 20
-63.7385
 30
0.0
 10
170.4017
 20
-63.7384
 30
0.0
 10
170.4017
 20
-63.7384
 30
0.0
 10
170.4017
 20
-63.7384
 30
0.0
 10
170.4017
 20
-63.7384
 30
0.0
 10
170.0136
 20
-63.7032
 30
0.0
 10
170.0136
 20
-63.7032
 30
0.0
 10
170.0136
 20
-63.7032
 30
0.0
 10
170.0136
 20
-63.7032
 30
0.0
 10
169.6255
 20
-63.5973
 30
0.0
 10
169.6255
 20
-63.5973
 30
0.0
 10
169.6255
 20
-63.5973
 30
0.0
 10
169.6255
 20
-63.5973
 30
0.0
 10
169.308
 20
-63.421
 30
0.0
 10
169.308
 20
-63.421
 30
0.0
 10
169.308
 20
-63.421
 30
0.0
 10
169.308
 20
-63.421
 30
0.0
 10
168.9905
 20
-63.174
 30
0.0
 10
168.9905
 20
-63.174
 30
0.0
 10
168.9905
 20
-63.174
 30
0.0
 10
168.9905
 20
-63.174
 30
0.0
 10
168.7435
 20
-62.8565
 30
0.0
 10
168.7435
 20
-62.8565
 30
0.0
 10
168.7435
 20
-62.8565
 30
0.0
 10
168.7435
 20
-62.8565
 30
0.0
 10
168.5672
 20
-62.5038
 30
0.0
 10
168.5672
 20
-62.5038
 30
0.0
 10
168.5672
 20
-62.5038
 30
0.0
 10
168.5672
 20
-62.5038
 30
0.0
 10
168.426
 20
-62.151
 30
0.0
 10
168.426
 20
-62.151
 30
0.0
 10
168.426
 20
-62.151
 30
0.0
 10
168.426
 20
-62.151
 30
0.0
 10
168.3908
 20
-61.7276
 30
0.0
 10
168.3908
 20
-61.7276
 30
0.0
 10
168.3908
 20
-61.7276
 30
0.0
 10
168.3908
 20
-61.7276
 30
0.0
 10
168.3907
 20
-33.7524
 30
0.0
 10
168.3907
 20
-33.7524
 30
0.0
 10
168.3907
 20
-33.7524
 30
0.0
 10
168.3907
 20
-33.7524
 30
0.0
 10
165.3921
 20
-33.7523
 30
0.0
 10
165.3921
 20
-33.7523
 30
0.0
 10
165.3921
 20
-33.7523
 30
0.0
 10
165.3921
 20
-33.7523
 30
0.0
 10
165.3921
 20
-56.7534
 30
0.0
 10
165.3921
 20
-56.7534
 30
0.0
 10
165.3921
 20
-56.7534
 30
0.0
 10
165.3921
 20
-56.7534
 30
0.0
 10
165.3568
 20
-57.1415
 30
0.0
 10
165.3568
 20
-57.1415
 30
0.0
 10
165.3568
 20
-57.1415
 30
0.0
 10
165.3568
 20
-57.1415
 30
0.0
 10
165.251
 20
-57.4943
 30
0.0
 10
165.251
 20
-57.4943
 30
0.0
 10
165.251
 20
-57.4943
 30
0.0
 10
165.251
 20
-57.4943
 30
0.0
 10
165.0746
 20
-57.8471
 30
0.0
 10
165.0746
 20
-57.8471
 30
0.0
 10
165.0746
 20
-57.8471
 30
0.0
 10
165.0746
 20
-57.8471
 30
0.0
 10
164.8276
 20
-58.1646
 30
0.0
 10
164.8276
 20
-58.1646
 30
0.0
 10
164.8276
 20
-58.1646
 30
0.0
 10
164.8276
 20
-58.1646
 30
0.0
 10
164.5101
 20
-58.4115
 30
0.0
 10
164.5101
 20
-58.4115
 30
0.0
 10
164.5101
 20
-58.4115
 30
0.0
 10
164.5101
 20
-58.4115
 30
0.0
 10
164.1573
 20
-58.5879
 30
0.0
 10
164.1573
 20
-58.5879
 30
0.0
 10
164.1573
 20
-58.5879
 30
0.0
 10
164.1573
 20
-58.5879
 30
0.0
 10
163.8046
 20
-58.6937
 30
0.0
 10
163.8046
 20
-58.6937
 30
0.0
 10
163.8046
 20
-58.6937
 30
0.0
 10
163.8046
 20
-58.6937
 30
0.0
 10
163.4166
 20
-58.7291
 30
0.0
 10
163.4166
 20
-58.7291
 30
0.0
 10
163.4166
 20
-58.7291
 30
0.0
 10
163.4166
 20
-58.7291
 30
0.0
 10
67.4257
 20
-58.729
 30
0.0
 10
67.4257
 20
-58.729
 30
0.0
 10
67.4257
 20
-58.729
 30
0.0
 10
67.4257
 20
-58.729
 30
0.0
 10
67.0376
 20
-58.6938
 30
0.0
 10
67.0376
 20
-58.6938
 30
0.0
 10
67.0376
 20
-58.6938
 30
0.0
 10
67.0376
 20
-58.6938
 30
0.0
 10
66.6849
 20
-58.5879
 30
0.0
 10
66.6849
 20
-58.5879
 30
0.0
 10
66.6849
 20
-58.5879
 30
0.0
 10
66.6849
 20
-58.5879
 30
0.0
 10
66.3321
 20
-58.4115
 30
0.0
 10
66.3321
 20
-58.4115
 30
0.0
 10
66.3321
 20
-58.4115
 30
0.0
 10
66.3321
 20
-58.4115
 30
0.0
 10
66.0146
 20
-58.1646
 30
0.0
 10
66.0146
 20
-58.1646
 30
0.0
 10
66.0146
 20
-58.1646
 30
0.0
 10
66.0146
 20
-58.1646
 30
0.0
 10
65.7676
 20
-57.8471
 30
0.0
 10
65.7676
 20
-57.8471
 30
0.0
 10
65.7676
 20
-57.8471
 30
0.0
 10
65.7676
 20
-57.8471
 30
0.0
 10
65.5912
 20
-57.4943
 30
0.0
 10
65.5912
 20
-57.4943
 30
0.0
 10
65.5912
 20
-57.4943
 30
0.0
 10
65.5912
 20
-57.4943
 30
0.0
 10
65.4854
 20
-57.1415
 30
0.0
 10
65.4854
 20
-57.1415
 30
0.0
 10
65.4854
 20
-57.1415
 30
0.0
 10
65.4854
 20
-57.1415
 30
0.0
 10
65.4501
 20
-56.7534
 30
0.0
 10
65.4501
 20
-56.7534
 30
0.0
 10
65.4501
 20
-56.7534
 30
0.0
 10
65.4501
 20
-56.7534
 30
0.0
 10
65.4501
 20
-33.7524
 30
0.0
 10
65.4501
 20
-33.7524
 30
0.0
 10
65.4501
 20
-33.7524
 30
0.0
 10
65.4501
 20
-33.7524
 30
0.0
 10
62.4515
 20
-33.7524
 30
0.0
 10
62.4515
 20
-33.7524
 30
0.0
 10
62.4515
 20
-33.7524
 30
0.0
 10
62.4515
 20
-33.7524
 30
0.0
 10
62.4515
 20
-61.7276
 30
0.0
 10
62.4515
 20
-61.7276
 30
0.0
 10
62.4515
 20
-61.7276
 30
0.0
 10
62.4515
 20
-61.7276
 30
0.0
 10
62.4162
 20
-62.151
 30
0.0
 10
62.4162
 20
-62.151
 30
0.0
 10
62.4162
 20
-62.151
 30
0.0
 10
62.4162
 20
-62.151
 30
0.0
 10
62.2751
 20
-62.5038
 30
0.0
 10
62.2751
 20
-62.5038
 30
0.0
 10
62.2751
 20
-62.5038
 30
0.0
 10
62.2751
 20
-62.5038
 30
0.0
 10
62.0987
 20
-62.8565
 30
0.0
 10
62.0987
 20
-62.8565
 30
0.0
 10
62.0987
 20
-62.8565
 30
0.0
 10
62.0987
 20
-62.8565
 30
0.0
 10
61.8518
 20
-63.174
 30
0.0
 10
61.8518
 20
-63.174
 30
0.0
 10
61.8518
 20
-63.174
 30
0.0
 10
61.8518
 20
-63.174
 30
0.0
 10
61.5343
 20
-63.421
 30
0.0
 10
61.5343
 20
-63.421
 30
0.0
 10
61.5343
 20
-63.421
 30
0.0
 10
61.5343
 20
-63.421
 30
0.0
 10
61.2168
 20
-63.5974
 30
0.0
 10
61.2168
 20
-63.5974
 30
0.0
 10
61.2168
 20
-63.5974
 30
0.0
 10
61.2168
 20
-63.5974
 30
0.0
 10
60.8292
 20
-63.7049
 30
0.0
 10
60.8292
 20
-63.7049
 30
0.0
 10
60.8292
 20
-63.7049
 30
0.0
 10
60.8292
 20
-63.7049
 30
0.0
 10
60.4411
 20
-63.7401
 30
0.0
 10
60.4411
 20
-63.7401
 30
0.0
 10
60.4411
 20
-63.7401
 30
0.0
 10
60.4411
 20
-63.7401
 30
0.0
 10
54.4439
 20
-63.7402
 30
0.0
 10
54.4439
 20
-63.7402
 30
0.0
 10
54.4439
 20
-63.7402
 30
0.0
 10
54.4439
 20
-63.7402
 30
0.0
 10
54.0558
 20
-63.7049
 30
0.0
 10
54.0558
 20
-63.7049
 30
0.0
 10
54.0558
 20
-63.7049
 30
0.0
 10
54.0558
 20
-63.7049
 30
0.0
 10
53.6678
 20
-63.5991
 30
0.0
 10
53.6678
 20
-63.5991
 30
0.0
 10
53.6678
 20
-63.5991
 30
0.0
 10
53.6678
 20
-63.5991
 30
0.0
 10
53.315
 20
-63.4227
 30
0.0
 10
53.315
 20
-63.4227
 30
0.0
 10
53.315
 20
-63.4227
 30
0.0
 10
53.315
 20
-63.4227
 30
0.0
 10
53.0328
 20
-63.1757
 30
0.0
 10
53.0328
 20
-63.1757
 30
0.0
 10
53.0328
 20
-63.1757
 30
0.0
 10
53.0328
 20
-63.1757
 30
0.0
 10
52.7858
 20
-62.8582
 30
0.0
 10
52.7858
 20
-62.8582
 30
0.0
 10
52.7858
 20
-62.8582
 30
0.0
 10
52.7858
 20
-62.8582
 30
0.0
 10
52.5742
 20
-62.5055
 30
0.0
 10
52.5742
 20
-62.5055
 30
0.0
 10
52.5742
 20
-62.5055
 30
0.0
 10
52.5742
 20
-62.5055
 30
0.0
 10
52.4684
 20
-62.1527
 30
0.0
 10
52.4684
 20
-62.1527
 30
0.0
 10
52.4684
 20
-62.1527
 30
0.0
 10
52.4684
 20
-62.1527
 30
0.0
 10
52.4331
 20
-61.7293
 30
0.0
 10
52.4331
 20
-61.7293
 30
0.0
 10
52.4331
 20
-61.7293
 30
0.0
 10
52.4331
 20
-61.7293
 30
0.0
 10
52.4331
 20
-13.7516
 30
0.0
 10
52.4331
 20
-13.7516
 30
0.0
 10
52.4331
 20
-13.7516
 30
0.0
 10
52.4331
 20
-13.7516
 30
0.0
 10
52.5389
 20
-12.7638
 30
0.0
 10
52.5389
 20
-12.7638
 30
0.0
 10
52.5389
 20
-12.7638
 30
0.0
 10
52.5389
 20
-12.7638
 30
0.0
 10
52.8211
 20
-11.8466
 30
0.0
 10
52.8211
 20
-11.8466
 30
0.0
 10
52.8211
 20
-11.8466
 30
0.0
 10
52.8211
 20
-11.8466
 30
0.0
 10
53.2797
 20
-10.9646
 30
0.0
 10
53.2797
 20
-10.9646
 30
0.0
 10
53.2797
 20
-10.9646
 30
0.0
 10
53.2797
 20
-10.9646
 30
0.0
 10
53.9147
 20
-10.2238
 30
0.0
 10
53.9147
 20
-10.2238
 30
0.0
 10
53.9147
 20
-10.2238
 30
0.0
 10
53.9147
 20
-10.2238
 30
0.0
 10
54.6556
 20
-9.5888
 30
0.0
 10
54.6556
 20
-9.5888
 30
0.0
 10
54.6556
 20
-9.5888
 30
0.0
 10
54.6556
 20
-9.5888
 30
0.0
 10
55.5375
 20
-9.1302
 30
0.0
 10
55.5375
 20
-9.1302
 30
0.0
 10
55.5375
 20
-9.1302
 30
0.0
 10
55.5375
 20
-9.1302
 30
0.0
 10
56.4547
 20
-8.848
 30
0.0
 10
56.4547
 20
-8.848
 30
0.0
 10
56.4547
 20
-8.848
 30
0.0
 10
56.4547
 20
-8.848
 30
0.0
 10
57.4425
 20
-8.7421
 30
0.0
 10
57.4425
 20
-8.7421
 30
0.0
 10
57.4425
 20
-8.7421
 30
0.0
 10
57.4425
 20
-8.7421
 30
0.0
 10
164.4048
 20
-8.7421
 30
0.0
 10
164.4048
 20
-8.7421
 30
0.0
 10
164.4048
 20
-8.7421
 30
0.0
 10
164.4048
 20
-8.7421
 30
0.0
 10
164.4048
 20
-5.2496
 30
0.0
 10
164.4048
 20
-5.2496
 30
0.0
 10
164.4048
 20
-5.2496
 30
0.0
 10
164.4048
 20
-5.2496
 30
0.0
 10
164.5106
 20
-4.2618
 30
0.0
 10
164.5106
 20
-4.2618
 30
0.0
 10
164.5106
 20
-4.2618
 30
0.0
 10
164.5106
 20
-4.2618
 30
0.0
 10
164.7929
 20
-3.3446
 30
0.0
 10
164.7929
 20
-3.3446
 30
0.0
 10
164.7929
 20
-3.3446
 30
0.0
 10
164.7929
 20
-3.3446
 30
0.0
 10
165.2515
 20
-2.4627
 30
0.0
 10
165.2515
 20
-2.4627
 30
0.0
 10
165.2515
 20
-2.4627
 30
0.0
 10
165.2515
 20
-2.4627
 30
0.0
 10
165.8512
 20
-1.7219
 30
0.0
 10
165.8512
 20
-1.7219
 30
0.0
 10
165.8512
 20
-1.7219
 30
0.0
 10
165.8512
 20
-1.7219
 30
0.0
 10
166.6274
 20
-1.0869
 30
0.0
 10
166.6274
 20
-1.0869
 30
0.0
 10
166.6274
 20
-1.0869
 30
0.0
 10
166.6274
 20
-1.0869
 30
0.0
 10
167.474
 20
-0.6282
 30
0.0
 10
167.474
 20
-0.6282
 30
0.0
 10
167.474
 20
-0.6282
 30
0.0
 10
167.474
 20
-0.6282
 30
0.0
 10
168.4264
 20
-0.3459
 30
0.0
 10
168.4264
 20
-0.3459
 30
0.0
 10
168.4264
 20
-0.3459
 30
0.0
 10
168.4264
 20
-0.3459
 30
0.0
 10
169.4143
 20
-0.2402
 30
0.0
 10
169.4143
 20
-0.2402
 30
0.0
 10
169.4143
 20
-0.2402
 30
0.0
 10
169.4143
 20
-0.2402
 30
0.0
 10
178.4101
 20
-0.2401
 30
0.0
 10
178.4101
 20
-0.2401
 30
0.0
 10
178.4101
 20
-0.2401
 30
0.0
 10
178.4101
 20
-0.2401
 30
0.0
 10
179.3625
 20
-0.346
 30
0.0
 10
179.3625
 20
-0.346
 30
0.0
 10
179.3625
 20
-0.346
 30
0.0
 10
179.3625
 20
-0.346
 30
0.0
 10
180.3151
 20
-0.6282
 30
0.0
 10
180.3151
 20
-0.6282
 30
0.0
 10
180.3151
 20
-0.6282
 30
0.0
 10
180.3151
 20
-0.6282
 30
0.0
 10
181.197
 20
-1.0868
 30
0.0
 10
181.197
 20
-1.0868
 30
0.0
 10
181.197
 20
-1.0868
 30
0.0
 10
181.197
 20
-1.0868
 30
0.0
 10
181.9378
 20
-1.7218
 30
0.0
 10
181.9378
 20
-1.7218
 30
0.0
 10
181.9378
 20
-1.7218
 30
0.0
 10
181.9378
 20
-1.7218
 30
0.0
 10
182.5729
 20
-2.4627
 30
0.0
 10
182.5729
 20
-2.4627
 30
0.0
 10
182.5729
 20
-2.4627
 30
0.0
 10
182.5729
 20
-2.4627
 30
0.0
 10
183.0315
 20
-3.3446
 30
0.0
 10
183.0315
 20
-3.3446
 30
0.0
 10
183.0315
 20
-3.3446
 30
0.0
 10
183.0315
 20
-3.3446
 30
0.0
 10
183.3137
 20
-4.2618
 30
0.0
 10
183.3137
 20
-4.2618
 30
0.0
 10
183.3137
 20
-4.2618
 30
0.0
 10
183.3137
 20
-4.2618
 30
0.0
 10
183.4195
 20
-5.2496
 30
0.0
 10
183.4195
 20
-5.2496
 30
0.0
 10
183.4195
 20
-5.2496
 30
0.0
 10
183.4195
 20
-5.2496
 30
0.0
 10
183.4193
 20
-14.243
 30
0.0
 10
183.4193
 20
-14.243
 30
0.0
  0
SPLINE
  5
7B
330
1F
100
AcDbEntity
  8
layer 1
370
     9
100
AcDbSpline
210
0.0
220
0.0
230
1.0
 70
    11
 71
     3
 72
    36
 73
    32
 74
     0
 42
0.000000001
 43
0.0000000001
 40
0.0
 40
0.0
 40
0.0
 40
0.0
 40
0.1111111111111111
 40
0.1111111111111111
 40
0.1111111111111111
 40
0.1111111111111111
 40
0.2222222222222222
 40
0.2222222222222222
 40
0.2222222222222222
 40
0.2222222222222222
 40
0.3333333333333333
 40
0.3333333333333333
 40
0.3333333333333333
 40
0.3333333333333333
 40
0.4444444444444444
 40
0.4444444444444444
 40
0.4444444444444444
 40
0.4444444444444444
 40
0.5555555555555556
 40
0.5555555555555556
 40
0.5555555555555556
 40
0.5555555555555556
 40
0.6666666666666666
 40
0.6666666666666666
 40
0.6666666666666666
 40
0.6666666666666666
 40
0.7777777777777778
 40
0.7777777777777778
 40
0.7777777777777778
 40
0.7777777777777778
 40
1.0
 40
1.0
 40
1.0
 40
1.0
 10
-18.9316
 20
33.9646
 30
0.0
 10
-18.9316
 20
33.9646
 30
0.0
 10
29.6459
 20
33.9646
 30
0.0
 10
29.6459
 20
33.9646
 30
0.0
 10
29.6459
 20
33.9646
 30
0.0
 10
29.6459
 20
33.9646
 30
0.0
 10
29.6459
 20
13.9621
 30
0.0
 10
29.6459
 20
13.9621
 30
0.0
 10
29.6459
 20
13.9621
 30
0.0
 10
29.6459
 20
13.9621
 30
0.0
 10
32.4681
 20
13.9621
 30
0.0
 10
32.4681
 20
13.9621
 30
0.0
 10
32.4681
 20
13.9621
 30
0.0
 10
32.4681
 20
13.9621
 30
0.0
 10
32.4681
 20
33.9646
 30
0.0
 10
32.4681
 20
33.9646
 30
0.0
 10
32.4681
 20
33.9646
 30
0.0
 10
32.4681
 20
33.9646
 30
0.0
 10
81.0456
 20
33.9646
 30
0.0
 10
81.0456
 20
33.9646
 30
0.0
 10
81.0456
 20
33.9646
 30
0.0
 10
81.0456
 20
33.9646
 30
0.0
 10
81.0456
 20
-6.0404
 30
0.0
 10
81.0456
 20
-6.0404
 30
0.0
 10
81.0456
 20
-6.0404
 30
0.0
 10
81.0456
 20
-6.0404
 30
0.0
 10
-18.9316
 20
-6.0404
 30
0.0
 10
-18.9316
 20
-6.0404
 30
0.0
 10
-18.9316
 20
-6.0404
 30
0.0
 10
-18.9316
 20
-6.0404
 30
0.0
 10
-18.9316
 20
33.9646
 30
0.0
 10
-18.9316
 20
33.9646
 30
0.0
  0
SPLINE
  5
7C
330
1F
100
AcDbEntity
  8
layer 1
370
     9
100
AcDbSpline
210
0.0
220
0.0
230
1.0
 70
    11
 71
     3
 72
    68
 73
    64
 74
     0
 42
0.000000001
 43
0.0000000001
 40
0.0
 40
0.0
 40
0.0
 40
0.0
 40
0.0588235294117647
 40
0.0588235294117647
 40
0.0588235294117647
 40
0.0588235294117647
 40
0.1176470588235294
 40
0.1176470588235294
 40
0.1176470588235294
 40
0.1176470588235294
 40
0.1764705882352941
 40
0.1764705882352941
 40
0.1764705882352941
 40
0.1764705882352941
 40
0.2352941176470588
 40
0.2352941176470588
 40
0.2352941176470588
 40
0.2352941176470588
 40
0.2941176470588235
 40
0.2941176470588235
 40
0.2941176470588235
 40
0.2941176470588235
 40
0.3529411764705883
 40
0.3529411764705883
 40
0.3529411764705883
 40
0.3529411764705883
 40
0.4117647058823529
 40
0.4117647058823529
 40
0.4117647058823529
 40
0.4117647058823529
 40
0.4705882352941176
 40
0.4705882352941176
 40
0.4705882352941176
 40
0.4705882352941176
 40
0.5294117647058824
 40
0.5294117647058824
 40
0.5294117647058824
 40
0.5294117647058824
 40
0.5882352941176471
 40
0.5882352941176471
 40
0.5882352941176471
 40
0.5882352941176471
 40
0.6470588235294118
 40
0.6470588235294118
 40
0.6470588235294118
 40
0.6470588235294118
 40
0.7058823529411765
 40
0.7058823529411765
 40
0.7058823529411765
 40
0.7058823529411765
 40
0.7647058823529411
 40
0.7647058823529411
 40
0.7647058823529411
 40
0.7647058823529411
 40
0.8235294117647058
 40
0.8235294117647058
 40
0.8235294117647058
 40
0.8235294117647058
 40
0.8823529411764706
 40
0.8823529411764706
 40
0.8823529411764706
 40
0.8823529411764706
 40
1.0
 40
1.0
 40
1.0
 40
1.0
 10
-76.1909
 20
-17.0277
 30
0.0
 10
-76.1909
 20
-17.0277
 30
0.0
 10
-76.1909
 20
2.9748
 30
0.0
 10
-76.1909
 20
2.9748
 30
0.0
 10
-76.1909
 20
2.9748
 30
0.0
 10
-76.1909
 20
2.9748
 30
0.0
 10
-79.0131
 20
2.9748
 30
0.0
 10
-79.0131
 20
2.9748
 30
0.0
 10
-79.0131
 20
2.9748
 30
0.0
 10
-79.0131
 20
2.9748
 30
0.0
 10
-79.0131
 20
-17.0277
 30
0.0
 10
-79.0131
 20
-17.0277
 30
0.0
 10
-79.0131
 20
-17.0277
 30
0.0
 10
-79.0131
 20
-17.0277
 30
0.0
 10
-103.3195
 20
-17.0277
 30
0.0
 10
-103.3195
 20
-17.0277
 30
0.0
 10
-103.3195
 20
-17.0277
 30
0.0
 10
-103.3195
 20
-17.0277
 30
0.0
 10
-103.3195
 20
2.9748
 30
0.0
 10
-103.3195
 20
2.9748
 30
0.0
 10
-103.3195
 20
2.9748
 30
0.0
 10
-103.3195
 20
2.9748
 30
0.0
 10
-106.1417
 20
2.9748
 30
0.0
 10
-106.1417
 20
2.9748
 30
0.0
 10
-106.1417
 20
2.9748
 30
0.0
 10
-106.1417
 20
2.9748
 30
0.0
 10
-106.1417
 20
-17.0277
 30
0.0
 10
-106.1417
 20
-17.0277
 30
0.0
 10
-106.1417
 20
-17.0277
 30
0.0
 10
-106.1417
 20
-17.0277
 30
0.0
 10
-130.4834
 20
-17.0277
 30
0.0
 10
-130.4834
 20
-17.0277
 30
0.0
 10
-130.4834
 20
-17.0277
 30
0.0
 10
-130.4834
 20
-17.0277
 30
0.0
 10
-130.4834
 20
2.9748
 30
0.0
 10
-130.4834
 20
2.9748
 30
0.0
 10
-130.4834
 20
2.9748
 30
0.0
 10
-130.4834
 20
2.9748
 30
0.0
 10
-133.2704
 20
2.9748
 30
0.0
 10
-133.2704
 20
2.9748
 30
0.0
 10
-133.2704
 20
2.9748
 30
0.0
 10
-133.2704
 20
2.9748
 30
0.0
 10
-133.2704
 20
-17.0277
 30
0.0
 10
-133.2704
 20
-17.0277
 30
0.0
 10
-133.2704
 20
-17.0277
 30
0.0
 10
-133.2704
 20
-17.0277
 30
0.0
 10
-184.7406
 20
-17.0277
 30
0.0
 10
-184.7406
 20
-17.0277
 30
0.0
 10
-184.7406
 20
-17.0277
 30
0.0
 10
-184.7406
 20
-17.0277
 30
0.0
 10
-184.7406
 20
22.9773
 30
0.0
 10
-184.7406
 20
22.9773
 30
0.0
 10
-184.7406
 20
22.9773
 30
0.0
 10
-184.7406
 20
22.9773
 30
0.0
 10
-24.7206
 20
22.9773
 30
0.0
 10
-24.7206
 20
22.9773
 30
0.0
 10
-24.7206
 20
22.9773
 30
0.0
 10
-24.7206
 20
22.9773
 30
0.0
 10
-24.7206
 20
-17.0277
 30
0.0
 10
-24.7206
 20
-17.0277
 30
0.0
 10
-24.7206
 20
-17.0277
 30
0.0
 10
-24.7206
 20
-17.0277
 30
0.0
 10
-76.1909
 20
-17.0277
 30
0.0
 10
-76.1909
 20
-17.0277
 30
0.0
  0
SPLINE
  5
7D
330
1F
100
AcDbEntity
  8
layer 1
370
     9
100
AcDbSpline
210
0.0
220
0.0
230
1.0
 70
    11
 71
     3
 72
   212
 73
   208
 74
     0
 42
0.000000001
 43
0.0000000001
 40
0.0
 40
0.0
 40
0.0
 40
0.0
 40
0.0188679245283019
 40
0.0188679245283019
 40
0.0188679245283019
 40
0.0188679245283019
 40
0.0377358490566038
 40
0.0377358490566038
 40
0.0377358490566038
 40
0.0377358490566038
 40
0.0566037735849057
 40
0.0566037735849057
 40
0.0566037735849057
 40
0.0566037735849057
 40
0.0754716981132075
 40
0.0754716981132075
 40
0.0754716981132075
 40
0.0754716981132075
 40
0.0943396226415094
 40
0.0943396226415094
 40
0.0943396226415094
 40
0.0943396226415094
 40
0.1132075471698113
 40
0.1132075471698113
 40
0.1132075471698113
 40
0.1132075471698113
 40
0.1320754716981132
 40
0.1320754716981132
 40
0.1320754716981132
 40
0.1320754716981132
 40
0.1509433962264151
 40
0.1509433962264151
 40
0.1509433962264151
 40
0.1509433962264151
 40
0.169811320754717
 40
0.169811320754717
 40
0.169811320754717
 40
0.169811320754717
 40
0.1886792452830189
 40
0.1886792452830189
 40
0.1886792452830189
 40
0.1886792452830189
 40
0.2075471698113208
 40
0.2075471698113208
 40
0.2075471698113208
 40
0.2075471698113208
 40
0.2264150943396226
 40
0.2264150943396226
 40
0.2264150943396226
 40
0.2264150943396226
 40
0.2452830188679245
 40
0.2452830188679245
 40
0.2452830188679245
 40
0.2452830188679245
 40
0.2641509433962264
 40
0.2641509433962264
 40
0.2641509433962264
 40
0.2641509433962264
 40
0.2830188679245283
 40
0.2830188679245283
 40
0.2830188679245283
 40
0.2830188679245283
 40
0.3018867924528302
 40
0.3018867924528302
 40
0.3018867924528302
 40
0.3018867924528302
 40
0.3207547169811321
 40
0.3207547169811321
 40
0.3207547169811321
 40
0.3207547169811321
 40
0.3396226415094339
 40
0.3396226415094339
 40
0.3396226415094339
 40
0.3396226415094339
 40
0.3584905660377358
 40
0.3584905660377358
 40
0.3584905660377358
 40
0.3584905660377358
 40
0.3773584905660378
 40
0.3773584905660378
 40
0.3773584905660378
 40
0.3773584905660378
 40
0.3962264150943396
 40
0.3962264150943396
 40
0.3962264150943396
 40
0.3962264150943396
 40
0.4150943396226415
 40
0.4150943396226415
 40
0.4150943396226415
 40
0.4150943396226415
 40
0.4339622641509434
 40
0.4339622641509434
 40
0.4339622641509434
 40
0.4339622641509434
 40
0.4528301886792453
 40
0.4528301886792453
 40
0.4528301886792453
 40
0.4528301886792453
 40
0.4716981132075472
 40
0.4716981132075472
 40
0.4716981132075472
 40
0.4716981132075472
 40
0.4905660377358491
 40
0.4905660377358491
 40
0.4905660377358491
 40
0.4905660377358491
 40
0.5094339622641509
 40
0.5094339622641509
 40
0.5094339622641509
 40
0.5094339622641509
 40
0.5283018867924528
 40
0.5283018867924528
 40
0.5283018867924528
 40
0.5283018867924528
 40
0.5471698113207547
 40
0.5471698113207547
 40
0.5471698113207547
 40
0.5471698113207547
 40
0.5660377358490566
 40
0.5660377358490566
 40
0.5660377358490566
 40
0.5660377358490566
 40
0.5849056603773585
 40
0.5849056603773585
 40
0.5849056603773585
 40
0.5849056603773585
 40
0.6037735849056604
 40
0.6037735849056604
 40
0.6037735849056604
 40
0.6037735849056604
 40
0.6226415094339622
 40
0.6226415094339622
 40
0.6226415094339622
 40
0.6226415094339622
 40
0.6415094339622641
 40
0.6415094339622641
 40
0.6415094339622641
 40
0.6415094339622641
 40
0.660377358490566
 40
0.660377358490566
 40
0.660377358490566
 40
0.660377358490566
 40
0.6792452830188679
 40
0.6792452830188679
 40
0.6792452830188679
 40
0.6792452830188679
 40
0.6981132075471698
 40
0.6981132075471698
 40
0.6981132075471698
 40
0.6981132075471698
 40
0.7169811320754716
 40
0.7169811320754716
 40
0.7169811320754716
 40
0.7169811320754716
 40
0.7358490566037735
 40
0.7358490566037735
 40
0.7358490566037735
 40
0.7358490566037735
 40
0.7547169811320755
 40
0.7547169811320755
 40
0.7547169811320755
 40
0.7547169811320755
 40
0.7735849056603774
 40
0.7735849056603774
 40
0.7735849056603774
 40
0.7735849056603774
 40
0.7924528301886793
 40
0.7924528301886793
 40
0.7924528301886793
 40
0.7924528301886793
 40
0.8113207547169812
 40
0.8113207547169812
 40
0.8113207547169812
 40
0.8113207547169812
 40
0.8301886792452831
 40
0.8301886792452831
 40
0.8301886792452831
 40
0.8301886792452831
 40
0.8490566037735849
 40
0.8490566037735849
 40
0.8490566037735849
 40
0.8490566037735849
 40
0.8679245283018868
 40
0.8679245283018868
 40
0.8679245283018868
 40
0.8679245283018868
 40
0.8867924528301887
 40
0.8867924528301887
 40
0.8867924528301887
 40
0.8867924528301887
 40
0.9056603773584906
 40
0.9056603773584906
 40
0.9056603773584906
 40
0.9056603773584906
 40
0.9245283018867925
 40
0.9245283018867925
 40
0.9245283018867925
 40
0.9245283018867925
 40
0.9433962264150944
 40
0.9433962264150944
 40
0.9433962264150944
 40
0.9433962264150944
 40
0.9622641509433962
 40
0.9622641509433962
 40
0.9622641509433962
 40
0.9622641509433962
 40
1.0
 40
1.0
 40
1.0
 40
1.0
 10
-15.8015
 20
108.6748
 30
0.0
 10
-15.8015
 20
108.6748
 30
0.0
 10
-15.7662
 20
108.7453
 30
0.0
 10
-15.7662
 20
108.7453
 30
0.0
 10
-15.7662
 20
108.7453
 30
0.0
 10
-15.7662
 20
108.7453
 30
0.0
 10
-15.731
 20
108.8512
 30
0.0
 10
-15.731
 20
108.8512
 30
0.0
 10
-15.731
 20
108.8512
 30
0.0
 10
-15.731
 20
108.8512
 30
0.0
 10
-15.6604
 20
108.9217
 30
0.0
 10
-15.6604
 20
108.9217
 30
0.0
 10
-15.6604
 20
108.9217
 30
0.0
 10
-15.6604
 20
108.9217
 30
0.0
 10
-15.5899
 20
108.9923
 30
0.0
 10
-15.5899
 20
108.9923
 30
0.0
 10
-15.5899
 20
108.9923
 30
0.0
 10
-15.5899
 20
108.9923
 30
0.0
 10
-15.5193
 20
109.0276
 30
0.0
 10
-15.5193
 20
109.0276
 30
0.0
 10
-15.5193
 20
109.0276
 30
0.0
 10
-15.5193
 20
109.0276
 30
0.0
 10
-15.4135
 20
109.0628
 30
0.0
 10
-15.4135
 20
109.0628
 30
0.0
 10
-15.4135
 20
109.0628
 30
0.0
 10
-15.4135
 20
109.0628
 30
0.0
 10
-15.3076
 20
109.0628
 30
0.0
 10
-15.3076
 20
109.0628
 30
0.0
 10
-15.3076
 20
109.0628
 30
0.0
 10
-15.3076
 20
109.0628
 30
0.0
 10
-14.8137
 20
109.0628
 30
0.0
 10
-14.8137
 20
109.0628
 30
0.0
 10
-14.8137
 20
109.0628
 30
0.0
 10
-14.8137
 20
109.0628
 30
0.0
 10
-14.8137
 20
139.049
 30
0.0
 10
-14.8137
 20
139.049
 30
0.0
 10
-14.8137
 20
139.049
 30
0.0
 10
-14.8137
 20
139.049
 30
0.0
 10
35.1749
 20
139.049
 30
0.0
 10
35.1749
 20
139.049
 30
0.0
 10
35.1749
 20
139.049
 30
0.0
 10
35.1749
 20
139.049
 30
0.0
 10
35.1749
 20
142.0476
 30
0.0
 10
35.1749
 20
142.0476
 30
0.0
 10
35.1749
 20
142.0476
 30
0.0
 10
35.1749
 20
142.0476
 30
0.0
 10
95.1824
 20
142.0476
 30
0.0
 10
95.1824
 20
142.0476
 30
0.0
 10
95.1824
 20
142.0476
 30
0.0
 10
95.1824
 20
142.0476
 30
0.0
 10
95.1824
 20
139.049
 30
0.0
 10
95.1824
 20
139.049
 30
0.0
 10
95.1824
 20
139.049
 30
0.0
 10
95.1824
 20
139.049
 30
0.0
 10
145.171
 20
139.049
 30
0.0
 10
145.171
 20
139.049
 30
0.0
 10
145.171
 20
139.049
 30
0.0
 10
145.171
 20
139.049
 30
0.0
 10
145.171
 20
109.0628
 30
0.0
 10
145.171
 20
109.0628
 30
0.0
 10
145.171
 20
109.0628
 30
0.0
 10
145.171
 20
109.0628
 30
0.0
 10
145.7002
 20
109.0628
 30
0.0
 10
145.7002
 20
109.0628
 30
0.0
 10
145.7002
 20
109.0628
 30
0.0
 10
145.7002
 20
109.0628
 30
0.0
 10
145.7707
 20
109.0628
 30
0.0
 10
145.7707
 20
109.0628
 30
0.0
 10
145.7707
 20
109.0628
 30
0.0
 10
145.7707
 20
109.0628
 30
0.0
 10
145.8765
 20
109.0276
 30
0.0
 10
145.8765
 20
109.0276
 30
0.0
 10
145.8765
 20
109.0276
 30
0.0
 10
145.8765
 20
109.0276
 30
0.0
 10
145.9471
 20
108.9923
 30
0.0
 10
145.9471
 20
108.9923
 30
0.0
 10
145.9471
 20
108.9923
 30
0.0
 10
145.9471
 20
108.9923
 30
0.0
 10
146.0529
 20
108.9217
 30
0.0
 10
146.0529
 20
108.9217
 30
0.0
 10
146.0529
 20
108.9217
 30
0.0
 10
146.0529
 20
108.9217
 30
0.0
 10
146.0882
 20
108.8512
 30
0.0
 10
146.0882
 20
108.8512
 30
0.0
 10
146.0882
 20
108.8512
 30
0.0
 10
146.0882
 20
108.8512
 30
0.0
 10
146.1588
 20
108.7453
 30
0.0
 10
146.1588
 20
108.7453
 30
0.0
 10
146.1588
 20
108.7453
 30
0.0
 10
146.1588
 20
108.7453
 30
0.0
 10
146.194
 20
108.6748
 30
0.0
 10
146.194
 20
108.6748
 30
0.0
 10
146.194
 20
108.6748
 30
0.0
 10
146.194
 20
108.6748
 30
0.0
 10
146.194
 20
108.5689
 30
0.0
 10
146.194
 20
108.5689
 30
0.0
 10
146.194
 20
108.5689
 30
0.0
 10
146.194
 20
108.5689
 30
0.0
 10
146.194
 20
69.5517
 30
0.0
 10
146.194
 20
69.5517
 30
0.0
 10
146.194
 20
69.5517
 30
0.0
 10
146.194
 20
69.5517
 30
0.0
 10
146.194
 20
69.4812
 30
0.0
 10
146.194
 20
69.4812
 30
0.0
 10
146.194
 20
69.4812
 30
0.0
 10
146.194
 20
69.4812
 30
0.0
 10
146.1588
 20
69.3753
 30
0.0
 10
146.1588
 20
69.3753
 30
0.0
 10
146.1588
 20
69.3753
 30
0.0
 10
146.1588
 20
69.3753
 30
0.0
 10
146.0882
 20
69.2695
 30
0.0
 10
146.0882
 20
69.2695
 30
0.0
 10
146.0882
 20
69.2695
 30
0.0
 10
146.0882
 20
69.2695
 30
0.0
 10
146.0529
 20
69.1989
 30
0.0
 10
146.0529
 20
69.1989
 30
0.0
 10
146.0529
 20
69.1989
 30
0.0
 10
146.0529
 20
69.1989
 30
0.0
 10
145.9471
 20
69.1637
 30
0.0
 10
145.9471
 20
69.1637
 30
0.0
 10
145.9471
 20
69.1637
 30
0.0
 10
145.9471
 20
69.1637
 30
0.0
 10
145.8765
 20
69.0931
 30
0.0
 10
145.8765
 20
69.0931
 30
0.0
 10
145.8765
 20
69.0931
 30
0.0
 10
145.8765
 20
69.0931
 30
0.0
 10
145.7707
 20
69.0578
 30
0.0
 10
145.7707
 20
69.0578
 30
0.0
 10
145.7707
 20
69.0578
 30
0.0
 10
145.7707
 20
69.0578
 30
0.0
 10
145.7002
 20
69.0578
 30
0.0
 10
145.7002
 20
69.0578
 30
0.0
 10
145.7002
 20
69.0578
 30
0.0
 10
145.7002
 20
69.0578
 30
0.0
 10
145.171
 20
69.0578
 30
0.0
 10
145.171
 20
69.0578
 30
0.0
 10
145.171
 20
69.0578
 30
0.0
 10
145.171
 20
69.0578
 30
0.0
 10
145.171
 20
39.0717
 30
0.0
 10
145.171
 20
39.0717
 30
0.0
 10
145.171
 20
39.0717
 30
0.0
 10
145.171
 20
39.0717
 30
0.0
 10
95.1824
 20
39.0717
 30
0.0
 10
95.1824
 20
39.0717
 30
0.0
 10
95.1824
 20
39.0717
 30
0.0
 10
95.1824
 20
39.0717
 30
0.0
 10
95.1824
 20
36.0731
 30
0.0
 10
95.1824
 20
36.0731
 30
0.0
 10
95.1824
 20
36.0731
 30
0.0
 10
95.1824
 20
36.0731
 30
0.0
 10
35.1749
 20
36.0731
 30
0.0
 10
35.1749
 20
36.0731
 30
0.0
 10
35.1749
 20
36.0731
 30
0.0
 10
35.1749
 20
36.0731
 30
0.0
 10
35.1749
 20
39.0717
 30
0.0
 10
35.1749
 20
39.0717
 30
0.0
 10
35.1749
 20
39.0717
 30
0.0
 10
35.1749
 20
39.0717
 30
0.0
 10
-14.8137
 20
39.0717
 30
0.0
 10
-14.8137
 20
39.0717
 30
0.0
 10
-14.8137
 20
39.0717
 30
0.0
 10
-14.8137
 20
39.0717
 30
0.0
 10
-14.8137
 20
69.0578
 30
0.0
 10
-14.8137
 20
69.0578
 30
0.0
 10
-14.8137
 20
69.0578
 30
0.0
 10
-14.8137
 20
69.0578
 30
0.0
 10
-15.3076
 20
69.0578
 30
0.0
 10
-15.3076
 20
69.0578
 30
0.0
 10
-15.3076
 20
69.0578
 30
0.0
 10
-15.3076
 20
69.0578
 30
0.0
 10
-15.4135
 20
69.0578
 30
0.0
 10
-15.4135
 20
69.0578
 30
0.0
 10
-15.4135
 20
69.0578
 30
0.0
 10
-15.4135
 20
69.0578
 30
0.0
 10
-15.5193
 20
69.0931
 30
0.0
 10
-15.5193
 20
69.0931
 30
0.0
 10
-15.5193
 20
69.0931
 30
0.0
 10
-15.5193
 20
69.0931
 30
0.0
 10
-15.5899
 20
69.1637
 30
0.0
 10
-15.5899
 20
69.1637
 30
0.0
 10
-15.5899
 20
69.1637
 30
0.0
 10
-15.5899
 20
69.1637
 30
0.0
 10
-15.6604
 20
69.1989
 30
0.0
 10
-15.6604
 20
69.1989
 30
0.0
 10
-15.6604
 20
69.1989
 30
0.0
 10
-15.6604
 20
69.1989
 30
0.0
 10
-15.731
 20
69.2695
 30
0.0
 10
-15.731
 20
69.2695
 30
0.0
 10
-15.731
 20
69.2695
 30
0.0
 10
-15.731
 20
69.2695
 30
0.0
 10
-15.7662
 20
69.3753
 30
0.0
 10
-15.7662
 20
69.3753
 30
0.0
 10
-15.7662
 20
69.3753
 30
0.0
 10
-15.7662
 20
69.3753
 30
0.0
 10
-15.8015
 20
69.4812
 30
0.0
 10
-15.8015
 20
69.4812
 30
0.0
 10
-15.8015
 20
69.4812
 30
0.0
 10
-15.8015
 20
69.4812
 30
0.0
 10
-15.8015
 20
69.5517
 30
0.0
 10
-15.8015
 20
69.5517
 30
0.0
 10
-15.8015
 20
69.5517
 30
0.0
 10
-15.8015
 20
69.5517
 30
0.0
 10
-15.8015
 20
108.5689
 30
0.0
 10
-15.8015
 20
108.5689
 30
0.0
 10
-15.8015
 20
108.5689
 30
0.0
 10
-15.8015
 20
108.5689
 30
0.0
 10
-15.8015
 20
108.6748
 30
0.0
 10
-15.8015
 20
108.6748
 30
0.0
  0
SPLINE
  5
7E
330
1F
100
AcDbEntity
  8
layer 1
370
     9
100
AcDbSpline
210
0.0
220
0.0
230
1.0
 70
    11
 71
     3
 72
    36
 73
    32
 74
     0
 42
0.000000001
 43
0.0000000001
 40
0.0
 40
0.0
 40
0.0
 40
0.0
 40
0.1111111111111111
 40
0.1111111111111111
 40
0.1111111111111111
 40
0.1111111111111111
 40
0.2222222222222222
 40
0.2222222222222222
 40
0.2222222222222222
 40
0.2222222222222222
 40
0.3333333333333333
 40
0.3333333333333333
 40
0.3333333333333333
 40
0.3333333333333333
 40
0.4444444444444444
 40
0.4444444444444444
 40
0.4444444444444444
 40
0.4444444444444444
 40
0.5555555555555556
 40
0.5555555555555556
 40
0.5555555555555556
 40
0.5555555555555556
 40
0.6666666666666666
 40
0.6666666666666666
 40
0.6666666666666666
 40
0.6666666666666666
 40
0.7777777777777778
 40
0.7777777777777778
 40
0.7777777777777778
 40
0.7777777777777778
 40
1.0
 40
1.0
 40
1.0
 40
1.0
 10
-182.0208
 20
-20.7866
 30
0.0
 10
-182.0208
 20
-20.7866
 30
0.0
 10
-133.4433
 20
-20.7866
 30
0.0
 10
-133.4433
 20
-20.7866
 30
0.0
 10
-133.4433
 20
-20.7866
 30
0.0
 10
-133.4433
 20
-20.7866
 30
0.0
 10
-133.4433
 20
-40.7891
 30
0.0
 10
-133.4433
 20
-40.7891
 30
0.0
 10
-133.4433
 20
-40.7891
 30
0.0
 10
-133.4433
 20
-40.7891
 30
0.0
 10
-130.621
 20
-40.7891
 30
0.0
 10
-130.621
 20
-40.7891
 30
0.0
 10
-130.621
 20
-40.7891
 30
0.0
 10
-130.621
 20
-40.7891
 30
0.0
 10
-130.621
 20
-20.7866
 30
0.0
 10
-130.621
 20
-20.7866
 30
0.0
 10
-130.621
 20
-20.7866
 30
0.0
 10
-130.621
 20
-20.7866
 30
0.0
 10
-82.0435
 20
-20.7866
 30
0.0
 10
-82.0435
 20
-20.7866
 30
0.0
 10
-82.0435
 20
-20.7866
 30
0.0
 10
-82.0435
 20
-20.7866
 30
0.0
 10
-82.0435
 20
-60.7916
 30
0.0
 10
-82.0435
 20
-60.7916
 30
0.0
 10
-82.0435
 20
-60.7916
 30
0.0
 10
-82.0435
 20
-60.7916
 30
0.0
 10
-182.0208
 20
-60.7916
 30
0.0
 10
-182.0208
 20
-60.7916
 30
0.0
 10
-182.0208
 20
-60.7916
 30
0.0
 10
-182.0208
 20
-60.7916
 30
0.0
 10
-182.0208
 20
-20.7866
 30
0.0
 10
-182.0208
 20
-20.7866
 30
0.0
  0
ENDSEC
  0
SECTION
  2
OBJECTS
  0
DICTIONARY
  5
C
330
0
100
AcDbDictionary
281
     1
  3
ACAD_DETAILVIEWSTYLE
350
BA
  3
ACAD_GROUP
350
D
  3
ACAD_LAYOUT
350
1A
  3
ACAD_MATERIAL
350
43
  3
ACAD_MLEADERSTYLE
350
6B
  3
ACAD_MLINESTYLE
350
17
  3
ACAD_PLOTSETTINGS
350
19
  3
ACAD_PLOTSTYLENAME
350
E
  3
ACAD_SCALELIST
350
47
  3
ACAD_SECTIONVIEWSTYLE
350
BB
  3
ACAD_TABLESTYLE
350
69
  3
ACAD_VISUALSTYLE
350
2A
  3
ACDB_RECOMPOSE_DATA
350
B7
  3
AcDbVariableDictionary
350
7F
  0
SUN
  5
6D
330
29
100
AcDbSun
 90
        1
290
     0
 63
     7
421
 16777215
 40
1.0
291
     1
 91
  2455826
 92
 54000000
292
     0
 70
     2
 71
   256
280
     1
  0
DICTIONARY
  5
BA
102
{ACAD_REACTORS
330
C
102
}
330
C
100
AcDbDictionary
281
     1
  0
DICTIONARY
  5
D
102
{ACAD_REACTORS
330
C
102
}
330
C
100
AcDbDictionary
281
     1
  0
DICTIONARY
  5
1A
102
{ACAD_REACTORS
330
C
102
}
330
C
100
AcDbDictionary
281
     1
  3
Layout1
350
1E
  3
Layout2
350
26
  3
Model
350
22
  0
DICTIONARY
  5
43
102
{ACAD_REACTORS
330
C
102
}
330
C
100
AcDbDictionary
281
     1
  3
ByBlock
350
45
  3
ByLayer
350
44
  3
Global
350
46
  0
DICTIONARY
  5
6B
102
{ACAD_REACTORS
330
C
102
}
330
C
100
AcDbDictionary
281
     1
  3
Standard
350
6C
  0
DICTIONARY
  5
17
102
{ACAD_REACTORS
330
C
102
}
330
C
100
AcDbDictionary
281
     1
  3
Standard
350
18
  0
DICTIONARY
  5
19
102
{ACAD_REACTORS
330
C
102
}
330
C
100
AcDbDictionary
281
     1
  0
ACDBDICTIONARYWDFLT
  5
E
102
{ACAD_REACTORS
330
C
102
}
330
C
100
AcDbDictionary
281
     1
  3
Normal
350
F
100
AcDbDictionaryWithDefault
340
F
  0
DICTIONARY
  5
47
102
{ACAD_REACTORS
330
C
102
}
330
C
100
AcDbDictionary
281
     1
  3
A0
350
48
  3
A1
350
49
  3
A2
350
4A
  3
A3
350
4B
  3
A4
350
4C
  3
A5
350
4D
  3
A6
350
4E
  3
A7
350
4F
  3
A8
350
50
  3
A9
350
51
  3
B0
350
52
  3
B1
350
53
  3
B2
350
54
  3
B3
350
55
  3
B4
350
56
  3
B5
350
57
  3
B6
350
58
  3
B7
350
59
  3
B8
350
5A
  3
B9
350
5B
  3
C0
350
5C
  3
C1
350
5D
  3
C2
350
5E
  3
C3
350
5F
  3
C4
350
60
  3
C5
350
61
  3
C6
350
62
  3
C7
350
63
  3
C8
350
64
  3
C9
350
65
  3
D0
350
66
  3
D1
350
67
  3
D2
350
68
  0
DICTIONARY
  5
BB
102
{ACAD_REACTORS
330
C
102
}
330
C
100
AcDbDictionary
281
     1
  0
DICTIONARY
  5
69
102
{ACAD_REACTORS
330
C
102
}
330
C
100
AcDbDictionary
281
     1
  3
Standard
350
6A
  0
DICTIONARY
  5
2A
102
{ACAD_REACTORS
330
C
102
}
330
C
100
AcDbDictionary
281
     1
  3
2dWireframe
350
2F
  3
Basic
350
32
  3
Brighten
350
36
  3
ColorChange
350
3A
  3
Conceptual
350
34
  3
Dim
350
35
  3
EdgeColorOff
350
3D
  3
Facepattern
350
39
  3
Flat
350
2B
  3
FlatWithEdges
350
2C
  3
Gouraud
350
2D
  3
GouraudWithEdges
350
2E
  3
Hidden
350
31
  3
JitterOff
350
3B
  3
Linepattern
350
38
  3
OverhangOff
350
3C
  3
Realistic
350
33
  3
Shaded
350
42
  3
Shaded with edges
350
41
  3
Shades of Gray
350
3E
  3
Sketchy
350
3F
  3
Thicken
350
37
  3
Wireframe
350
30
  3
X-Ray
350
40
  0
XRECORD
  5
B7
102
{ACAD_REACTORS
330
C
102
}
330
C
100
AcDbXrecord
280
     1
 90
        1
330
6A
  0
DICTIONARY
  5
7F
102
{ACAD_REACTORS
330
C
102
}
330
C
100
AcDbDictionary
281
     1
  3
CANNOSCALE
350
80
  3
CMLEADERSTYLE
350
B9
  3
CTABLESTYLE
350
B8
  3
XCLIPFRAME
350
81
  0
LAYOUT
  5
1E
102
{ACAD_REACTORS
330
1A
102
}
330
1A
100
AcDbPlotSettings
  1

  2
none_device
  4

  6

 40
0.0
 41
0.0
 42
0.0
 43
0.0
 44
0.0
 45
0.0
 46
0.0
 47
0.0
 48
0.0
 49
0.0
140
0.0
141
0.0
142
1.0
143
1.0
 70
   688
 72
     0
 73
     0
 74
     5
  7

 75
    16
 76
     0
 77
     2
 78
   300
147
1.0
148
0.0
149
0.0
100
AcDbLayout
  1
Layout1
 70
     1
 71
     1
 10
0.0
 20
0.0
 11
12.0
 21
9.0
 12
0.0
 22
0.0
 32
0.0
 14
1.000000000000000E+20
 24
1.000000000000000E+20
 34
1.000000000000000E+20
 15
-1.000000000000000E+20
 25
-1.000000000000000E+20
 35
-1.000000000000000E+20
146
0.0
 13
0.0
 23
0.0
 33
0.0
 16
1.0
 26
0.0
 36
0.0
 17
0.0
 27
1.0
 37
0.0
 76
     0
330
1B
  0
LAYOUT
  5
26
102
{ACAD_REACTORS
330
1A
102
}
330
1A
100
AcDbPlotSettings
  1

  2
none_device
  4

  6

 40
0.0
 41
0.0
 42
0.0
 43
0.0
 44
0.0
 45
0.0
 46
0.0
 47
0.0
 48
0.0
 49
0.0
140
0.0
141
0.0
142
1.0
143
1.0
 70
   688
 72
     0
 73
     0
 74
     5
  7

 75
    16
 76
     0
 77
     2
 78
   300
147
1.0
148
0.0
149
0.0
100
AcDbLayout
  1
Layout2
 70
     1
 71
     2
 10
0.0
 20
0.0
 11
0.0
 21
0.0
 12
0.0
 22
0.0
 32
0.0
 14
0.0
 24
0.0
 34
0.0
 15
0.0
 25
0.0
 35
0.0
146
0.0
 13
0.0
 23
0.0
 33
0.0
 16
1.0
 26
0.0
 36
0.0
 17
0.0
 27
1.0
 37
0.0
 76
     0
330
23
  0
LAYOUT
  5
22
102
{ACAD_REACTORS
330
1A
102
}
330
1A
100
AcDbPlotSettings
  1

  2
none_device
  4
Letter_(8.50_x_11.00_Inches)
  6

 40
6.35
 41
6.35
 42
6.35000508
 43
6.35000508
 44
215.9
 45
279.4
 46
0.0
 47
0.0
 48
0.0
 49
0.0
140
0.0
141
0.0
142
1.0
143
1.0
 70
  1712
 72
     0
 73
     0
 74
     0
  7

 75
     0
 76
     0
 77
     2
 78
   300
147
1.0
148
0.0
149
0.0
100
AcDbLayout
  1
Model
 70
     1
 71
     0
 10
0.0
 20
0.0
 11
12.0
 21
9.0
 12
0.0
 22
0.0
 32
0.0
 14
-184.7787
 24
-130.5909
 34
0.0
 15
190.3128
 25
143.0848
 35
0.0
146
0.0
 13
0.0
 23
0.0
 33
0.0
 16
1.0
 26
0.0
 36
0.0
 17
0.0
 27
1.0
 37
0.0
 76
     0
330
1F
331
29
  0
MATERIAL
  5
45
102
{ACAD_REACTORS
330
43
102
}
330
43
100
AcDbMaterial
  1
ByBlock
 72
     1
 94
      127
  0
MATERIAL
  5
44
102
{ACAD_REACTORS
330
43
102
}
330
43
100
AcDbMaterial
  1
ByLayer
 72
     1
 94
      127
  0
MATERIAL
  5
46
102
{ACAD_REACTORS
330
43
102
}
330
43
100
AcDbMaterial
  1
Global
 72
     1
 94
      127
  0
MLEADERSTYLE
  5
6C
102
{ACAD_REACTORS
330
6B
102
}
102
{ACAD_XDICTIONARY
360
B5
102
}
330
6B
100
AcDbMLeaderStyle
170
     2
171
     1
172
     0
 90
        2
 40
0.0
 41
0.0
173
     1
 91
-1056964608
340
14
 92
       -2
290
     1
 42
0.09
291
     1
 43
0.36
  3
Standard
341
0
 44
0.18
300

342
11
174
     1
178
     6
175
     1
176
     0
 93
-1056964608
 45
0.18
292
     0
297
     0
 46
0.18
343
0
 94
-1056964608
 47
1.0
 49
1.0
140
1.0
293
     1
141
0.0
294
     1
177
     0
142
1.0
295
     0
296
     0
143
0.125
1001
ACAD_MLEADERVER
1070
     2
  0
MLINESTYLE
  5
18
102
{ACAD_REACTORS
330
17
102
}
330
17
100
AcDbMlineStyle
  2
Standard
 70
     0
  3

 62
   256
 51
90.0
 52
90.0
 71
     2
 49
0.5
 62
   256
  6
BYLAYER
 49
-0.5
 62
   256
  6
BYLAYER
  0
ACDBPLACEHOLDER
  5
F
102
{ACAD_REACTORS
330
E
102
}
330
E
  0
SCALE
  5
48
102
{ACAD_REACTORS
330
47
102
}
330
47
100
AcDbScale
 70
     0
300
1:1
140
1.0
141
1.0
290
     1
  0
SCALE
  5
49
102
{ACAD_REACTORS
330
47
102
}
330
47
100
AcDbScale
 70
     0
300
1:2
140
1.0
141
2.0
290
     0
  0
SCALE
  5
4A
102
{ACAD_REACTORS
330
47
102
}
330
47
100
AcDbScale
 70
     0
300
1:4
140
1.0
141
4.0
290
     0
  0
SCALE
  5
4B
102
{ACAD_REACTORS
330
47
102
}
330
47
100
AcDbScale
 70
     0
300
1:5
140
1.0
141
5.0
290
     0
  0
SCALE
  5
4C
102
{ACAD_REACTORS
330
47
102
}
330
47
100
AcDbScale
 70
     0
300
1:8
140
1.0
141
8.0
290
     0
  0
SCALE
  5
4D
102
{ACAD_REACTORS
330
47
102
}
330
47
100
AcDbScale
 70
     0
300
1:10
140
1.0
141
10.0
290
     0
  0
SCALE
  5
4E
102
{ACAD_REACTORS
330
47
102
}
330
47
100
AcDbScale
 70
     0
300
1:16
140
1.0
141
16.0
290
     0
  0
SCALE
  5
4F
102
{ACAD_REACTORS
330
47
102
}
330
47
100
AcDbScale
 70
     0
300
1:20
140
1.0
141
20.0
290
     0
  0
SCALE
  5
50
102
{ACAD_REACTORS
330
47
102
}
330
47
100
AcDbScale
 70
     0
300
1:30
140
1.0
141
30.0
290
     0
  0
SCALE
  5
51
102
{ACAD_REACTORS
330
47
102
}
330
47
100
AcDbScale
 70
     0
300
1:40
140
1.0
141
40.0
290
     0
  0
SCALE
  5
52
102
{ACAD_REACTORS
330
47
102
}
330
47
100
AcDbScale
 70
     0
300
1:50
140
1.0
141
50.0
290
     0
  0
SCALE
  5
53
102
{ACAD_REACTORS
330
47
102
}
330
47
100
AcDbScale
 70
     0
300
1:100
140
1.0
141
100.0
290
     0
  0
SCALE
  5
54
102
{ACAD_REACTORS
330
47
102
}
330
47
100
AcDbScale
 70
     0
300
2:1
140
2.0
141
1.0
290
     0
  0
SCALE
  5
55
102
{ACAD_REACTORS
330
47
102
}
330
47
100
AcDbScale
 70
     0
300
4:1
140
4.0
141
1.0
290
     0
  0
SCALE
  5
56
102
{ACAD_REACTORS
330
47
102
}
330
47
100
AcDbScale
 70
     0
300
8:1
140
8.0
141
1.0
290
     0
  0
SCALE
  5
57
102
{ACAD_REACTORS
330
47
102
}
330
47
100
AcDbScale
 70
     0
300
10:1
140
10.0
141
1.0
290
     0
  0
SCALE
  5
58
102
{ACAD_REACTORS
330
47
102
}
330
47
100
AcDbScale
 70
     0
300
100:1
140
100.0
141
1.0
290
     0
  0
SCALE
  5
59
102
{ACAD_REACTORS
330
47
102
}
330
47
100
AcDbScale
 70
     0
300
1/128" = 1'-0"
140
0.0078125
141
12.0
290
     0
  0
SCALE
  5
5A
102
{ACAD_REACTORS
330
47
102
}
330
47
100
AcDbScale
 70
     0
300
1/64" = 1'-0"
140
0.015625
141
12.0
290
     0
  0
SCALE
  5
5B
102
{ACAD_REACTORS
330
47
102
}
330
47
100
AcDbScale
 70
     0
300
1/32" = 1'-0"
140
0.03125
141
12.0
290
     0
  0
SCALE
  5
5C
102
{ACAD_REACTORS
330
47
102
}
330
47
100
AcDbScale
 70
     0
300
1/16" = 1'-0"
140
0.0625
141
12.0
290
     0
  0
SCALE
  5
5D
102
{ACAD_REACTORS
330
47
102
}
330
47
100
AcDbScale
 70
     0
300
3/32" = 1'-0"
140
0.09375
141
12.0
290
     0
  0
SCALE
  5
5E
102
{ACAD_REACTORS
330
47
102
}
330
47
100
AcDbScale
 70
     0
300
1/8" = 1'-0"
140
0.125
141
12.0
290
     0
  0
SCALE
  5
5F
102
{ACAD_REACTORS
330
47
102
}
330
47
100
AcDbScale
 70
     0
300
3/16" = 1'-0"
140
0.1875
141
12.0
290
     0
  0
SCALE
  5
60
102
{ACAD_REACTORS
330
47
102
}
330
47
100
AcDbScale
 70
     0
300
1/4" = 1'-0"
140
0.25
141
12.0
290
     0
  0
SCALE
  5
61
102
{ACAD_REACTORS
330
47
102
}
330
47
100
AcDbScale
 70
     0
300
3/8" = 1'-0"
140
0.375
141
12.0
290
     0
  0
SCALE
  5
62
102
{ACAD_REACTORS
330
47
102
}
330
47
100
AcDbScale
 70
     0
300
1/2" = 1'-0"
140
0.5
141
12.0
290
     0
  0
SCALE
  5
63
102
{ACAD_REACTORS
330
47
102
}
330
47
100
AcDbScale
 70
     0
300
3/4" = 1'-0"
140
0.75
141
12.0
290
     0
  0
SCALE
  5
64
102
{ACAD_REACTORS
330
47
102
}
330
47
100
AcDbScale
 70
     0
300
1" = 1'-0"
140
1.0
141
12.0
290
     0
  0
SCALE
  5
65
102
{ACAD_REACTORS
330
47
102
}
330
47
100
AcDbScale
 70
     0
300
1-1/2" = 1'-0"
140
1.5
141
12.0
290
     0
  0
SCALE
  5
66
102
{ACAD_REACTORS
330
47
102
}
330
47
100
AcDbScale
 70
     0
300
3" = 1'-0"
140
3.0
141
12.0
290
     0
  0
SCALE
  5
67
102
{ACAD_REACTORS
330
47
102
}
330
47
100
AcDbScale
 70
     0
300
6" = 1'-0"
140
6.0
141
12.0
290
     0
  0
SCALE
  5
68
102
{ACAD_REACTORS
330
47
102
}
330
47
100
AcDbScale
 70
     0
300
1'-0" = 1'-0"
140
12.0
141
12.0
290
     0
  0
TABLESTYLE
  5
6A
102
{ACAD_REACTORS
330
69
102
}
102
{ACAD_XDICTIONARY
360
B2
102
}
330
69
100
AcDbTableStyle
  3
Standard
 70
     0
 71
     0
 40
0.06
 41
0.06
280
     0
281
     0
  7
Standard
140
0.18
170
     2
 62
     0
 63
   257
283
     0
 90
        4
 91
        0
  1

274
    -2
284
     1
 64
     0
275
    -2
285
     1
 65
     0
276
    -2
286
     1
 66
     0
277
    -2
287
     1
 67
     0
278
    -2
288
     1
 68
     0
279
    -2
289
     1
 69
     0
  7
Standard
140
0.25
170
     5
 62
     0
 63
   257
283
     0
 90
        4
 91
        0
  1

274
    -2
284
     1
 64
     0
275
    -2
285
     1
 65
     0
276
    -2
286
     1
 66
     0
277
    -2
287
     1
 67
     0
278
    -2
288
     1
 68
     0
279
    -2
289
     1
 69
     0
  7
Standard
140
0.18
170
     5
 62
     0
 63
   257
283
     0
 90
        4
 91
        0
  1

274
    -2
284
     1
 64
     0
275
    -2
285
     1
 65
     0
276
    -2
286
     1
 66
     0
277
    -2
287
     1
 67
     0
278
    -2
288
     1
 68
     0
279
    -2
289
     1
 69
     0
  0
VISUALSTYLE
  5
2F
102
{ACAD_REACTORS
330
2A
102
}
102
{ACAD_XDICTIONARY
360
8A
102
}
330
2A
100
AcDbVisualStyle
  2
2dWireframe
 70
     4
 71
     0
 72
     2
 73
     0
 90
        0
 40
0.6
 41
30.0
 62
     5
 63
     7
421
 16777215
 74
     1
 91
        4
 64
     7
 65
   257
 75
     1
175
     1
 42
1.0
 92
        0
 66
   257
 43
1.0
 76
     1
 77
     6
 78
     2
 67
     7
 79
     5
170
     0
171
     0
290
     0
174
     0
 93
        1
 44
0.0
173
     0
291
     0
 45
0.0
  0
VISUALSTYLE
  5
32
102
{ACAD_REACTORS
330
2A
102
}
102
{ACAD_XDICTIONARY
360
90
102
}
330
2A
100
AcDbVisualStyle
  2
Basic
 70
     7
 71
     1
 72
     0
 73
     1
 90
        0
 40
0.6
 41
30.0
 62
     5
 63
     7
421
 16777215
 74
     0
 91
        4
 64
     7
 65
   257
 75
     1
175
     1
 42
1.0
 92
        8
 66
     7
 43
1.0
 76
     1
 77
     6
 78
     2
 67
     7
 79
     5
170
     0
171
     0
290
     0
174
     0
 93
        1
 44
0.0
173
     0
291
     1
 45
0.0
  0
VISUALSTYLE
  5
36
102
{ACAD_REACTORS
330
2A
102
}
102
{ACAD_XDICTIONARY
360
98
102
}
330
2A
100
AcDbVisualStyle
  2
Brighten
 70
    12
 71
     2
 72
     2
 73
     0
 90
        0
 40
0.6
 41
30.0
 62
     5
 63
     7
421
 16777215
 74
     1
 91
        4
 64
     7
 65
   257
 75
     1
175
     1
 42
1.0
 92
        8
 66
     7
 43
1.0
 76
     1
 77
     6
 78
     2
 67
     7
 79
     5
170
     0
171
     0
290
     0
174
     0
 93
        1
 44
50.0
173
     0
291
     1
 45
0.0
  0
VISUALSTYLE
  5
3A
102
{ACAD_REACTORS
330
2A
102
}
102
{ACAD_XDICTIONARY
360
A0
102
}
330
2A
100
AcDbVisualStyle
  2
ColorChange
 70
    16
 71
     2
 72
     2
 73
     3
 90
        0
 40
0.6
 41
30.0
 62
     5
 63
     8
421
  8421504
 74
     1
 91
        4
 64
     7
 65
   257
 75
     1
175
     1
 42
1.0
 92
        8
 66
     8
424
  8421504
 43
1.0
 76
     1
 77
     6
 78
     2
 67
     7
 79
     5
170
     0
171
     0
290
     0
174
     0
 93
        1
 44
0.0
173
     0
291
     1
 45
0.0
  0
VISUALSTYLE
  5
34
102
{ACAD_REACTORS
330
2A
102
}
102
{ACAD_XDICTIONARY
360
94
102
}
330
2A
100
AcDbVisualStyle
  2
Conceptual
 70
     9
 71
     3
 72
     2
 73
     0
 90
        0
 40
0.6
 41
30.0
 62
     5
 63
     7
421
 16777215
 74
     2
 91
        2
 64
     7
 65
   257
 75
     1
175
     1
 42
179.0
 92
        8
 66
     7
 43
1.0
 76
     1
 77
     6
 78
     2
 67
     7
 79
     3
170
     0
171
     0
290
     0
174
     0
 93
        1
 44
0.0
173
     0
291
     0
 45
0.0
  0
VISUALSTYLE
  5
35
102
{ACAD_REACTORS
330
2A
102
}
102
{ACAD_XDICTIONARY
360
96
102
}
330
2A
100
AcDbVisualStyle
  2
Dim
 70
    11
 71
     2
 72
     2
 73
     0
 90
        0
 40
0.6
 41
30.0
 62
     5
 63
     7
421
 16777215
 74
     1
 91
        4
 64
     7
 65
   257
 75
     1
175
     1
 42
1.0
 92
        8
 66
     7
 43
1.0
 76
     1
 77
     6
 78
     2
 67
     7
 79
     5
170
     0
171
     0
290
     0
174
     0
 93
        1
 44
-50.0
173
     0
291
     1
 45
0.0
  0
VISUALSTYLE
  5
3D
102
{ACAD_REACTORS
330
2A
102
}
102
{ACAD_XDICTIONARY
360
A6
102
}
330
2A
100
AcDbVisualStyle
  2
EdgeColorOff
 70
    22
 71
     2
 72
     2
 73
     0
 90
        0
 40
0.6
 41
30.0
 62
     5
 63
     7
421
 16777215
 74
     1
 91
        4
 64
     7
 65
   257
 75
     1
175
     1
 42
1.0
 92
        8
 66
     7
 43
1.0
 76
     1
 77
     6
 78
     2
 67
     7
 79
     5
170
     0
171
     0
290
     0
174
     0
 93
        1
 44
0.0
173
     0
291
     1
 45
0.0
  0
VISUALSTYLE
  5
39
102
{ACAD_REACTORS
330
2A
102
}
102
{ACAD_XDICTIONARY
360
9E
102
}
330
2A
100
AcDbVisualStyle
  2
Facepattern
 70
    15
 71
     2
 72
     2
 73
     0
 90
        0
 40
0.6
 41
30.0
 62
     5
 63
     7
421
 16777215
 74
     1
 91
        4
 64
     7
 65
   257
 75
     1
175
     1
 42
1.0
 92
        8
 66
     7
 43
1.0
 76
     1
 77
     6
 78
     2
 67
     7
 79
     5
170
     0
171
     0
290
     0
174
     0
 93
        1
 44
0.0
173
     0
291
     1
 45
0.0
  0
VISUALSTYLE
  5
2B
102
{ACAD_REACTORS
330
2A
102
}
102
{ACAD_XDICTIONARY
360
82
102
}
330
2A
100
AcDbVisualStyle
  2
Flat
 70
     0
 71
     2
 72
     1
 73
     1
 90
        2
 40
0.6
 41
30.0
 62
     5
 63
     7
421
 16777215
 74
     0
 91
        0
 64
     7
 65
   257
 75
     1
175
     1
 42
1.0
 92
        8
 66
     7
 43
1.0
 76
     1
 77
     6
 78
     2
 67
     7
 79
     5
170
     0
171
     0
290
     0
174
     0
 93
       13
 44
0.0
173
     0
291
     1
 45
0.0
  0
VISUALSTYLE
  5
2C
102
{ACAD_REACTORS
330
2A
102
}
102
{ACAD_XDICTIONARY
360
84
102
}
330
2A
100
AcDbVisualStyle
  2
FlatWithEdges
 70
     1
 71
     2
 72
     1
 73
     1
 90
        2
 40
0.6
 41
30.0
 62
     5
 63
     7
421
 16777215
 74
     1
 91
        0
 64
     7
 65
   257
 75
     1
175
     1
 42
1.0
 92
        0
 66
   257
 43
1.0
 76
     1
 77
     6
 78
     2
 67
     7
 79
     5
170
     0
171
     0
290
     0
174
     0
 93
       13
 44
0.0
173
     0
291
     1
 45
0.0
  0
VISUALSTYLE
  5
2D
102
{ACAD_REACTORS
330
2A
102
}
102
{ACAD_XDICTIONARY
360
86
102
}
330
2A
100
AcDbVisualStyle
  2
Gouraud
 70
     2
 71
     2
 72
     2
 73
     1
 90
        2
 40
0.6
 41
30.0
 62
     5
 63
     7
421
 16777215
 74
     0
 91
        0
 64
     7
 65
   257
 75
     1
175
     1
 42
1.0
 92
        0
 66
     7
 43
1.0
 76
     1
 77
     6
 78
     2
 67
     7
 79
     5
170
     0
171
     0
290
     0
174
     0
 93
       13
 44
0.0
173
     0
291
     1
 45
0.0
  0
VISUALSTYLE
  5
2E
102
{ACAD_REACTORS
330
2A
102
}
102
{ACAD_XDICTIONARY
360
88
102
}
330
2A
100
AcDbVisualStyle
  2
GouraudWithEdges
 70
     3
 71
     2
 72
     2
 73
     1
 90
        2
 40
0.6
 41
30.0
 62
     5
 63
     7
421
 16777215
 74
     1
 91
        0
 64
     7
 65
   257
 75
     1
175
     1
 42
1.0
 92
        0
 66
   257
 43
1.0
 76
     1
 77
     6
 78
     2
 67
     7
 79
     5
170
     0
171
     0
290
     0
174
     0
 93
       13
 44
0.0
173
     0
291
     1
 45
0.0
  0
VISUALSTYLE
  5
31
102
{ACAD_REACTORS
330
2A
102
}
102
{ACAD_XDICTIONARY
360
8E
102
}
330
2A
100
AcDbVisualStyle
  2
Hidden
 70
     6
 71
     1
 72
     2
 73
     2
 90
        0
 40
0.6
 41
30.0
 62
     5
 63
     7
421
 16777215
 74
     2
 91
        2
 64
     7
 65
   257
 75
     2
175
     1
 42
40.0
 92
        0
 66
   257
 43
1.0
 76
     1
 77
     6
 78
     2
 67
     7
 79
     3
170
     0
171
     0
290
     0
174
     0
 93
        1
 44
0.0
173
     0
291
     0
 45
0.0
  0
VISUALSTYLE
  5
3B
102
{ACAD_REACTORS
330
2A
102
}
102
{ACAD_XDICTIONARY
360
A2
102
}
330
2A
100
AcDbVisualStyle
  2
JitterOff
 70
    20
 71
     2
 72
     2
 73
     0
 90
        0
 40
0.6
 41
30.0
 62
     5
 63
     7
421
 16777215
 74
     1
 91
        4
 64
     7
 65
   257
 75
     1
175
     1
 42
1.0
 92
       10
 66
     7
 43
1.0
 76
     1
 77
     6
 78
     2
 67
     7
 79
     5
170
     0
171
     0
290
     0
174
     0
 93
        1
 44
0.0
173
     0
291
     1
 45
0.0
  0
VISUALSTYLE
  5
38
102
{ACAD_REACTORS
330
2A
102
}
102
{ACAD_XDICTIONARY
360
9C
102
}
330
2A
100
AcDbVisualStyle
  2
Linepattern
 70
    14
 71
     2
 72
     2
 73
     0
 90
        0
 40
0.6
 41
30.0
 62
     5
 63
     7
421
 16777215
 74
     1
 91
        4
 64
     7
 65
   257
 75
     7
175
     7
 42
1.0
 92
        8
 66
     7
 43
1.0
 76
     1
 77
     6
 78
     2
 67
     7
 79
     5
170
     0
171
     0
290
     0
174
     0
 93
        1
 44
0.0
173
     0
291
     1
 45
0.0
  0
VISUALSTYLE
  5
3C
102
{ACAD_REACTORS
330
2A
102
}
102
{ACAD_XDICTIONARY
360
A4
102
}
330
2A
100
AcDbVisualStyle
  2
OverhangOff
 70
    21
 71
     2
 72
     2
 73
     0
 90
        0
 40
0.6
 41
30.0
 62
     5
 63
     7
421
 16777215
 74
     1
 91
        4
 64
     7
 65
   257
 75
     1
175
     1
 42
1.0
 92
        9
 66
     7
 43
1.0
 76
     1
 77
     6
 78
     2
 67
     7
 79
     5
170
     0
171
     0
290
     0
174
     0
 93
        1
 44
0.0
173
     0
291
     1
 45
0.0
  0
VISUALSTYLE
  5
33
102
{ACAD_REACTORS
330
2A
102
}
102
{ACAD_XDICTIONARY
360
92
102
}
330
2A
100
AcDbVisualStyle
  2
Realistic
 70
     8
 71
     2
 72
     3
 73
     0
 90
        2
 40
0.6
 41
30.0
 62
     5
 63
     7
421
 16777215
 74
     0
 91
        0
 64
     7
 65
   257
 75
     1
175
     1
 42
1.0
 92
        8
 66
   257
 43
1.0
 76
     1
 77
     6
 78
     2
 67
     7
 79
     3
170
     0
171
     0
290
     0
174
     0
 93
       13
 44
0.0
173
     0
291
     0
 45
0.0
  0
VISUALSTYLE
  5
42
102
{ACAD_REACTORS
330
2A
102
}
102
{ACAD_XDICTIONARY
360
B0
102
}
330
2A
100
AcDbVisualStyle
  2
Shaded
 70
    27
 71
     2
 72
     2
 73
     1
 90
        2
 40
0.6
 41
30.0
 62
     5
 63
     7
421
 16777215
 74
     0
 91
        4
 64
     7
 65
   257
 75
     1
175
     1
 42
1.0
 92
        8
 66
   257
 43
1.0
 76
     1
 77
     6
 78
     2
 67
     8
425
  7895160
 79
     3
170
     0
171
     0
290
     0
174
     0
 93
        5
 44
0.0
173
     0
291
     0
 45
0.0
  0
VISUALSTYLE
  5
41
102
{ACAD_REACTORS
330
2A
102
}
102
{ACAD_XDICTIONARY
360
AE
102
}
330
2A
100
AcDbVisualStyle
  2
Shaded with edges
 70
    26
 71
     2
 72
     2
 73
     1
 90
        2
 40
0.6
 41
30.0
 62
     5
 63
     7
421
 16777215
 74
     1
 91
       10
 64
     7
 65
   257
 75
     2
175
     1
 42
1.0
 92
        8
 66
   257
 43
1.0
 76
     1
 77
     6
 78
     2
 67
     7
 79
     3
170
     0
171
     0
290
     0
174
     0
 93
        5
 44
0.0
173
     0
291
     0
 45
0.0
  0
VISUALSTYLE
  5
3E
102
{ACAD_REACTORS
330
2A
102
}
102
{ACAD_XDICTIONARY
360
A8
102
}
330
2A
100
AcDbVisualStyle
  2
Shades of Gray
 70
    23
 71
     2
 72
     2
 73
     3
 90
        0
 40
0.6
 41
30.0
 62
     5
 63
     7
421
 16777215
 74
     2
 91
        2
 64
     7
 65
     7
 75
     1
175
     1
 42
40.0
 92
        8
 66
     7
 43
1.0
 76
     1
 77
     6
 78
     2
 67
     7
 79
     3
170
     0
171
     0
290
     0
174
     0
 93
        1
 44
0.0
173
     0
291
     0
 45
0.0
  0
VISUALSTYLE
  5
3F
102
{ACAD_REACTORS
330
2A
102
}
102
{ACAD_XDICTIONARY
360
AA
102
}
330
2A
100
AcDbVisualStyle
  2
Sketchy
 70
    24
 71
     1
 72
     2
 73
     2
 90
        0
 40
0.6
 41
30.0
 62
     5
 63
     7
421
 16777215
 74
     2
 91
        2
 64
     7
 65
     7
 75
     1
175
     1
 42
40.0
 92
       11
 66
     7
 43
1.0
 76
     1
 77
     6
 78
     2
 67
     7
 79
     6
170
     0
171
     0
290
     0
174
     0
 93
        1
 44
0.0
173
     0
291
     0
 45
0.0
  0
VISUALSTYLE
  5
37
102
{ACAD_REACTORS
330
2A
102
}
102
{ACAD_XDICTIONARY
360
9A
102
}
330
2A
100
AcDbVisualStyle
  2
Thicken
 70
    13
 71
     2
 72
     2
 73
     0
 90
        0
 40
0.6
 41
30.0
 62
     5
 63
     7
421
 16777215
 74
     1
 91
        4
 64
     7
 65
   257
 75
     1
175
     1
 42
1.0
 92
       12
 66
     7
 43
1.0
 76
     1
 77
     6
 78
     2
 67
     7
 79
     5
170
     0
171
     0
290
     0
174
     0
 93
        1
 44
0.0
173
     0
291
     1
 45
0.0
  0
VISUALSTYLE
  5
30
102
{ACAD_REACTORS
330
2A
102
}
102
{ACAD_XDICTIONARY
360
8C
102
}
330
2A
100
AcDbVisualStyle
  2
Wireframe
 70
     5
 71
     0
 72
     2
 73
     0
 90
        0
 40
0.6
 41
30.0
 62
     5
 63
     7
421
 16777215
 74
     1
 91
        4
 64
     7
 65
   257
 75
     1
175
     1
 42
1.0
 92
        0
 66
   257
 43
1.0
 76
     1
 77
     6
 78
     2
 67
     7
 79
     3
170
     0
171
     0
290
     0
174
     0
 93
        1
 44
0.0
173
     0
291
     0
 45
0.0
  0
VISUALSTYLE
  5
40
102
{ACAD_REACTORS
330
2A
102
}
102
{ACAD_XDICTIONARY
360
AC
102
}
330
2A
100
AcDbVisualStyle
  2
X-Ray
 70
    25
 71
     2
 72
     2
 73
     1
 90
        1
 40
0.5
 41
30.0
 62
     5
 63
     7
421
 16777215
 74
     1
 91
        0
 64
     7
 65
   257
 75
     1
175
     1
 42
1.0
 92
        8
 66
     7
 43
1.0
 76
     1
 77
     6
 78
     2
 67
     7
 79
     3
170
     0
171
     0
290
     0
174
     0
 93
       13
 44
0.0
173
     0
291
     0
 45
0.0
  0
DICTIONARYVAR
  5
80
102
{ACAD_REACTORS
330
7F
102
}
330
7F
100
DictionaryVariables
280
     0
  1
1:1
  0
DICTIONARYVAR
  5
B9
102
{ACAD_REACTORS
330
7F
102
}
330
7F
100
DictionaryVariables
280
     0
  1
Standard
  0
DICTIONARYVAR
  5
B8
102
{ACAD_REACTORS
330
7F
102
}
330
7F
100
DictionaryVariables
280
     0
  1
Standard
  0
DICTIONARYVAR
  5
81
102
{ACAD_REACTORS
330
7F
102
}
330
7F
100
DictionaryVariables
280
     0
  1
2
  0
DICTIONARY
  5
B5
330
6C
100
AcDbDictionary
280
     1
281
     1
  3
ACAD_XREC_ROUNDTRIP
360
B6
  0
DICTIONARY
  5
B2
330
6A
100
AcDbDictionary
280
     1
281
     1
  3
ACAD_ROUNDTRIP_2008_TABLESTYLE_CELLSTYLEMAP
360
B3
  0
DICTIONARY
  5
8A
330
2F
100
AcDbDictionary
280
     1
281
     1
  3
ACAD_XREC_ROUNDTRIP
360
8B
  0
DICTIONARY
  5
90
330
32
100
AcDbDictionary
280
     1
281
     1
  3
ACAD_XREC_ROUNDTRIP
360
91
  0
DICTIONARY
  5
98
330
36
100
AcDbDictionary
280
     1
281
     1
  3
ACAD_XREC_ROUNDTRIP
360
99
  0
DICTIONARY
  5
A0
330
3A
100
AcDbDictionary
280
     1
281
     1
  3
ACAD_XREC_ROUNDTRIP
360
A1
  0
DICTIONARY
  5
94
330
34
100
AcDbDictionary
280
     1
281
     1
  3
ACAD_XREC_ROUNDTRIP
360
95
  0
DICTIONARY
  5
96
330
35
100
AcDbDictionary
280
     1
281
     1
  3
ACAD_XREC_ROUNDTRIP
360
97
  0
DICTIONARY
  5
A6
330
3D
100
AcDbDictionary
280
     1
281
     1
  3
ACAD_XREC_ROUNDTRIP
360
A7
  0
DICTIONARY
  5
9E
330
39
100
AcDbDictionary
280
     1
281
     1
  3
ACAD_XREC_ROUNDTRIP
360
9F
  0
DICTIONARY
  5
82
330
2B
100
AcDbDictionary
280
     1
281
     1
  3
ACAD_XREC_ROUNDTRIP
360
83
  0
DICTIONARY
  5
84
330
2C
100
AcDbDictionary
280
     1
281
     1
  3
ACAD_XREC_ROUNDTRIP
360
85
  0
DICTIONARY
  5
86
330
2D
100
AcDbDictionary
280
     1
281
     1
  3
ACAD_XREC_ROUNDTRIP
360
87
  0
DICTIONARY
  5
88
330
2E
100
AcDbDictionary
280
     1
281
     1
  3
ACAD_XREC_ROUNDTRIP
360
89
  0
DICTIONARY
  5
8E
330
31
100
AcDbDictionary
280
     1
281
     1
  3
ACAD_XREC_ROUNDTRIP
360
8F
  0
DICTIONARY
  5
A2
330
3B
100
AcDbDictionary
280
     1
281
     1
  3
ACAD_XREC_ROUNDTRIP
360
A3
  0
DICTIONARY
  5
9C
330
38
100
AcDbDictionary
280
     1
281
     1
  3
ACAD_XREC_ROUNDTRIP
360
9D
  0
DICTIONARY
  5
A4
330
3C
100
AcDbDictionary
280
     1
281
     1
  3
ACAD_XREC_ROUNDTRIP
360
A5
  0
DICTIONARY
  5
92
330
33
100
AcDbDictionary
280
     1
281
     1
  3
ACAD_XREC_ROUNDTRIP
360
93
  0
DICTIONARY
  5
B0
330
42
100
AcDbDictionary
280
     1
281
     1
  3
ACAD_XREC_ROUNDTRIP
360
B1
  0
DICTIONARY
  5
AE
330
41
100
AcDbDictionary
280
     1
281
     1
  3
ACAD_XREC_ROUNDTRIP
360
AF
  0
DICTIONARY
  5
A8
330
3E
100
AcDbDictionary
280
     1
281
     1
  3
ACAD_XREC_ROUNDTRIP
360
A9
  0
DICTIONARY
  5
AA
330
3F
100
AcDbDictionary
280
     1
281
     1
  3
ACAD_XREC_ROUNDTRIP
360
AB
  0
DICTIONARY
  5
9A
330
37
100
AcDbDictionary
280
     1
281
     1
  3
ACAD_XREC_ROUNDTRIP
360
9B
  0
DICTIONARY
  5
8C
330
30
100
AcDbDictionary
280
     1
281
     1
  3
ACAD_XREC_ROUNDTRIP
360
8D
  0
DICTIONARY
  5
AC
330
40
100
AcDbDictionary
280
     1
281
     1
  3
ACAD_XREC_ROUNDTRIP
360
AD
  0
XRECORD
  5
B6
102
{ACAD_REACTORS
330
B5
102
}
330
B5
100
AcDbXrecord
280
     1
102
ACAD_ROUNDTRIP_2010_MLEADER_STYLE
  0
CELLSTYLEMAP
  5
B3
102
{ACAD_REACTORS
330
B2
102
}
330
B2
100
AcDbCellStyleMap
 90
        3
300
CELLSTYLE
  1
TABLEFORMAT_BEGIN
 90
        5
170
     1
 91
        0
 92
    32768
 62
   257
 93
        1
300
CONTENTFORMAT
  1
CONTENTFORMAT_BEGIN
 90
        0
 91
        0
 92
        4
 93
        0
300

 40
0.0
140
1.0
 94
        5
 62
     0
340
11
144
0.25
309
CONTENTFORMAT_END
171
     1
301
MARGIN
  1
CELLMARGIN_BEGIN
 40
0.06
 40
0.06
 40
0.06
 40
0.06
 40
0.06
 40
0.06
309
CELLMARGIN_END
 94
        6
 95
        1
302
GRIDFORMAT
  1
GRIDFORMAT_BEGIN
 90
        0
 91
        1
 62
     0
 92
       -2
340
14
 93
        0
 40
0.045
309
GRIDFORMAT_END
 95
        2
302
GRIDFORMAT
  1
GRIDFORMAT_BEGIN
 90
        0
 91
        1
 62
     0
 92
       -2
340
14
 93
        0
 40
0.045
309
GRIDFORMAT_END
 95
        4
302
GRIDFORMAT
  1
GRIDFORMAT_BEGIN
 90
        0
 91
        1
 62
     0
 92
       -2
340
14
 93
        0
 40
0.045
309
GRIDFORMAT_END
 95
        8
302
GRIDFORMAT
  1
GRIDFORMAT_BEGIN
 90
        0
 91
        1
 62
     0
 92
       -2
340
14
 93
        0
 40
0.045
309
GRIDFORMAT_END
 95
       16
302
GRIDFORMAT
  1
GRIDFORMAT_BEGIN
 90
        0
 91
        1
 62
     0
 92
       -2
340
14
 93
        0
 40
0.045
309
GRIDFORMAT_END
 95
       32
302
GRIDFORMAT
  1
GRIDFORMAT_BEGIN
 90
        0
 91
        1
 62
     0
 92
       -2
340
14
 93
        0
 40
0.045
309
GRIDFORMAT_END
309
TABLEFORMAT_END
  1
CELLSTYLE_BEGIN
 90
        1
 91
        1
300
_TITLE
309
CELLSTYLE_END
300
CELLSTYLE
  1
TABLEFORMAT_BEGIN
 90
        5
170
     1
 91
        0
 92
        0
 62
   257
 93
        1
300
CONTENTFORMAT
  1
CONTENTFORMAT_BEGIN
 90
        0
 91
        0
 92
        4
 93
        0
300

 40
0.0
140
1.0
 94
        5
 62
     0
340
11
144
0.18
309
CONTENTFORMAT_END
171
     1
301
MARGIN
  1
CELLMARGIN_BEGIN
 40
0.06
 40
0.06
 40
0.06
 40
0.06
 40
0.06
 40
0.06
309
CELLMARGIN_END
 94
        6
 95
        1
302
GRIDFORMAT
  1
GRIDFORMAT_BEGIN
 90
        0
 91
        1
 62
     0
 92
       -2
340
14
 93
        0
 40
0.045
309
GRIDFORMAT_END
 95
        2
302
GRIDFORMAT
  1
GRIDFORMAT_BEGIN
 90
        0
 91
        1
 62
     0
 92
       -2
340
14
 93
        0
 40
0.045
309
GRIDFORMAT_END
 95
        4
302
GRIDFORMAT
  1
GRIDFORMAT_BEGIN
 90
        0
 91
        1
 62
     0
 92
       -2
340
14
 93
        0
 40
0.045
309
GRIDFORMAT_END
 95
        8
302
GRIDFORMAT
  1
GRIDFORMAT_BEGIN
 90
        0
 91
        1
 62
     0
 92
       -2
340
14
 93
        0
 40
0.045
309
GRIDFORMAT_END
 95
       16
302
GRIDFORMAT
  1
GRIDFORMAT_BEGIN
 90
        0
 91
        1
 62
     0
 92
       -2
340
14
 93
        0
 40
0.045
309
GRIDFORMAT_END
 95
       32
302
GRIDFORMAT
  1
GRIDFORMAT_BEGIN
 90
        0
 91
        1
 62
     0
 92
       -2
340
14
 93
        0
 40
0.045
309
GRIDFORMAT_END
309
TABLEFORMAT_END
  1
CELLSTYLE_BEGIN
 90
        2
 91
        1
300
_HEADER
309
CELLSTYLE_END
300
CELLSTYLE
  1
TABLEFORMAT_BEGIN
 90
        5
170
     1
 91
        0
 92
        0
 62
   257
 93
        1
300
CONTENTFORMAT
  1
CONTENTFORMAT_BEGIN
 90
        0
 91
        0
 92
        4
 93
        0
300

 40
0.0
140
1.0
 94
        2
 62
     0
340
11
144
0.18
309
CONTENTFORMAT_END
171
     1
301
MARGIN
  1
CELLMARGIN_BEGIN
 40
0.06
 40
0.06
 40
0.06
 40
0.06
 40
0.06
 40
0.06
309
CELLMARGIN_END
 94
        6
 95
        1
302
GRIDFORMAT
  1
GRIDFORMAT_BEGIN
 90
        0
 91
        1
 62
     0
 92
       -2
340
14
 93
        0
 40
0.045
309
GRIDFORMAT_END
 95
        2
302
GRIDFORMAT
  1
GRIDFORMAT_BEGIN
 90
        0
 91
        1
 62
     0
 92
       -2
340
14
 93
        0
 40
0.045
309
GRIDFORMAT_END
 95
        4
302
GRIDFORMAT
  1
GRIDFORMAT_BEGIN
 90
        0
 91
        1
 62
     0
 92
       -2
340
14
 93
        0
 40
0.045
309
GRIDFORMAT_END
 95
        8
302
GRIDFORMAT
  1
GRIDFORMAT_BEGIN
 90
        0
 91
        1
 62
     0
 92
       -2
340
14
 93
        0
 40
0.045
309
GRIDFORMAT_END
 95
       16
302
GRIDFORMAT
  1
GRIDFORMAT_BEGIN
 90
        0
 91
        1
 62
     0
 92
       -2
340
14
 93
        0
 40
0.045
309
GRIDFORMAT_END
 95
       32
302
GRIDFORMAT
  1
GRIDFORMAT_BEGIN
 90
        0
 91
        1
 62
     0
 92
       -2
340
14
 93
        0
 40
0.045
309
GRIDFORMAT_END
309
TABLEFORMAT_END
  1
CELLSTYLE_BEGIN
 90
        3
 91
        2
300
_DATA
309
CELLSTYLE_END
  0
XRECORD
  5
8B
102
{ACAD_REACTORS
330
8A
102
}
330
8A
100
AcDbXrecord
280
     1
102
RTVSPropertyOp0
 70
     1
102
RTVSPropertyOp1
 70
     1
102
RTVSPropertyOp2
 70
     1
102
RTVSPropertyOp3
 70
     1
102
RTVSPropertyOp4
 70
     1
102
RTVSPropertyOp5
 70
     1
102
RTVSPropertyOp6
 70
     1
102
RTVSPropertyOp7
 70
     1
102
RTVSPropertyOp8
 70
     1
102
RTVSPropertyOp9
 70
     1
102
RTVSPropertyOp10
 70
     1
102
RTVSPropertyOp11
 70
     1
102
RTVSPropertyOp12
 70
     1
102
RTVSPropertyOp13
 70
     1
102
RTVSPropertyOp14
 70
     1
102
RTVSPropertyOp15
 70
     1
102
RTVSPropertyOp16
 70
     1
102
RTVSPropertyOp17
 70
     1
102
RTVSPropertyOp18
 70
     1
102
RTVSPropertyOp19
 70
     1
102
RTVSPropertyOp20
 70
     1
102
RTVSPropertyOp21
 70
     1
102
RTVSPropertyOp22
 70
     1
102
RTVSPropertyOp23
 70
     1
102
RTVSPropertyOp24
 70
     1
102
RTVSPropertyOp25
 70
     1
102
RTVSPropertyOp26
 70
     1
102
RTVSPropertyOp27
 70
     1
102
RTVSPropertyOp28
 70
     1
102
RTVSPropertyOp29
 70
     1
102
RTVSPropertyOp30
 70
     1
102
RTVSPropertyOp31
 70
     1
102
RTVSPropertyOp32
 70
     1
102
RTVSPropertyOp33
 70
     1
102
RTVSPropertyOp34
 70
     1
102
RTVSPropertyOp35
 70
     1
102
RTVSPropertyOp36
 70
     1
102
RTVSPropertyOp37
 70
     1
102
RTVSPropertyOp38
 70
     1
102
RTVSPropertyOp39
 70
     1
102
RTVSPropertyOp40
 70
     1
102
RTVSPropertyOp41
 70
     1
102
RTVSPropertyOp42
 70
     1
102
RTVSPropertyOp43
 70
     1
102
RTVSPropertyOp44
 70
     1
102
RTVSPropertyOp45
 70
     1
102
RTVSPropertyOp46
 70
     1
102
RTVSPropertyOp47
 70
     1
102
RTVSPropertyOp48
 70
     1
102
RTVSPropertyOp49
 70
     1
102
RTVSPropertyOp50
 70
     1
102
RTVSPropertyOp51
 70
     0
102
RTVSPropertyOp52
 70
     0
102
RTVSPropertyOp53
 70
     1
102
RTVSPropertyOp54
 70
     1
102
RTVSPropertyOp55
 70
     1
102
RTVSPropertyOp56
 70
     1
102
RTVSPropertyOp57
 70
     1
102
RTVSPost2010Prop28
280
     1
102
RTVSPost2010PropOp28
 70
     1
102
RTVSPost2010Prop29
280
     1
102
RTVSPost2010PropOp29
 70
     1
102
RTVSPost2010Prop30
280
     0
102
RTVSPost2010PropOp30
 70
     1
102
RTVSPost2010Prop31
280
     0
102
RTVSPost2010PropOp31
 70
     1
102
RTVSPost2010Prop32
280
     0
102
RTVSPost2010PropOp32
 70
     1
102
RTVSPost2010Prop33
280
     0
102
RTVSPost2010PropOp33
 70
     1
102
RTVSPost2010Prop34
280
     0
102
RTVSPost2010PropOp34
 70
     1
102
RTVSPost2010Prop35
280
     0
102
RTVSPost2010PropOp35
 70
     1
102
RTVSPost2010Prop36
280
     0
102
RTVSPost2010PropOp36
 70
     1
102
RTVSPost2010Prop37
 90
       50
102
RTVSPost2010PropOp37
 70
     1
102
RTVSPost2010Prop38
140
0.0
102
RTVSPost2010PropOp38
 70
     1
102
RTVSPost2010Prop39
140
1.0
102
RTVSPost2010PropOp39
 70
     1
102
RTVSPost2010Prop40
 90
        0
102
RTVSPost2010PropOp40
 70
     1
102
RTVSPost2010Prop41ColorIndex
 90
       18
102
RTVSPost2010Prop41ColorRGB
 90
        0
102
RTVSPost2010PropOp41
 70
     1
102
RTVSPost2010Prop42
 90
       50
102
RTVSPost2010PropOp42
 70
     1
102
RTVSPost2010Prop43
 90
        3
102
RTVSPost2010PropOp43
 70
     1
102
RTVSPost2010Prop44ColorIndex
 90
        5
102
RTVSPost2010Prop44ColorRGB
 90
      255
102
RTVSPost2010PropOp44
 70
     1
102
RTVSPost2010Prop45
280
     0
102
RTVSPost2010PropOp45
 70
     1
102
RTVSPost2010Prop46
 90
       50
102
RTVSPost2010PropOp46
 70
     1
102
RTVSPost2010Prop47
 90
       50
102
RTVSPost2010PropOp47
 70
     1
102
RTVSPost2010Prop48
 90
       50
102
RTVSPost2010PropOp48
 70
     1
102
RTVSPost2010Prop49
280
     0
102
RTVSPost2010PropOp49
 70
     1
102
RTVSPost2010Prop50
 90
       50
102
RTVSPost2010PropOp50
 70
     1
102
RTVSPost2010Prop51ColorIndex
 90
      256
102
RTVSPost2010Prop51ColorRGB
 90
-16777216
102
RTVSPost2010PropOp51
 70
     0
102
RTVSPost2010Prop52
140
1.0
102
RTVSPost2010PropOp52
 70
     0
102
RTVSPost2010Prop53
 90
        2
102
RTVSPost2010PropOp53
 70
     1
102
RTVSPost2010Prop54
  1
strokes_ogs.tif
102
RTVSPost2010PropOp54
 70
     1
102
RTVSPost2010Prop55
280
     0
102
RTVSPost2010PropOp55
 70
     1
102
RTVSPost2010Prop56
140
1.0
102
RTVSPost2010PropOp56
 70
     1
102
RTVSPost2010Prop57
140
1.0
102
RTVSPost2010PropOp57
 70
     1
  0
XRECORD
  5
91
102
{ACAD_REACTORS
330
90
102
}
330
90
100
AcDbXrecord
280
     1
102
RTVSPropertyOp0
 70
     1
102
RTVSPropertyOp1
 70
     1
102
RTVSPropertyOp2
 70
     1
102
RTVSPropertyOp3
 70
     1
102
RTVSPropertyOp4
 70
     1
102
RTVSPropertyOp5
 70
     1
102
RTVSPropertyOp6
 70
     1
102
RTVSPropertyOp7
 70
     1
102
RTVSPropertyOp8
 70
     1
102
RTVSPropertyOp9
 70
     1
102
RTVSPropertyOp10
 70
     1
102
RTVSPropertyOp11
 70
     1
102
RTVSPropertyOp12
 70
     1
102
RTVSPropertyOp13
 70
     1
102
RTVSPropertyOp14
 70
     1
102
RTVSPropertyOp15
 70
     1
102
RTVSPropertyOp16
 70
     1
102
RTVSPropertyOp17
 70
     1
102
RTVSPropertyOp18
 70
     1
102
RTVSPropertyOp19
 70
     1
102
RTVSPropertyOp20
 70
     1
102
RTVSPropertyOp21
 70
     1
102
RTVSPropertyOp22
 70
     1
102
RTVSPropertyOp23
 70
     1
102
RTVSPropertyOp24
 70
     1
102
RTVSPropertyOp25
 70
     1
102
RTVSPropertyOp26
 70
     1
102
RTVSPropertyOp27
 70
     1
102
RTVSPropertyOp28
 70
     1
102
RTVSPropertyOp29
 70
     1
102
RTVSPropertyOp30
 70
     1
102
RTVSPropertyOp31
 70
     1
102
RTVSPropertyOp32
 70
     1
102
RTVSPropertyOp33
 70
     1
102
RTVSPropertyOp34
 70
     1
102
RTVSPropertyOp35
 70
     1
102
RTVSPropertyOp36
 70
     1
102
RTVSPropertyOp37
 70
     1
102
RTVSPropertyOp38
 70
     1
102
RTVSPropertyOp39
 70
     1
102
RTVSPropertyOp40
 70
     1
102
RTVSPropertyOp41
 70
     1
102
RTVSPropertyOp42
 70
     1
102
RTVSPropertyOp43
 70
     1
102
RTVSPropertyOp44
 70
     1
102
RTVSPropertyOp45
 70
     1
102
RTVSPropertyOp46
 70
     1
102
RTVSPropertyOp47
 70
     1
102
RTVSPropertyOp48
 70
     1
102
RTVSPropertyOp49
 70
     1
102
RTVSPropertyOp50
 70
     1
102
RTVSPropertyOp51
 70
     0
102
RTVSPropertyOp52
 70
     0
102
RTVSPropertyOp53
 70
     1
102
RTVSPropertyOp54
 70
     1
102
RTVSPropertyOp55
 70
     1
102
RTVSPropertyOp56
 70
     1
102
RTVSPropertyOp57
 70
     1
102
RTVSPost2010Prop28
280
     0
102
RTVSPost2010PropOp28
 70
     1
102
RTVSPost2010Prop29
280
     1
102
RTVSPost2010PropOp29
 70
     1
102
RTVSPost2010Prop30
280
     1
102
RTVSPost2010PropOp30
 70
     1
102
RTVSPost2010Prop31
280
     0
102
RTVSPost2010PropOp31
 70
     1
102
RTVSPost2010Prop32
280
     0
102
RTVSPost2010PropOp32
 70
     1
102
RTVSPost2010Prop33
280
     0
102
RTVSPost2010PropOp33
 70
     1
102
RTVSPost2010Prop34
280
     0
102
RTVSPost2010PropOp34
 70
     1
102
RTVSPost2010Prop35
280
     0
102
RTVSPost2010PropOp35
 70
     1
102
RTVSPost2010Prop36
280
     0
102
RTVSPost2010PropOp36
 70
     1
102
RTVSPost2010Prop37
 90
       50
102
RTVSPost2010PropOp37
 70
     1
102
RTVSPost2010Prop38
140
0.0
102
RTVSPost2010PropOp38
 70
     1
102
RTVSPost2010Prop39
140
1.0
102
RTVSPost2010PropOp39
 70
     1
102
RTVSPost2010Prop40
 90
        0
102
RTVSPost2010PropOp40
 70
     1
102
RTVSPost2010Prop41ColorIndex
 90
       18
102
RTVSPost2010Prop41ColorRGB
 90
        0
102
RTVSPost2010PropOp41
 70
     1
102
RTVSPost2010Prop42
 90
       50
102
RTVSPost2010PropOp42
 70
     1
102
RTVSPost2010Prop43
 90
        3
102
RTVSPost2010PropOp43
 70
     1
102
RTVSPost2010Prop44ColorIndex
 90
        5
102
RTVSPost2010Prop44ColorRGB
 90
      255
102
RTVSPost2010PropOp44
 70
     1
102
RTVSPost2010Prop45
280
     0
102
RTVSPost2010PropOp45
 70
     1
102
RTVSPost2010Prop46
 90
       50
102
RTVSPost2010PropOp46
 70
     1
102
RTVSPost2010Prop47
 90
       50
102
RTVSPost2010PropOp47
 70
     1
102
RTVSPost2010Prop48
 90
       50
102
RTVSPost2010PropOp48
 70
     1
102
RTVSPost2010Prop49
280
     0
102
RTVSPost2010PropOp49
 70
     1
102
RTVSPost2010Prop50
 90
       50
102
RTVSPost2010PropOp50
 70
     1
102
RTVSPost2010Prop51ColorIndex
 90
      256
102
RTVSPost2010Prop51ColorRGB
 90
-16777216
102
RTVSPost2010PropOp51
 70
     0
102
RTVSPost2010Prop52
140
1.0
102
RTVSPost2010PropOp52
 70
     0
102
RTVSPost2010Prop53
 90
        2
102
RTVSPost2010PropOp53
 70
     1
102
RTVSPost2010Prop54
  1
strokes_ogs.tif
102
RTVSPost2010PropOp54
 70
     1
102
RTVSPost2010Prop55
280
     0
102
RTVSPost2010PropOp55
 70
     1
102
RTVSPost2010Prop56
140
1.0
102
RTVSPost2010PropOp56
 70
     1
102
RTVSPost2010Prop57
140
1.0
102
RTVSPost2010PropOp57
 70
     1
  0
XRECORD
  5
99
102
{ACAD_REACTORS
330
98
102
}
330
98
100
AcDbXrecord
280
     1
102
RTVSPropertyOp0
 70
     1
102
RTVSPropertyOp1
 70
     1
102
RTVSPropertyOp2
 70
     1
102
RTVSPropertyOp3
 70
     1
102
RTVSPropertyOp4
 70
     1
102
RTVSPropertyOp5
 70
     1
102
RTVSPropertyOp6
 70
     1
102
RTVSPropertyOp7
 70
     1
102
RTVSPropertyOp8
 70
     1
102
RTVSPropertyOp9
 70
     1
102
RTVSPropertyOp10
 70
     1
102
RTVSPropertyOp11
 70
     1
102
RTVSPropertyOp12
 70
     1
102
RTVSPropertyOp13
 70
     1
102
RTVSPropertyOp14
 70
     1
102
RTVSPropertyOp15
 70
     1
102
RTVSPropertyOp16
 70
     1
102
RTVSPropertyOp17
 70
     1
102
RTVSPropertyOp18
 70
     1
102
RTVSPropertyOp19
 70
     1
102
RTVSPropertyOp20
 70
     1
102
RTVSPropertyOp21
 70
     1
102
RTVSPropertyOp22
 70
     1
102
RTVSPropertyOp23
 70
     1
102
RTVSPropertyOp24
 70
     1
102
RTVSPropertyOp25
 70
     1
102
RTVSPropertyOp26
 70
     1
102
RTVSPropertyOp27
 70
     1
102
RTVSPropertyOp28
 70
     1
102
RTVSPropertyOp29
 70
     1
102
RTVSPropertyOp30
 70
     1
102
RTVSPropertyOp31
 70
     1
102
RTVSPropertyOp32
 70
     1
102
RTVSPropertyOp33
 70
     1
102
RTVSPropertyOp34
 70
     1
102
RTVSPropertyOp35
 70
     1
102
RTVSPropertyOp36
 70
     1
102
RTVSPropertyOp37
 70
     1
102
RTVSPropertyOp38
 70
     1
102
RTVSPropertyOp39
 70
     1
102
RTVSPropertyOp40
 70
     1
102
RTVSPropertyOp41
 70
     1
102
RTVSPropertyOp42
 70
     1
102
RTVSPropertyOp43
 70
     1
102
RTVSPropertyOp44
 70
     1
102
RTVSPropertyOp45
 70
     1
102
RTVSPropertyOp46
 70
     1
102
RTVSPropertyOp47
 70
     1
102
RTVSPropertyOp48
 70
     1
102
RTVSPropertyOp49
 70
     1
102
RTVSPropertyOp50
 70
     1
102
RTVSPropertyOp51
 70
     0
102
RTVSPropertyOp52
 70
     0
102
RTVSPropertyOp53
 70
     1
102
RTVSPropertyOp54
 70
     1
102
RTVSPropertyOp55
 70
     1
102
RTVSPropertyOp56
 70
     1
102
RTVSPropertyOp57
 70
     1
102
RTVSPost2010Prop28
280
     0
102
RTVSPost2010PropOp28
 70
     1
102
RTVSPost2010Prop29
280
     1
102
RTVSPost2010PropOp29
 70
     1
102
RTVSPost2010Prop30
280
     1
102
RTVSPost2010PropOp30
 70
     1
102
RTVSPost2010Prop31
280
     0
102
RTVSPost2010PropOp31
 70
     1
102
RTVSPost2010Prop32
280
     0
102
RTVSPost2010PropOp32
 70
     1
102
RTVSPost2010Prop33
280
     0
102
RTVSPost2010PropOp33
 70
     1
102
RTVSPost2010Prop34
280
     0
102
RTVSPost2010PropOp34
 70
     1
102
RTVSPost2010Prop35
280
     0
102
RTVSPost2010PropOp35
 70
     1
102
RTVSPost2010Prop36
280
     0
102
RTVSPost2010PropOp36
 70
     1
102
RTVSPost2010Prop37
 90
       50
102
RTVSPost2010PropOp37
 70
     1
102
RTVSPost2010Prop38
140
0.0
102
RTVSPost2010PropOp38
 70
     1
102
RTVSPost2010Prop39
140
1.0
102
RTVSPost2010PropOp39
 70
     1
102
RTVSPost2010Prop40
 90
        0
102
RTVSPost2010PropOp40
 70
     1
102
RTVSPost2010Prop41ColorIndex
 90
       18
102
RTVSPost2010Prop41ColorRGB
 90
        0
102
RTVSPost2010PropOp41
 70
     1
102
RTVSPost2010Prop42
 90
       50
102
RTVSPost2010PropOp42
 70
     1
102
RTVSPost2010Prop43
 90
        3
102
RTVSPost2010PropOp43
 70
     1
102
RTVSPost2010Prop44ColorIndex
 90
        5
102
RTVSPost2010Prop44ColorRGB
 90
      255
102
RTVSPost2010PropOp44
 70
     1
102
RTVSPost2010Prop45
280
     0
102
RTVSPost2010PropOp45
 70
     1
102
RTVSPost2010Prop46
 90
       50
102
RTVSPost2010PropOp46
 70
     1
102
RTVSPost2010Prop47
 90
       50
102
RTVSPost2010PropOp47
 70
     1
102
RTVSPost2010Prop48
 90
       50
102
RTVSPost2010PropOp48
 70
     1
102
RTVSPost2010Prop49
280
     0
102
RTVSPost2010PropOp49
 70
     1
102
RTVSPost2010Prop50
 90
       50
102
RTVSPost2010PropOp50
 70
     1
102
RTVSPost2010Prop51ColorIndex
 90
      256
102
RTVSPost2010Prop51ColorRGB
 90
-16777216
102
RTVSPost2010PropOp51
 70
     0
102
RTVSPost2010Prop52
140
1.0
102
RTVSPost2010PropOp52
 70
     0
102
RTVSPost2010Prop53
 90
        2
102
RTVSPost2010PropOp53
 70
     1
102
RTVSPost2010Prop54
  1
strokes_ogs.tif
102
RTVSPost2010PropOp54
 70
     1
102
RTVSPost2010Prop55
280
     0
102
RTVSPost2010PropOp55
 70
     1
102
RTVSPost2010Prop56
140
1.0
102
RTVSPost2010PropOp56
 70
     1
102
RTVSPost2010Prop57
140
1.0
102
RTVSPost2010PropOp57
 70
     1
  0
XRECORD
  5
A1
102
{ACAD_REACTORS
330
A0
102
}
330
A0
100
AcDbXrecord
280
     1
102
RTVSPropertyOp0
 70
     1
102
RTVSPropertyOp1
 70
     1
102
RTVSPropertyOp2
 70
     1
102
RTVSPropertyOp3
 70
     1
102
RTVSPropertyOp4
 70
     1
102
RTVSPropertyOp5
 70
     1
102
RTVSPropertyOp6
 70
     1
102
RTVSPropertyOp7
 70
     1
102
RTVSPropertyOp8
 70
     1
102
RTVSPropertyOp9
 70
     1
102
RTVSPropertyOp10
 70
     1
102
RTVSPropertyOp11
 70
     1
102
RTVSPropertyOp12
 70
     1
102
RTVSPropertyOp13
 70
     1
102
RTVSPropertyOp14
 70
     1
102
RTVSPropertyOp15
 70
     1
102
RTVSPropertyOp16
 70
     1
102
RTVSPropertyOp17
 70
     1
102
RTVSPropertyOp18
 70
     1
102
RTVSPropertyOp19
 70
     1
102
RTVSPropertyOp20
 70
     1
102
RTVSPropertyOp21
 70
     1
102
RTVSPropertyOp22
 70
     1
102
RTVSPropertyOp23
 70
     1
102
RTVSPropertyOp24
 70
     1
102
RTVSPropertyOp25
 70
     1
102
RTVSPropertyOp26
 70
     1
102
RTVSPropertyOp27
 70
     1
102
RTVSPropertyOp28
 70
     1
102
RTVSPropertyOp29
 70
     1
102
RTVSPropertyOp30
 70
     1
102
RTVSPropertyOp31
 70
     1
102
RTVSPropertyOp32
 70
     1
102
RTVSPropertyOp33
 70
     1
102
RTVSPropertyOp34
 70
     1
102
RTVSPropertyOp35
 70
     1
102
RTVSPropertyOp36
 70
     1
102
RTVSPropertyOp37
 70
     1
102
RTVSPropertyOp38
 70
     1
102
RTVSPropertyOp39
 70
     1
102
RTVSPropertyOp40
 70
     1
102
RTVSPropertyOp41
 70
     1
102
RTVSPropertyOp42
 70
     1
102
RTVSPropertyOp43
 70
     1
102
RTVSPropertyOp44
 70
     1
102
RTVSPropertyOp45
 70
     1
102
RTVSPropertyOp46
 70
     1
102
RTVSPropertyOp47
 70
     1
102
RTVSPropertyOp48
 70
     1
102
RTVSPropertyOp49
 70
     1
102
RTVSPropertyOp50
 70
     1
102
RTVSPropertyOp51
 70
     0
102
RTVSPropertyOp52
 70
     0
102
RTVSPropertyOp53
 70
     1
102
RTVSPropertyOp54
 70
     1
102
RTVSPropertyOp55
 70
     1
102
RTVSPropertyOp56
 70
     1
102
RTVSPropertyOp57
 70
     1
102
RTVSPost2010Prop28
280
     0
102
RTVSPost2010PropOp28
 70
     1
102
RTVSPost2010Prop29
280
     1
102
RTVSPost2010PropOp29
 70
     1
102
RTVSPost2010Prop30
280
     1
102
RTVSPost2010PropOp30
 70
     1
102
RTVSPost2010Prop31
280
     0
102
RTVSPost2010PropOp31
 70
     1
102
RTVSPost2010Prop32
280
     0
102
RTVSPost2010PropOp32
 70
     1
102
RTVSPost2010Prop33
280
     0
102
RTVSPost2010PropOp33
 70
     1
102
RTVSPost2010Prop34
280
     0
102
RTVSPost2010PropOp34
 70
     1
102
RTVSPost2010Prop35
280
     0
102
RTVSPost2010PropOp35
 70
     1
102
RTVSPost2010Prop36
280
     0
102
RTVSPost2010PropOp36
 70
     1
102
RTVSPost2010Prop37
 90
       50
102
RTVSPost2010PropOp37
 70
     1
102
RTVSPost2010Prop38
140
0.0
102
RTVSPost2010PropOp38
 70
     1
102
RTVSPost2010Prop39
140
1.0
102
RTVSPost2010PropOp39
 70
     1
102
RTVSPost2010Prop40
 90
        0
102
RTVSPost2010PropOp40
 70
     1
102
RTVSPost2010Prop41ColorIndex
 90
       18
102
RTVSPost2010Prop41ColorRGB
 90
        0
102
RTVSPost2010PropOp41
 70
     1
102
RTVSPost2010Prop42
 90
       50
102
RTVSPost2010PropOp42
 70
     1
102
RTVSPost2010Prop43
 90
        3
102
RTVSPost2010PropOp43
 70
     1
102
RTVSPost2010Prop44ColorIndex
 90
        5
102
RTVSPost2010Prop44ColorRGB
 90
      255
102
RTVSPost2010PropOp44
 70
     1
102
RTVSPost2010Prop45
280
     0
102
RTVSPost2010PropOp45
 70
     1
102
RTVSPost2010Prop46
 90
       50
102
RTVSPost2010PropOp46
 70
     1
102
RTVSPost2010Prop47
 90
       50
102
RTVSPost2010PropOp47
 70
     1
102
RTVSPost2010Prop48
 90
       50
102
RTVSPost2010PropOp48
 70
     1
102
RTVSPost2010Prop49
280
     0
102
RTVSPost2010PropOp49
 70
     1
102
RTVSPost2010Prop50
 90
       50
102
RTVSPost2010PropOp50
 70
     1
102
RTVSPost2010Prop51ColorIndex
 90
      256
102
RTVSPost2010Prop51ColorRGB
 90
-16777216
102
RTVSPost2010PropOp51
 70
     0
102
RTVSPost2010Prop52
140
1.0
102
RTVSPost2010PropOp52
 70
     0
102
RTVSPost2010Prop53
 90
        2
102
RTVSPost2010PropOp53
 70
     1
102
RTVSPost2010Prop54
  1
strokes_ogs.tif
102
RTVSPost2010PropOp54
 70
     1
102
RTVSPost2010Prop55
280
     0
102
RTVSPost2010PropOp55
 70
     1
102
RTVSPost2010Prop56
140
1.0
102
RTVSPost2010PropOp56
 70
     1
102
RTVSPost2010Prop57
140
1.0
102
RTVSPost2010PropOp57
 70
     1
  0
XRECORD
  5
95
102
{ACAD_REACTORS
330
94
102
}
330
94
100
AcDbXrecord
280
     1
102
RTVSPropertyOp0
 70
     1
102
RTVSPropertyOp1
 70
     1
102
RTVSPropertyOp2
 70
     1
102
RTVSPropertyOp3
 70
     1
102
RTVSPropertyOp4
 70
     1
102
RTVSPropertyOp5
 70
     1
102
RTVSPropertyOp6
 70
     1
102
RTVSPropertyOp7
 70
     1
102
RTVSPropertyOp8
 70
     1
102
RTVSPropertyOp9
 70
     1
102
RTVSPropertyOp10
 70
     1
102
RTVSPropertyOp11
 70
     1
102
RTVSPropertyOp12
 70
     1
102
RTVSPropertyOp13
 70
     1
102
RTVSPropertyOp14
 70
     1
102
RTVSPropertyOp15
 70
     1
102
RTVSPropertyOp16
 70
     1
102
RTVSPropertyOp17
 70
     1
102
RTVSPropertyOp18
 70
     1
102
RTVSPropertyOp19
 70
     1
102
RTVSPropertyOp20
 70
     1
102
RTVSPropertyOp21
 70
     1
102
RTVSPropertyOp22
 70
     1
102
RTVSPropertyOp23
 70
     1
102
RTVSPropertyOp24
 70
     1
102
RTVSPropertyOp25
 70
     1
102
RTVSPropertyOp26
 70
     1
102
RTVSPropertyOp27
 70
     1
102
RTVSPropertyOp28
 70
     1
102
RTVSPropertyOp29
 70
     1
102
RTVSPropertyOp30
 70
     1
102
RTVSPropertyOp31
 70
     1
102
RTVSPropertyOp32
 70
     1
102
RTVSPropertyOp33
 70
     1
102
RTVSPropertyOp34
 70
     1
102
RTVSPropertyOp35
 70
     1
102
RTVSPropertyOp36
 70
     1
102
RTVSPropertyOp37
 70
     1
102
RTVSPropertyOp38
 70
     1
102
RTVSPropertyOp39
 70
     1
102
RTVSPropertyOp40
 70
     1
102
RTVSPropertyOp41
 70
     1
102
RTVSPropertyOp42
 70
     1
102
RTVSPropertyOp43
 70
     1
102
RTVSPropertyOp44
 70
     1
102
RTVSPropertyOp45
 70
     1
102
RTVSPropertyOp46
 70
     1
102
RTVSPropertyOp47
 70
     1
102
RTVSPropertyOp48
 70
     1
102
RTVSPropertyOp49
 70
     1
102
RTVSPropertyOp50
 70
     1
102
RTVSPropertyOp51
 70
     0
102
RTVSPropertyOp52
 70
     0
102
RTVSPropertyOp53
 70
     1
102
RTVSPropertyOp54
 70
     1
102
RTVSPropertyOp55
 70
     1
102
RTVSPropertyOp56
 70
     1
102
RTVSPropertyOp57
 70
     1
102
RTVSPost2010Prop28
280
     0
102
RTVSPost2010PropOp28
 70
     1
102
RTVSPost2010Prop29
280
     1
102
RTVSPost2010PropOp29
 70
     1
102
RTVSPost2010Prop30
280
     1
102
RTVSPost2010PropOp30
 70
     1
102
RTVSPost2010Prop31
280
     0
102
RTVSPost2010PropOp31
 70
     1
102
RTVSPost2010Prop32
280
     0
102
RTVSPost2010PropOp32
 70
     1
102
RTVSPost2010Prop33
280
     0
102
RTVSPost2010PropOp33
 70
     1
102
RTVSPost2010Prop34
280
     0
102
RTVSPost2010PropOp34
 70
     1
102
RTVSPost2010Prop35
280
     0
102
RTVSPost2010PropOp35
 70
     1
102
RTVSPost2010Prop36
280
     0
102
RTVSPost2010PropOp36
 70
     1
102
RTVSPost2010Prop37
 90
       50
102
RTVSPost2010PropOp37
 70
     1
102
RTVSPost2010Prop38
140
0.0
102
RTVSPost2010PropOp38
 70
     1
102
RTVSPost2010Prop39
140
1.0
102
RTVSPost2010PropOp39
 70
     1
102
RTVSPost2010Prop40
 90
        0
102
RTVSPost2010PropOp40
 70
     1
102
RTVSPost2010Prop41ColorIndex
 90
       18
102
RTVSPost2010Prop41ColorRGB
 90
        0
102
RTVSPost2010PropOp41
 70
     1
102
RTVSPost2010Prop42
 90
       50
102
RTVSPost2010PropOp42
 70
     1
102
RTVSPost2010Prop43
 90
        3
102
RTVSPost2010PropOp43
 70
     1
102
RTVSPost2010Prop44ColorIndex
 90
        5
102
RTVSPost2010Prop44ColorRGB
 90
      255
102
RTVSPost2010PropOp44
 70
     1
102
RTVSPost2010Prop45
280
     0
102
RTVSPost2010PropOp45
 70
     1
102
RTVSPost2010Prop46
 90
       50
102
RTVSPost2010PropOp46
 70
     1
102
RTVSPost2010Prop47
 90
       50
102
RTVSPost2010PropOp47
 70
     1
102
RTVSPost2010Prop48
 90
       50
102
RTVSPost2010PropOp48
 70
     1
102
RTVSPost2010Prop49
280
     0
102
RTVSPost2010PropOp49
 70
     1
102
RTVSPost2010Prop50
 90
       50
102
RTVSPost2010PropOp50
 70
     1
102
RTVSPost2010Prop51ColorIndex
 90
      256
102
RTVSPost2010Prop51ColorRGB
 90
-16777216
102
RTVSPost2010PropOp51
 70
     0
102
RTVSPost2010Prop52
140
1.0
102
RTVSPost2010PropOp52
 70
     0
102
RTVSPost2010Prop53
 90
        2
102
RTVSPost2010PropOp53
 70
     1
102
RTVSPost2010Prop54
  1
strokes_ogs.tif
102
RTVSPost2010PropOp54
 70
     1
102
RTVSPost2010Prop55
280
     0
102
RTVSPost2010PropOp55
 70
     1
102
RTVSPost2010Prop56
140
1.0
102
RTVSPost2010PropOp56
 70
     1
102
RTVSPost2010Prop57
140
1.0
102
RTVSPost2010PropOp57
 70
     1
  0
XRECORD
  5
97
102
{ACAD_REACTORS
330
96
102
}
330
96
100
AcDbXrecord
280
     1
102
RTVSPropertyOp0
 70
     1
102
RTVSPropertyOp1
 70
     1
102
RTVSPropertyOp2
 70
     1
102
RTVSPropertyOp3
 70
     1
102
RTVSPropertyOp4
 70
     1
102
RTVSPropertyOp5
 70
     1
102
RTVSPropertyOp6
 70
     1
102
RTVSPropertyOp7
 70
     1
102
RTVSPropertyOp8
 70
     1
102
RTVSPropertyOp9
 70
     1
102
RTVSPropertyOp10
 70
     1
102
RTVSPropertyOp11
 70
     1
102
RTVSPropertyOp12
 70
     1
102
RTVSPropertyOp13
 70
     1
102
RTVSPropertyOp14
 70
     1
102
RTVSPropertyOp15
 70
     1
102
RTVSPropertyOp16
 70
     1
102
RTVSPropertyOp17
 70
     1
102
RTVSPropertyOp18
 70
     1
102
RTVSPropertyOp19
 70
     1
102
RTVSPropertyOp20
 70
     1
102
RTVSPropertyOp21
 70
     1
102
RTVSPropertyOp22
 70
     1
102
RTVSPropertyOp23
 70
     1
102
RTVSPropertyOp24
 70
     1
102
RTVSPropertyOp25
 70
     1
102
RTVSPropertyOp26
 70
     1
102
RTVSPropertyOp27
 70
     1
102
RTVSPropertyOp28
 70
     1
102
RTVSPropertyOp29
 70
     1
102
RTVSPropertyOp30
 70
     1
102
RTVSPropertyOp31
 70
     1
102
RTVSPropertyOp32
 70
     1
102
RTVSPropertyOp33
 70
     1
102
RTVSPropertyOp34
 70
     1
102
RTVSPropertyOp35
 70
     1
102
RTVSPropertyOp36
 70
     1
102
RTVSPropertyOp37
 70
     1
102
RTVSPropertyOp38
 70
     1
102
RTVSPropertyOp39
 70
     1
102
RTVSPropertyOp40
 70
     1
102
RTVSPropertyOp41
 70
     1
102
RTVSPropertyOp42
 70
     1
102
RTVSPropertyOp43
 70
     1
102
RTVSPropertyOp44
 70
     1
102
RTVSPropertyOp45
 70
     1
102
RTVSPropertyOp46
 70
     1
102
RTVSPropertyOp47
 70
     1
102
RTVSPropertyOp48
 70
     1
102
RTVSPropertyOp49
 70
     1
102
RTVSPropertyOp50
 70
     1
102
RTVSPropertyOp51
 70
     0
102
RTVSPropertyOp52
 70
     0
102
RTVSPropertyOp53
 70
     1
102
RTVSPropertyOp54
 70
     1
102
RTVSPropertyOp55
 70
     1
102
RTVSPropertyOp56
 70
     1
102
RTVSPropertyOp57
 70
     1
102
RTVSPost2010Prop28
280
     0
102
RTVSPost2010PropOp28
 70
     1
102
RTVSPost2010Prop29
280
     1
102
RTVSPost2010PropOp29
 70
     1
102
RTVSPost2010Prop30
280
     1
102
RTVSPost2010PropOp30
 70
     1
102
RTVSPost2010Prop31
280
     0
102
RTVSPost2010PropOp31
 70
     1
102
RTVSPost2010Prop32
280
     0
102
RTVSPost2010PropOp32
 70
     1
102
RTVSPost2010Prop33
280
     0
102
RTVSPost2010PropOp33
 70
     1
102
RTVSPost2010Prop34
280
     0
102
RTVSPost2010PropOp34
 70
     1
102
RTVSPost2010Prop35
280
     0
102
RTVSPost2010PropOp35
 70
     1
102
RTVSPost2010Prop36
280
     0
102
RTVSPost2010PropOp36
 70
     1
102
RTVSPost2010Prop37
 90
       50
102
RTVSPost2010PropOp37
 70
     1
102
RTVSPost2010Prop38
140
0.0
102
RTVSPost2010PropOp38
 70
     1
102
RTVSPost2010Prop39
140
1.0
102
RTVSPost2010PropOp39
 70
     1
102
RTVSPost2010Prop40
 90
        0
102
RTVSPost2010PropOp40
 70
     1
102
RTVSPost2010Prop41ColorIndex
 90
       18
102
RTVSPost2010Prop41ColorRGB
 90
        0
102
RTVSPost2010PropOp41
 70
     1
102
RTVSPost2010Prop42
 90
       50
102
RTVSPost2010PropOp42
 70
     1
102
RTVSPost2010Prop43
 90
        3
102
RTVSPost2010PropOp43
 70
     1
102
RTVSPost2010Prop44ColorIndex
 90
        5
102
RTVSPost2010Prop44ColorRGB
 90
      255
102
RTVSPost2010PropOp44
 70
     1
102
RTVSPost2010Prop45
280
     0
102
RTVSPost2010PropOp45
 70
     1
102
RTVSPost2010Prop46
 90
       50
102
RTVSPost2010PropOp46
 70
     1
102
RTVSPost2010Prop47
 90
       50
102
RTVSPost2010PropOp47
 70
     1
102
RTVSPost2010Prop48
 90
       50
102
RTVSPost2010PropOp48
 70
     1
102
RTVSPost2010Prop49
280
     0
102
RTVSPost2010PropOp49
 70
     1
102
RTVSPost2010Prop50
 90
       50
102
RTVSPost2010PropOp50
 70
     1
102
RTVSPost2010Prop51ColorIndex
 90
      256
102
RTVSPost2010Prop51ColorRGB
 90
-16777216
102
RTVSPost2010PropOp51
 70
     0
102
RTVSPost2010Prop52
140
1.0
102
RTVSPost2010PropOp52
 70
     0
102
RTVSPost2010Prop53
 90
        2
102
RTVSPost2010PropOp53
 70
     1
102
RTVSPost2010Prop54
  1
strokes_ogs.tif
102
RTVSPost2010PropOp54
 70
     1
102
RTVSPost2010Prop55
280
     0
102
RTVSPost2010PropOp55
 70
     1
102
RTVSPost2010Prop56
140
1.0
102
RTVSPost2010PropOp56
 70
     1
102
RTVSPost2010Prop57
140
1.0
102
RTVSPost2010PropOp57
 70
     1
  0
XRECORD
  5
A7
102
{ACAD_REACTORS
330
A6
102
}
330
A6
100
AcDbXrecord
280
     1
102
RTVSPropertyOp0
 70
     0
102
RTVSPropertyOp1
 70
     0
102
RTVSPropertyOp2
 70
     0
102
RTVSPropertyOp3
 70
     0
102
RTVSPropertyOp4
 70
     0
102
RTVSPropertyOp5
 70
     0
102
RTVSPropertyOp6
 70
     0
102
RTVSPropertyOp7
 70
     0
102
RTVSPropertyOp8
 70
     0
102
RTVSPropertyOp9
 70
     0
102
RTVSPropertyOp10
 70
     0
102
RTVSPropertyOp11
 70
     0
102
RTVSPropertyOp12
 70
     0
102
RTVSPropertyOp13
 70
     0
102
RTVSPropertyOp14
 70
     2
102
RTVSPropertyOp15
 70
     0
102
RTVSPropertyOp16
 70
     0
102
RTVSPropertyOp17
 70
     0
102
RTVSPropertyOp18
 70
     0
102
RTVSPropertyOp19
 70
     0
102
RTVSPropertyOp20
 70
     0
102
RTVSPropertyOp21
 70
     0
102
RTVSPropertyOp22
 70
     0
102
RTVSPropertyOp23
 70
     0
102
RTVSPropertyOp24
 70
     0
102
RTVSPropertyOp25
 70
     0
102
RTVSPropertyOp26
 70
     0
102
RTVSPropertyOp27
 70
     0
102
RTVSPropertyOp28
 70
     0
102
RTVSPropertyOp29
 70
     0
102
RTVSPropertyOp30
 70
     0
102
RTVSPropertyOp31
 70
     0
102
RTVSPropertyOp32
 70
     0
102
RTVSPropertyOp33
 70
     0
102
RTVSPropertyOp34
 70
     0
102
RTVSPropertyOp35
 70
     0
102
RTVSPropertyOp36
 70
     0
102
RTVSPropertyOp37
 70
     0
102
RTVSPropertyOp38
 70
     0
102
RTVSPropertyOp39
 70
     0
102
RTVSPropertyOp40
 70
     0
102
RTVSPropertyOp41
 70
     0
102
RTVSPropertyOp42
 70
     0
102
RTVSPropertyOp43
 70
     0
102
RTVSPropertyOp44
 70
     0
102
RTVSPropertyOp45
 70
     0
102
RTVSPropertyOp46
 70
     0
102
RTVSPropertyOp47
 70
     0
102
RTVSPropertyOp48
 70
     0
102
RTVSPropertyOp49
 70
     0
102
RTVSPropertyOp50
 70
     0
102
RTVSPropertyOp51
 70
     0
102
RTVSPropertyOp52
 70
     0
102
RTVSPropertyOp53
 70
     0
102
RTVSPropertyOp54
 70
     0
102
RTVSPropertyOp55
 70
     0
102
RTVSPropertyOp56
 70
     0
102
RTVSPropertyOp57
 70
     0
102
RTVSPost2010Prop28
280
     0
102
RTVSPost2010PropOp28
 70
     0
102
RTVSPost2010Prop29
280
     1
102
RTVSPost2010PropOp29
 70
     0
102
RTVSPost2010Prop30
280
     1
102
RTVSPost2010PropOp30
 70
     0
102
RTVSPost2010Prop31
280
     0
102
RTVSPost2010PropOp31
 70
     0
102
RTVSPost2010Prop32
280
     0
102
RTVSPost2010PropOp32
 70
     0
102
RTVSPost2010Prop33
280
     0
102
RTVSPost2010PropOp33
 70
     0
102
RTVSPost2010Prop34
280
     0
102
RTVSPost2010PropOp34
 70
     0
102
RTVSPost2010Prop35
280
     0
102
RTVSPost2010PropOp35
 70
     0
102
RTVSPost2010Prop36
280
     0
102
RTVSPost2010PropOp36
 70
     0
102
RTVSPost2010Prop37
 90
       50
102
RTVSPost2010PropOp37
 70
     0
102
RTVSPost2010Prop38
140
0.0
102
RTVSPost2010PropOp38
 70
     0
102
RTVSPost2010Prop39
140
1.0
102
RTVSPost2010PropOp39
 70
     0
102
RTVSPost2010Prop40
 90
        0
102
RTVSPost2010PropOp40
 70
     0
102
RTVSPost2010Prop41ColorIndex
 90
       18
102
RTVSPost2010Prop41ColorRGB
 90
        0
102
RTVSPost2010PropOp41
 70
     0
102
RTVSPost2010Prop42
 90
       50
102
RTVSPost2010PropOp42
 70
     0
102
RTVSPost2010Prop43
 90
        3
102
RTVSPost2010PropOp43
 70
     0
102
RTVSPost2010Prop44ColorIndex
 90
        5
102
RTVSPost2010Prop44ColorRGB
 90
      255
102
RTVSPost2010PropOp44
 70
     0
102
RTVSPost2010Prop45
280
     0
102
RTVSPost2010PropOp45
 70
     0
102
RTVSPost2010Prop46
 90
       50
102
RTVSPost2010PropOp46
 70
     0
102
RTVSPost2010Prop47
 90
       50
102
RTVSPost2010PropOp47
 70
     0
102
RTVSPost2010Prop48
 90
       50
102
RTVSPost2010PropOp48
 70
     0
102
RTVSPost2010Prop49
280
     0
102
RTVSPost2010PropOp49
 70
     0
102
RTVSPost2010Prop50
 90
       50
102
RTVSPost2010PropOp50
 70
     0
102
RTVSPost2010Prop51ColorIndex
 90
      256
102
RTVSPost2010Prop51ColorRGB
 90
-16777216
102
RTVSPost2010PropOp51
 70
     0
102
RTVSPost2010Prop52
140
1.0
102
RTVSPost2010PropOp52
 70
     0
102
RTVSPost2010Prop53
 90
        2
102
RTVSPost2010PropOp53
 70
     0
102
RTVSPost2010Prop54
  1
strokes_ogs.tif
102
RTVSPost2010PropOp54
 70
     0
102
RTVSPost2010Prop55
280
     0
102
RTVSPost2010PropOp55
 70
     0
102
RTVSPost2010Prop56
140
1.0
102
RTVSPost2010PropOp56
 70
     0
102
RTVSPost2010Prop57
140
1.0
102
RTVSPost2010PropOp57
 70
     0
  0
XRECORD
  5
9F
102
{ACAD_REACTORS
330
9E
102
}
330
9E
100
AcDbXrecord
280
     1
102
RTVSPropertyOp0
 70
     1
102
RTVSPropertyOp1
 70
     1
102
RTVSPropertyOp2
 70
     1
102
RTVSPropertyOp3
 70
     1
102
RTVSPropertyOp4
 70
     1
102
RTVSPropertyOp5
 70
     1
102
RTVSPropertyOp6
 70
     1
102
RTVSPropertyOp7
 70
     1
102
RTVSPropertyOp8
 70
     1
102
RTVSPropertyOp9
 70
     1
102
RTVSPropertyOp10
 70
     1
102
RTVSPropertyOp11
 70
     1
102
RTVSPropertyOp12
 70
     1
102
RTVSPropertyOp13
 70
     1
102
RTVSPropertyOp14
 70
     1
102
RTVSPropertyOp15
 70
     1
102
RTVSPropertyOp16
 70
     1
102
RTVSPropertyOp17
 70
     1
102
RTVSPropertyOp18
 70
     1
102
RTVSPropertyOp19
 70
     1
102
RTVSPropertyOp20
 70
     1
102
RTVSPropertyOp21
 70
     1
102
RTVSPropertyOp22
 70
     1
102
RTVSPropertyOp23
 70
     1
102
RTVSPropertyOp24
 70
     1
102
RTVSPropertyOp25
 70
     1
102
RTVSPropertyOp26
 70
     1
102
RTVSPropertyOp27
 70
     1
102
RTVSPropertyOp28
 70
     1
102
RTVSPropertyOp29
 70
     1
102
RTVSPropertyOp30
 70
     1
102
RTVSPropertyOp31
 70
     1
102
RTVSPropertyOp32
 70
     1
102
RTVSPropertyOp33
 70
     1
102
RTVSPropertyOp34
 70
     1
102
RTVSPropertyOp35
 70
     1
102
RTVSPropertyOp36
 70
     1
102
RTVSPropertyOp37
 70
     1
102
RTVSPropertyOp38
 70
     1
102
RTVSPropertyOp39
 70
     1
102
RTVSPropertyOp40
 70
     1
102
RTVSPropertyOp41
 70
     1
102
RTVSPropertyOp42
 70
     1
102
RTVSPropertyOp43
 70
     1
102
RTVSPropertyOp44
 70
     1
102
RTVSPropertyOp45
 70
     1
102
RTVSPropertyOp46
 70
     1
102
RTVSPropertyOp47
 70
     1
102
RTVSPropertyOp48
 70
     1
102
RTVSPropertyOp49
 70
     1
102
RTVSPropertyOp50
 70
     1
102
RTVSPropertyOp51
 70
     0
102
RTVSPropertyOp52
 70
     0
102
RTVSPropertyOp53
 70
     1
102
RTVSPropertyOp54
 70
     1
102
RTVSPropertyOp55
 70
     1
102
RTVSPropertyOp56
 70
     1
102
RTVSPropertyOp57
 70
     1
102
RTVSPost2010Prop28
280
     0
102
RTVSPost2010PropOp28
 70
     1
102
RTVSPost2010Prop29
280
     1
102
RTVSPost2010PropOp29
 70
     1
102
RTVSPost2010Prop30
280
     1
102
RTVSPost2010PropOp30
 70
     1
102
RTVSPost2010Prop31
280
     0
102
RTVSPost2010PropOp31
 70
     1
102
RTVSPost2010Prop32
280
     0
102
RTVSPost2010PropOp32
 70
     1
102
RTVSPost2010Prop33
280
     0
102
RTVSPost2010PropOp33
 70
     1
102
RTVSPost2010Prop34
280
     0
102
RTVSPost2010PropOp34
 70
     1
102
RTVSPost2010Prop35
280
     0
102
RTVSPost2010PropOp35
 70
     1
102
RTVSPost2010Prop36
280
     0
102
RTVSPost2010PropOp36
 70
     1
102
RTVSPost2010Prop37
 90
       50
102
RTVSPost2010PropOp37
 70
     1
102
RTVSPost2010Prop38
140
0.0
102
RTVSPost2010PropOp38
 70
     1
102
RTVSPost2010Prop39
140
1.0
102
RTVSPost2010PropOp39
 70
     1
102
RTVSPost2010Prop40
 90
        0
102
RTVSPost2010PropOp40
 70
     1
102
RTVSPost2010Prop41ColorIndex
 90
       18
102
RTVSPost2010Prop41ColorRGB
 90
        0
102
RTVSPost2010PropOp41
 70
     1
102
RTVSPost2010Prop42
 90
       50
102
RTVSPost2010PropOp42
 70
     1
102
RTVSPost2010Prop43
 90
        3
102
RTVSPost2010PropOp43
 70
     1
102
RTVSPost2010Prop44ColorIndex
 90
        5
102
RTVSPost2010Prop44ColorRGB
 90
      255
102
RTVSPost2010PropOp44
 70
     1
102
RTVSPost2010Prop45
280
     0
102
RTVSPost2010PropOp45
 70
     1
102
RTVSPost2010Prop46
 90
       50
102
RTVSPost2010PropOp46
 70
     1
102
RTVSPost2010Prop47
 90
       50
102
RTVSPost2010PropOp47
 70
     1
102
RTVSPost2010Prop48
 90
       50
102
RTVSPost2010PropOp48
 70
     1
102
RTVSPost2010Prop49
280
     0
102
RTVSPost2010PropOp49
 70
     1
102
RTVSPost2010Prop50
 90
       50
102
RTVSPost2010PropOp50
 70
     1
102
RTVSPost2010Prop51ColorIndex
 90
      256
102
RTVSPost2010Prop51ColorRGB
 90
-16777216
102
RTVSPost2010PropOp51
 70
     0
102
RTVSPost2010Prop52
140
1.0
102
RTVSPost2010PropOp52
 70
     0
102
RTVSPost2010Prop53
 90
        2
102
RTVSPost2010PropOp53
 70
     1
102
RTVSPost2010Prop54
  1
strokes_ogs.tif
102
RTVSPost2010PropOp54
 70
     1
102
RTVSPost2010Prop55
280
     0
102
RTVSPost2010PropOp55
 70
     1
102
RTVSPost2010Prop56
140
1.0
102
RTVSPost2010PropOp56
 70
     1
102
RTVSPost2010Prop57
140
1.0
102
RTVSPost2010PropOp57
 70
     1
  0
XRECORD
  5
83
102
{ACAD_REACTORS
330
82
102
}
330
82
100
AcDbXrecord
280
     1
102
RTVSPropertyOp0
 70
     1
102
RTVSPropertyOp1
 70
     1
102
RTVSPropertyOp2
 70
     1
102
RTVSPropertyOp3
 70
     1
102
RTVSPropertyOp4
 70
     1
102
RTVSPropertyOp5
 70
     1
102
RTVSPropertyOp6
 70
     1
102
RTVSPropertyOp7
 70
     1
102
RTVSPropertyOp8
 70
     1
102
RTVSPropertyOp9
 70
     1
102
RTVSPropertyOp10
 70
     1
102
RTVSPropertyOp11
 70
     1
102
RTVSPropertyOp12
 70
     1
102
RTVSPropertyOp13
 70
     1
102
RTVSPropertyOp14
 70
     1
102
RTVSPropertyOp15
 70
     1
102
RTVSPropertyOp16
 70
     1
102
RTVSPropertyOp17
 70
     1
102
RTVSPropertyOp18
 70
     1
102
RTVSPropertyOp19
 70
     1
102
RTVSPropertyOp20
 70
     1
102
RTVSPropertyOp21
 70
     1
102
RTVSPropertyOp22
 70
     1
102
RTVSPropertyOp23
 70
     1
102
RTVSPropertyOp24
 70
     1
102
RTVSPropertyOp25
 70
     1
102
RTVSPropertyOp26
 70
     1
102
RTVSPropertyOp27
 70
     1
102
RTVSPropertyOp28
 70
     1
102
RTVSPropertyOp29
 70
     1
102
RTVSPropertyOp30
 70
     1
102
RTVSPropertyOp31
 70
     1
102
RTVSPropertyOp32
 70
     1
102
RTVSPropertyOp33
 70
     1
102
RTVSPropertyOp34
 70
     1
102
RTVSPropertyOp35
 70
     1
102
RTVSPropertyOp36
 70
     1
102
RTVSPropertyOp37
 70
     1
102
RTVSPropertyOp38
 70
     1
102
RTVSPropertyOp39
 70
     1
102
RTVSPropertyOp40
 70
     1
102
RTVSPropertyOp41
 70
     1
102
RTVSPropertyOp42
 70
     1
102
RTVSPropertyOp43
 70
     1
102
RTVSPropertyOp44
 70
     1
102
RTVSPropertyOp45
 70
     1
102
RTVSPropertyOp46
 70
     1
102
RTVSPropertyOp47
 70
     1
102
RTVSPropertyOp48
 70
     1
102
RTVSPropertyOp49
 70
     1
102
RTVSPropertyOp50
 70
     1
102
RTVSPropertyOp51
 70
     0
102
RTVSPropertyOp52
 70
     0
102
RTVSPropertyOp53
 70
     1
102
RTVSPropertyOp54
 70
     1
102
RTVSPropertyOp55
 70
     1
102
RTVSPropertyOp56
 70
     1
102
RTVSPropertyOp57
 70
     1
102
RTVSPost2010Prop28
280
     0
102
RTVSPost2010PropOp28
 70
     1
102
RTVSPost2010Prop29
280
     1
102
RTVSPost2010PropOp29
 70
     1
102
RTVSPost2010Prop30
280
     1
102
RTVSPost2010PropOp30
 70
     1
102
RTVSPost2010Prop31
280
     0
102
RTVSPost2010PropOp31
 70
     1
102
RTVSPost2010Prop32
280
     0
102
RTVSPost2010PropOp32
 70
     1
102
RTVSPost2010Prop33
280
     0
102
RTVSPost2010PropOp33
 70
     1
102
RTVSPost2010Prop34
280
     0
102
RTVSPost2010PropOp34
 70
     1
102
RTVSPost2010Prop35
280
     0
102
RTVSPost2010PropOp35
 70
     1
102
RTVSPost2010Prop36
280
     0
102
RTVSPost2010PropOp36
 70
     1
102
RTVSPost2010Prop37
 90
       50
102
RTVSPost2010PropOp37
 70
     1
102
RTVSPost2010Prop38
140
0.0
102
RTVSPost2010PropOp38
 70
     1
102
RTVSPost2010Prop39
140
1.0
102
RTVSPost2010PropOp39
 70
     1
102
RTVSPost2010Prop40
 90
        0
102
RTVSPost2010PropOp40
 70
     1
102
RTVSPost2010Prop41ColorIndex
 90
       18
102
RTVSPost2010Prop41ColorRGB
 90
        0
102
RTVSPost2010PropOp41
 70
     1
102
RTVSPost2010Prop42
 90
       50
102
RTVSPost2010PropOp42
 70
     1
102
RTVSPost2010Prop43
 90
        3
102
RTVSPost2010PropOp43
 70
     1
102
RTVSPost2010Prop44ColorIndex
 90
        5
102
RTVSPost2010Prop44ColorRGB
 90
      255
102
RTVSPost2010PropOp44
 70
     1
102
RTVSPost2010Prop45
280
     0
102
RTVSPost2010PropOp45
 70
     1
102
RTVSPost2010Prop46
 90
       50
102
RTVSPost2010PropOp46
 70
     1
102
RTVSPost2010Prop47
 90
       50
102
RTVSPost2010PropOp47
 70
     1
102
RTVSPost2010Prop48
 90
       50
102
RTVSPost2010PropOp48
 70
     1
102
RTVSPost2010Prop49
280
     0
102
RTVSPost2010PropOp49
 70
     1
102
RTVSPost2010Prop50
 90
       50
102
RTVSPost2010PropOp50
 70
     1
102
RTVSPost2010Prop51ColorIndex
 90
      256
102
RTVSPost2010Prop51ColorRGB
 90
-16777216
102
RTVSPost2010PropOp51
 70
     0
102
RTVSPost2010Prop52
140
1.0
102
RTVSPost2010PropOp52
 70
     0
102
RTVSPost2010Prop53
 90
        2
102
RTVSPost2010PropOp53
 70
     1
102
RTVSPost2010Prop54
  1
strokes_ogs.tif
102
RTVSPost2010PropOp54
 70
     1
102
RTVSPost2010Prop55
280
     0
102
RTVSPost2010PropOp55
 70
     1
102
RTVSPost2010Prop56
140
1.0
102
RTVSPost2010PropOp56
 70
     1
102
RTVSPost2010Prop57
140
1.0
102
RTVSPost2010PropOp57
 70
     1
  0
XRECORD
  5
85
102
{ACAD_REACTORS
330
84
102
}
330
84
100
AcDbXrecord
280
     1
102
RTVSPropertyOp0
 70
     1
102
RTVSPropertyOp1
 70
     1
102
RTVSPropertyOp2
 70
     1
102
RTVSPropertyOp3
 70
     1
102
RTVSPropertyOp4
 70
     1
102
RTVSPropertyOp5
 70
     1
102
RTVSPropertyOp6
 70
     1
102
RTVSPropertyOp7
 70
     1
102
RTVSPropertyOp8
 70
     1
102
RTVSPropertyOp9
 70
     1
102
RTVSPropertyOp10
 70
     1
102
RTVSPropertyOp11
 70
     1
102
RTVSPropertyOp12
 70
     1
102
RTVSPropertyOp13
 70
     1
102
RTVSPropertyOp14
 70
     1
102
RTVSPropertyOp15
 70
     1
102
RTVSPropertyOp16
 70
     1
102
RTVSPropertyOp17
 70
     1
102
RTVSPropertyOp18
 70
     1
102
RTVSPropertyOp19
 70
     1
102
RTVSPropertyOp20
 70
     1
102
RTVSPropertyOp21
 70
     1
102
RTVSPropertyOp22
 70
     1
102
RTVSPropertyOp23
 70
     1
102
RTVSPropertyOp24
 70
     1
102
RTVSPropertyOp25
 70
     1
102
RTVSPropertyOp26
 70
     1
102
RTVSPropertyOp27
 70
     1
102
RTVSPropertyOp28
 70
     1
102
RTVSPropertyOp29
 70
     1
102
RTVSPropertyOp30
 70
     1
102
RTVSPropertyOp31
 70
     1
102
RTVSPropertyOp32
 70
     1
102
RTVSPropertyOp33
 70
     1
102
RTVSPropertyOp34
 70
     1
102
RTVSPropertyOp35
 70
     1
102
RTVSPropertyOp36
 70
     1
102
RTVSPropertyOp37
 70
     1
102
RTVSPropertyOp38
 70
     1
102
RTVSPropertyOp39
 70
     1
102
RTVSPropertyOp40
 70
     1
102
RTVSPropertyOp41
 70
     1
102
RTVSPropertyOp42
 70
     1
102
RTVSPropertyOp43
 70
     1
102
RTVSPropertyOp44
 70
     1
102
RTVSPropertyOp45
 70
     1
102
RTVSPropertyOp46
 70
     1
102
RTVSPropertyOp47
 70
     1
102
RTVSPropertyOp48
 70
     1
102
RTVSPropertyOp49
 70
     1
102
RTVSPropertyOp50
 70
     1
102
RTVSPropertyOp51
 70
     0
102
RTVSPropertyOp52
 70
     0
102
RTVSPropertyOp53
 70
     1
102
RTVSPropertyOp54
 70
     1
102
RTVSPropertyOp55
 70
     1
102
RTVSPropertyOp56
 70
     1
102
RTVSPropertyOp57
 70
     1
102
RTVSPost2010Prop28
280
     0
102
RTVSPost2010PropOp28
 70
     1
102
RTVSPost2010Prop29
280
     1
102
RTVSPost2010PropOp29
 70
     1
102
RTVSPost2010Prop30
280
     1
102
RTVSPost2010PropOp30
 70
     1
102
RTVSPost2010Prop31
280
     0
102
RTVSPost2010PropOp31
 70
     1
102
RTVSPost2010Prop32
280
     0
102
RTVSPost2010PropOp32
 70
     1
102
RTVSPost2010Prop33
280
     0
102
RTVSPost2010PropOp33
 70
     1
102
RTVSPost2010Prop34
280
     0
102
RTVSPost2010PropOp34
 70
     1
102
RTVSPost2010Prop35
280
     0
102
RTVSPost2010PropOp35
 70
     1
102
RTVSPost2010Prop36
280
     0
102
RTVSPost2010PropOp36
 70
     1
102
RTVSPost2010Prop37
 90
       50
102
RTVSPost2010PropOp37
 70
     1
102
RTVSPost2010Prop38
140
0.0
102
RTVSPost2010PropOp38
 70
     1
102
RTVSPost2010Prop39
140
1.0
102
RTVSPost2010PropOp39
 70
     1
102
RTVSPost2010Prop40
 90
        0
102
RTVSPost2010PropOp40
 70
     1
102
RTVSPost2010Prop41ColorIndex
 90
       18
102
RTVSPost2010Prop41ColorRGB
 90
        0
102
RTVSPost2010PropOp41
 70
     1
102
RTVSPost2010Prop42
 90
       50
102
RTVSPost2010PropOp42
 70
     1
102
RTVSPost2010Prop43
 90
        3
102
RTVSPost2010PropOp43
 70
     1
102
RTVSPost2010Prop44ColorIndex
 90
        5
102
RTVSPost2010Prop44ColorRGB
 90
      255
102
RTVSPost2010PropOp44
 70
     1
102
RTVSPost2010Prop45
280
     0
102
RTVSPost2010PropOp45
 70
     1
102
RTVSPost2010Prop46
 90
       50
102
RTVSPost2010PropOp46
 70
     1
102
RTVSPost2010Prop47
 90
       50
102
RTVSPost2010PropOp47
 70
     1
102
RTVSPost2010Prop48
 90
       50
102
RTVSPost2010PropOp48
 70
     1
102
RTVSPost2010Prop49
280
     0
102
RTVSPost2010PropOp49
 70
     1
102
RTVSPost2010Prop50
 90
       50
102
RTVSPost2010PropOp50
 70
     1
102
RTVSPost2010Prop51ColorIndex
 90
      256
102
RTVSPost2010Prop51ColorRGB
 90
-16777216
102
RTVSPost2010PropOp51
 70
     0
102
RTVSPost2010Prop52
140
1.0
102
RTVSPost2010PropOp52
 70
     0
102
RTVSPost2010Prop53
 90
        2
102
RTVSPost2010PropOp53
 70
     1
102
RTVSPost2010Prop54
  1
strokes_ogs.tif
102
RTVSPost2010PropOp54
 70
     1
102
RTVSPost2010Prop55
280
     0
102
RTVSPost2010PropOp55
 70
     1
102
RTVSPost2010Prop56
140
1.0
102
RTVSPost2010PropOp56
 70
     1
102
RTVSPost2010Prop57
140
1.0
102
RTVSPost2010PropOp57
 70
     1
  0
XRECORD
  5
87
102
{ACAD_REACTORS
330
86
102
}
330
86
100
AcDbXrecord
280
     1
102
RTVSPropertyOp0
 70
     1
102
RTVSPropertyOp1
 70
     1
102
RTVSPropertyOp2
 70
     1
102
RTVSPropertyOp3
 70
     1
102
RTVSPropertyOp4
 70
     1
102
RTVSPropertyOp5
 70
     1
102
RTVSPropertyOp6
 70
     1
102
RTVSPropertyOp7
 70
     1
102
RTVSPropertyOp8
 70
     1
102
RTVSPropertyOp9
 70
     1
102
RTVSPropertyOp10
 70
     1
102
RTVSPropertyOp11
 70
     1
102
RTVSPropertyOp12
 70
     1
102
RTVSPropertyOp13
 70
     1
102
RTVSPropertyOp14
 70
     1
102
RTVSPropertyOp15
 70
     1
102
RTVSPropertyOp16
 70
     1
102
RTVSPropertyOp17
 70
     1
102
RTVSPropertyOp18
 70
     1
102
RTVSPropertyOp19
 70
     1
102
RTVSPropertyOp20
 70
     1
102
RTVSPropertyOp21
 70
     1
102
RTVSPropertyOp22
 70
     1
102
RTVSPropertyOp23
 70
     1
102
RTVSPropertyOp24
 70
     1
102
RTVSPropertyOp25
 70
     1
102
RTVSPropertyOp26
 70
     1
102
RTVSPropertyOp27
 70
     1
102
RTVSPropertyOp28
 70
     1
102
RTVSPropertyOp29
 70
     1
102
RTVSPropertyOp30
 70
     1
102
RTVSPropertyOp31
 70
     1
102
RTVSPropertyOp32
 70
     1
102
RTVSPropertyOp33
 70
     1
102
RTVSPropertyOp34
 70
     1
102
RTVSPropertyOp35
 70
     1
102
RTVSPropertyOp36
 70
     1
102
RTVSPropertyOp37
 70
     1
102
RTVSPropertyOp38
 70
     1
102
RTVSPropertyOp39
 70
     1
102
RTVSPropertyOp40
 70
     1
102
RTVSPropertyOp41
 70
     1
102
RTVSPropertyOp42
 70
     1
102
RTVSPropertyOp43
 70
     1
102
RTVSPropertyOp44
 70
     1
102
RTVSPropertyOp45
 70
     1
102
RTVSPropertyOp46
 70
     1
102
RTVSPropertyOp47
 70
     1
102
RTVSPropertyOp48
 70
     1
102
RTVSPropertyOp49
 70
     1
102
RTVSPropertyOp50
 70
     1
102
RTVSPropertyOp51
 70
     0
102
RTVSPropertyOp52
 70
     0
102
RTVSPropertyOp53
 70
     1
102
RTVSPropertyOp54
 70
     1
102
RTVSPropertyOp55
 70
     1
102
RTVSPropertyOp56
 70
     1
102
RTVSPropertyOp57
 70
     1
102
RTVSPost2010Prop28
280
     0
102
RTVSPost2010PropOp28
 70
     1
102
RTVSPost2010Prop29
280
     1
102
RTVSPost2010PropOp29
 70
     1
102
RTVSPost2010Prop30
280
     1
102
RTVSPost2010PropOp30
 70
     1
102
RTVSPost2010Prop31
280
     0
102
RTVSPost2010PropOp31
 70
     1
102
RTVSPost2010Prop32
280
     0
102
RTVSPost2010PropOp32
 70
     1
102
RTVSPost2010Prop33
280
     0
102
RTVSPost2010PropOp33
 70
     1
102
RTVSPost2010Prop34
280
     0
102
RTVSPost2010PropOp34
 70
     1
102
RTVSPost2010Prop35
280
     0
102
RTVSPost2010PropOp35
 70
     1
102
RTVSPost2010Prop36
280
     0
102
RTVSPost2010PropOp36
 70
     1
102
RTVSPost2010Prop37
 90
       50
102
RTVSPost2010PropOp37
 70
     1
102
RTVSPost2010Prop38
140
0.0
102
RTVSPost2010PropOp38
 70
     1
102
RTVSPost2010Prop39
140
1.0
102
RTVSPost2010PropOp39
 70
     1
102
RTVSPost2010Prop40
 90
        0
102
RTVSPost2010PropOp40
 70
     1
102
RTVSPost2010Prop41ColorIndex
 90
       18
102
RTVSPost2010Prop41ColorRGB
 90
        0
102
RTVSPost2010PropOp41
 70
     1
102
RTVSPost2010Prop42
 90
       50
102
RTVSPost2010PropOp42
 70
     1
102
RTVSPost2010Prop43
 90
        3
102
RTVSPost2010PropOp43
 70
     1
102
RTVSPost2010Prop44ColorIndex
 90
        5
102
RTVSPost2010Prop44ColorRGB
 90
      255
102
RTVSPost2010PropOp44
 70
     1
102
RTVSPost2010Prop45
280
     0
102
RTVSPost2010PropOp45
 70
     1
102
RTVSPost2010Prop46
 90
       50
102
RTVSPost2010PropOp46
 70
     1
102
RTVSPost2010Prop47
 90
       50
102
RTVSPost2010PropOp47
 70
     1
102
RTVSPost2010Prop48
 90
       50
102
RTVSPost2010PropOp48
 70
     1
102
RTVSPost2010Prop49
280
     0
102
RTVSPost2010PropOp49
 70
     1
102
RTVSPost2010Prop50
 90
       50
102
RTVSPost2010PropOp50
 70
     1
102
RTVSPost2010Prop51ColorIndex
 90
      256
102
RTVSPost2010Prop51ColorRGB
 90
-16777216
102
RTVSPost2010PropOp51
 70
     0
102
RTVSPost2010Prop52
140
1.0
102
RTVSPost2010PropOp52
 70
     0
102
RTVSPost2010Prop53
 90
        2
102
RTVSPost2010PropOp53
 70
     1
102
RTVSPost2010Prop54
  1
strokes_ogs.tif
102
RTVSPost2010PropOp54
 70
     1
102
RTVSPost2010Prop55
280
     0
102
RTVSPost2010PropOp55
 70
     1
102
RTVSPost2010Prop56
140
1.0
102
RTVSPost2010PropOp56
 70
     1
102
RTVSPost2010Prop57
140
1.0
102
RTVSPost2010PropOp57
 70
     1
  0
XRECORD
  5
89
102
{ACAD_REACTORS
330
88
102
}
330
88
100
AcDbXrecord
280
     1
102
RTVSPropertyOp0
 70
     1
102
RTVSPropertyOp1
 70
     1
102
RTVSPropertyOp2
 70
     1
102
RTVSPropertyOp3
 70
     1
102
RTVSPropertyOp4
 70
     1
102
RTVSPropertyOp5
 70
     1
102
RTVSPropertyOp6
 70
     1
102
RTVSPropertyOp7
 70
     1
102
RTVSPropertyOp8
 70
     1
102
RTVSPropertyOp9
 70
     1
102
RTVSPropertyOp10
 70
     1
102
RTVSPropertyOp11
 70
     1
102
RTVSPropertyOp12
 70
     1
102
RTVSPropertyOp13
 70
     1
102
RTVSPropertyOp14
 70
     1
102
RTVSPropertyOp15
 70
     1
102
RTVSPropertyOp16
 70
     1
102
RTVSPropertyOp17
 70
     1
102
RTVSPropertyOp18
 70
     1
102
RTVSPropertyOp19
 70
     1
102
RTVSPropertyOp20
 70
     1
102
RTVSPropertyOp21
 70
     1
102
RTVSPropertyOp22
 70
     1
102
RTVSPropertyOp23
 70
     1
102
RTVSPropertyOp24
 70
     1
102
RTVSPropertyOp25
 70
     1
102
RTVSPropertyOp26
 70
     1
102
RTVSPropertyOp27
 70
     1
102
RTVSPropertyOp28
 70
     1
102
RTVSPropertyOp29
 70
     1
102
RTVSPropertyOp30
 70
     1
102
RTVSPropertyOp31
 70
     1
102
RTVSPropertyOp32
 70
     1
102
RTVSPropertyOp33
 70
     1
102
RTVSPropertyOp34
 70
     1
102
RTVSPropertyOp35
 70
     1
102
RTVSPropertyOp36
 70
     1
102
RTVSPropertyOp37
 70
     1
102
RTVSPropertyOp38
 70
     1
102
RTVSPropertyOp39
 70
     1
102
RTVSPropertyOp40
 70
     1
102
RTVSPropertyOp41
 70
     1
102
RTVSPropertyOp42
 70
     1
102
RTVSPropertyOp43
 70
     1
102
RTVSPropertyOp44
 70
     1
102
RTVSPropertyOp45
 70
     1
102
RTVSPropertyOp46
 70
     1
102
RTVSPropertyOp47
 70
     1
102
RTVSPropertyOp48
 70
     1
102
RTVSPropertyOp49
 70
     1
102
RTVSPropertyOp50
 70
     1
102
RTVSPropertyOp51
 70
     0
102
RTVSPropertyOp52
 70
     0
102
RTVSPropertyOp53
 70
     1
102
RTVSPropertyOp54
 70
     1
102
RTVSPropertyOp55
 70
     1
102
RTVSPropertyOp56
 70
     1
102
RTVSPropertyOp57
 70
     1
102
RTVSPost2010Prop28
280
     0
102
RTVSPost2010PropOp28
 70
     1
102
RTVSPost2010Prop29
280
     1
102
RTVSPost2010PropOp29
 70
     1
102
RTVSPost2010Prop30
280
     1
102
RTVSPost2010PropOp30
 70
     1
102
RTVSPost2010Prop31
280
     0
102
RTVSPost2010PropOp31
 70
     1
102
RTVSPost2010Prop32
280
     0
102
RTVSPost2010PropOp32
 70
     1
102
RTVSPost2010Prop33
280
     0
102
RTVSPost2010PropOp33
 70
     1
102
RTVSPost2010Prop34
280
     0
102
RTVSPost2010PropOp34
 70
     1
102
RTVSPost2010Prop35
280
     0
102
RTVSPost2010PropOp35
 70
     1
102
RTVSPost2010Prop36
280
     0
102
RTVSPost2010PropOp36
 70
     1
102
RTVSPost2010Prop37
 90
       50
102
RTVSPost2010PropOp37
 70
     1
102
RTVSPost2010Prop38
140
0.0
102
RTVSPost2010PropOp38
 70
     1
102
RTVSPost2010Prop39
140
1.0
102
RTVSPost2010PropOp39
 70
     1
102
RTVSPost2010Prop40
 90
        0
102
RTVSPost2010PropOp40
 70
     1
102
RTVSPost2010Prop41ColorIndex
 90
       18
102
RTVSPost2010Prop41ColorRGB
 90
        0
102
RTVSPost2010PropOp41
 70
     1
102
RTVSPost2010Prop42
 90
       50
102
RTVSPost2010PropOp42
 70
     1
102
RTVSPost2010Prop43
 90
        3
102
RTVSPost2010PropOp43
 70
     1
102
RTVSPost2010Prop44ColorIndex
 90
        5
102
RTVSPost2010Prop44ColorRGB
 90
      255
102
RTVSPost2010PropOp44
 70
     1
102
RTVSPost2010Prop45
280
     0
102
RTVSPost2010PropOp45
 70
     1
102
RTVSPost2010Prop46
 90
       50
102
RTVSPost2010PropOp46
 70
     1
102
RTVSPost2010Prop47
 90
       50
102
RTVSPost2010PropOp47
 70
     1
102
RTVSPost2010Prop48
 90
       50
102
RTVSPost2010PropOp48
 70
     1
102
RTVSPost2010Prop49
280
     0
102
RTVSPost2010PropOp49
 70
     1
102
RTVSPost2010Prop50
 90
       50
102
RTVSPost2010PropOp50
 70
     1
102
RTVSPost2010Prop51ColorIndex
 90
      256
102
RTVSPost2010Prop51ColorRGB
 90
-16777216
102
RTVSPost2010PropOp51
 70
     0
102
RTVSPost2010Prop52
140
1.0
102
RTVSPost2010PropOp52
 70
     0
102
RTVSPost2010Prop53
 90
        2
102
RTVSPost2010PropOp53
 70
     1
102
RTVSPost2010Prop54
  1
strokes_ogs.tif
102
RTVSPost2010PropOp54
 70
     1
102
RTVSPost2010Prop55
280
     0
102
RTVSPost2010PropOp55
 70
     1
102
RTVSPost2010Prop56
140
1.0
102
RTVSPost2010PropOp56
 70
     1
102
RTVSPost2010Prop57
140
1.0
102
RTVSPost2010PropOp57
 70
     1
  0
XRECORD
  5
8F
102
{ACAD_REACTORS
330
8E
102
}
330
8E
100
AcDbXrecord
280
     1
102
RTVSPropertyOp0
 70
     1
102
RTVSPropertyOp1
 70
     1
102
RTVSPropertyOp2
 70
     1
102
RTVSPropertyOp3
 70
     1
102
RTVSPropertyOp4
 70
     1
102
RTVSPropertyOp5
 70
     1
102
RTVSPropertyOp6
 70
     1
102
RTVSPropertyOp7
 70
     1
102
RTVSPropertyOp8
 70
     1
102
RTVSPropertyOp9
 70
     1
102
RTVSPropertyOp10
 70
     1
102
RTVSPropertyOp11
 70
     1
102
RTVSPropertyOp12
 70
     1
102
RTVSPropertyOp13
 70
     1
102
RTVSPropertyOp14
 70
     1
102
RTVSPropertyOp15
 70
     1
102
RTVSPropertyOp16
 70
     1
102
RTVSPropertyOp17
 70
     1
102
RTVSPropertyOp18
 70
     1
102
RTVSPropertyOp19
 70
     1
102
RTVSPropertyOp20
 70
     1
102
RTVSPropertyOp21
 70
     1
102
RTVSPropertyOp22
 70
     1
102
RTVSPropertyOp23
 70
     1
102
RTVSPropertyOp24
 70
     1
102
RTVSPropertyOp25
 70
     1
102
RTVSPropertyOp26
 70
     1
102
RTVSPropertyOp27
 70
     1
102
RTVSPropertyOp28
 70
     1
102
RTVSPropertyOp29
 70
     1
102
RTVSPropertyOp30
 70
     1
102
RTVSPropertyOp31
 70
     1
102
RTVSPropertyOp32
 70
     1
102
RTVSPropertyOp33
 70
     1
102
RTVSPropertyOp34
 70
     1
102
RTVSPropertyOp35
 70
     1
102
RTVSPropertyOp36
 70
     1
102
RTVSPropertyOp37
 70
     1
102
RTVSPropertyOp38
 70
     1
102
RTVSPropertyOp39
 70
     1
102
RTVSPropertyOp40
 70
     1
102
RTVSPropertyOp41
 70
     1
102
RTVSPropertyOp42
 70
     1
102
RTVSPropertyOp43
 70
     1
102
RTVSPropertyOp44
 70
     1
102
RTVSPropertyOp45
 70
     1
102
RTVSPropertyOp46
 70
     1
102
RTVSPropertyOp47
 70
     1
102
RTVSPropertyOp48
 70
     1
102
RTVSPropertyOp49
 70
     1
102
RTVSPropertyOp50
 70
     1
102
RTVSPropertyOp51
 70
     0
102
RTVSPropertyOp52
 70
     0
102
RTVSPropertyOp53
 70
     1
102
RTVSPropertyOp54
 70
     1
102
RTVSPropertyOp55
 70
     1
102
RTVSPropertyOp56
 70
     1
102
RTVSPropertyOp57
 70
     1
102
RTVSPost2010Prop28
280
     0
102
RTVSPost2010PropOp28
 70
     1
102
RTVSPost2010Prop29
280
     1
102
RTVSPost2010PropOp29
 70
     1
102
RTVSPost2010Prop30
280
     1
102
RTVSPost2010PropOp30
 70
     1
102
RTVSPost2010Prop31
280
     0
102
RTVSPost2010PropOp31
 70
     1
102
RTVSPost2010Prop32
280
     0
102
RTVSPost2010PropOp32
 70
     1
102
RTVSPost2010Prop33
280
     0
102
RTVSPost2010PropOp33
 70
     1
102
RTVSPost2010Prop34
280
     0
102
RTVSPost2010PropOp34
 70
     1
102
RTVSPost2010Prop35
280
     0
102
RTVSPost2010PropOp35
 70
     1
102
RTVSPost2010Prop36
280
     0
102
RTVSPost2010PropOp36
 70
     1
102
RTVSPost2010Prop37
 90
       50
102
RTVSPost2010PropOp37
 70
     1
102
RTVSPost2010Prop38
140
0.0
102
RTVSPost2010PropOp38
 70
     1
102
RTVSPost2010Prop39
140
1.0
102
RTVSPost2010PropOp39
 70
     1
102
RTVSPost2010Prop40
 90
        0
102
RTVSPost2010PropOp40
 70
     1
102
RTVSPost2010Prop41ColorIndex
 90
       18
102
RTVSPost2010Prop41ColorRGB
 90
        0
102
RTVSPost2010PropOp41
 70
     1
102
RTVSPost2010Prop42
 90
       50
102
RTVSPost2010PropOp42
 70
     1
102
RTVSPost2010Prop43
 90
        3
102
RTVSPost2010PropOp43
 70
     1
102
RTVSPost2010Prop44ColorIndex
 90
        5
102
RTVSPost2010Prop44ColorRGB
 90
      255
102
RTVSPost2010PropOp44
 70
     1
102
RTVSPost2010Prop45
280
     0
102
RTVSPost2010PropOp45
 70
     1
102
RTVSPost2010Prop46
 90
       50
102
RTVSPost2010PropOp46
 70
     1
102
RTVSPost2010Prop47
 90
       50
102
RTVSPost2010PropOp47
 70
     1
102
RTVSPost2010Prop48
 90
       50
102
RTVSPost2010PropOp48
 70
     1
102
RTVSPost2010Prop49
280
     0
102
RTVSPost2010PropOp49
 70
     1
102
RTVSPost2010Prop50
 90
       50
102
RTVSPost2010PropOp50
 70
     1
102
RTVSPost2010Prop51ColorIndex
 90
      256
102
RTVSPost2010Prop51ColorRGB
 90
-16777216
102
RTVSPost2010PropOp51
 70
     0
102
RTVSPost2010Prop52
140
1.0
102
RTVSPost2010PropOp52
 70
     0
102
RTVSPost2010Prop53
 90
        2
102
RTVSPost2010PropOp53
 70
     1
102
RTVSPost2010Prop54
  1
strokes_ogs.tif
102
RTVSPost2010PropOp54
 70
     1
102
RTVSPost2010Prop55
280
     0
102
RTVSPost2010PropOp55
 70
     1
102
RTVSPost2010Prop56
140
1.0
102
RTVSPost2010PropOp56
 70
     1
102
RTVSPost2010Prop57
140
1.0
102
RTVSPost2010PropOp57
 70
     1
  0
XRECORD
  5
A3
102
{ACAD_REACTORS
330
A2
102
}
330
A2
100
AcDbXrecord
280
     1
102
RTVSPropertyOp0
 70
     0
102
RTVSPropertyOp1
 70
     0
102
RTVSPropertyOp2
 70
     0
102
RTVSPropertyOp3
 70
     0
102
RTVSPropertyOp4
 70
     0
102
RTVSPropertyOp5
 70
     0
102
RTVSPropertyOp6
 70
     0
102
RTVSPropertyOp7
 70
     0
102
RTVSPropertyOp8
 70
     0
102
RTVSPropertyOp9
 70
     0
102
RTVSPropertyOp10
 70
     0
102
RTVSPropertyOp11
 70
     0
102
RTVSPropertyOp12
 70
     0
102
RTVSPropertyOp13
 70
     0
102
RTVSPropertyOp14
 70
     2
102
RTVSPropertyOp15
 70
     0
102
RTVSPropertyOp16
 70
     0
102
RTVSPropertyOp17
 70
     0
102
RTVSPropertyOp18
 70
     0
102
RTVSPropertyOp19
 70
     0
102
RTVSPropertyOp20
 70
     0
102
RTVSPropertyOp21
 70
     0
102
RTVSPropertyOp22
 70
     0
102
RTVSPropertyOp23
 70
     0
102
RTVSPropertyOp24
 70
     0
102
RTVSPropertyOp25
 70
     0
102
RTVSPropertyOp26
 70
     0
102
RTVSPropertyOp27
 70
     0
102
RTVSPropertyOp28
 70
     0
102
RTVSPropertyOp29
 70
     0
102
RTVSPropertyOp30
 70
     0
102
RTVSPropertyOp31
 70
     0
102
RTVSPropertyOp32
 70
     0
102
RTVSPropertyOp33
 70
     0
102
RTVSPropertyOp34
 70
     0
102
RTVSPropertyOp35
 70
     0
102
RTVSPropertyOp36
 70
     0
102
RTVSPropertyOp37
 70
     0
102
RTVSPropertyOp38
 70
     0
102
RTVSPropertyOp39
 70
     0
102
RTVSPropertyOp40
 70
     0
102
RTVSPropertyOp41
 70
     0
102
RTVSPropertyOp42
 70
     0
102
RTVSPropertyOp43
 70
     0
102
RTVSPropertyOp44
 70
     0
102
RTVSPropertyOp45
 70
     0
102
RTVSPropertyOp46
 70
     0
102
RTVSPropertyOp47
 70
     0
102
RTVSPropertyOp48
 70
     0
102
RTVSPropertyOp49
 70
     0
102
RTVSPropertyOp50
 70
     0
102
RTVSPropertyOp51
 70
     0
102
RTVSPropertyOp52
 70
     0
102
RTVSPropertyOp53
 70
     0
102
RTVSPropertyOp54
 70
     0
102
RTVSPropertyOp55
 70
     0
102
RTVSPropertyOp56
 70
     0
102
RTVSPropertyOp57
 70
     0
102
RTVSPost2010Prop28
280
     0
102
RTVSPost2010PropOp28
 70
     0
102
RTVSPost2010Prop29
280
     1
102
RTVSPost2010PropOp29
 70
     0
102
RTVSPost2010Prop30
280
     1
102
RTVSPost2010PropOp30
 70
     0
102
RTVSPost2010Prop31
280
     0
102
RTVSPost2010PropOp31
 70
     0
102
RTVSPost2010Prop32
280
     0
102
RTVSPost2010PropOp32
 70
     0
102
RTVSPost2010Prop33
280
     0
102
RTVSPost2010PropOp33
 70
     0
102
RTVSPost2010Prop34
280
     0
102
RTVSPost2010PropOp34
 70
     0
102
RTVSPost2010Prop35
280
     0
102
RTVSPost2010PropOp35
 70
     0
102
RTVSPost2010Prop36
280
     0
102
RTVSPost2010PropOp36
 70
     0
102
RTVSPost2010Prop37
 90
       50
102
RTVSPost2010PropOp37
 70
     0
102
RTVSPost2010Prop38
140
0.0
102
RTVSPost2010PropOp38
 70
     0
102
RTVSPost2010Prop39
140
1.0
102
RTVSPost2010PropOp39
 70
     0
102
RTVSPost2010Prop40
 90
        0
102
RTVSPost2010PropOp40
 70
     0
102
RTVSPost2010Prop41ColorIndex
 90
       18
102
RTVSPost2010Prop41ColorRGB
 90
        0
102
RTVSPost2010PropOp41
 70
     0
102
RTVSPost2010Prop42
 90
       50
102
RTVSPost2010PropOp42
 70
     0
102
RTVSPost2010Prop43
 90
        3
102
RTVSPost2010PropOp43
 70
     0
102
RTVSPost2010Prop44ColorIndex
 90
        5
102
RTVSPost2010Prop44ColorRGB
 90
      255
102
RTVSPost2010PropOp44
 70
     0
102
RTVSPost2010Prop45
280
     0
102
RTVSPost2010PropOp45
 70
     0
102
RTVSPost2010Prop46
 90
       50
102
RTVSPost2010PropOp46
 70
     0
102
RTVSPost2010Prop47
 90
       50
102
RTVSPost2010PropOp47
 70
     0
102
RTVSPost2010Prop48
 90
       50
102
RTVSPost2010PropOp48
 70
     0
102
RTVSPost2010Prop49
280
     0
102
RTVSPost2010PropOp49
 70
     0
102
RTVSPost2010Prop50
 90
       50
102
RTVSPost2010PropOp50
 70
     0
102
RTVSPost2010Prop51ColorIndex
 90
      256
102
RTVSPost2010Prop51ColorRGB
 90
-16777216
102
RTVSPost2010PropOp51
 70
     0
102
RTVSPost2010Prop52
140
1.0
102
RTVSPost2010PropOp52
 70
     0
102
RTVSPost2010Prop53
 90
        2
102
RTVSPost2010PropOp53
 70
     0
102
RTVSPost2010Prop54
  1
strokes_ogs.tif
102
RTVSPost2010PropOp54
 70
     0
102
RTVSPost2010Prop55
280
     0
102
RTVSPost2010PropOp55
 70
     0
102
RTVSPost2010Prop56
140
1.0
102
RTVSPost2010PropOp56
 70
     0
102
RTVSPost2010Prop57
140
1.0
102
RTVSPost2010PropOp57
 70
     0
  0
XRECORD
  5
9D
102
{ACAD_REACTORS
330
9C
102
}
330
9C
100
AcDbXrecord
280
     1
102
RTVSPropertyOp0
 70
     1
102
RTVSPropertyOp1
 70
     1
102
RTVSPropertyOp2
 70
     1
102
RTVSPropertyOp3
 70
     1
102
RTVSPropertyOp4
 70
     1
102
RTVSPropertyOp5
 70
     1
102
RTVSPropertyOp6
 70
     1
102
RTVSPropertyOp7
 70
     1
102
RTVSPropertyOp8
 70
     1
102
RTVSPropertyOp9
 70
     1
102
RTVSPropertyOp10
 70
     1
102
RTVSPropertyOp11
 70
     1
102
RTVSPropertyOp12
 70
     1
102
RTVSPropertyOp13
 70
     1
102
RTVSPropertyOp14
 70
     1
102
RTVSPropertyOp15
 70
     1
102
RTVSPropertyOp16
 70
     1
102
RTVSPropertyOp17
 70
     1
102
RTVSPropertyOp18
 70
     1
102
RTVSPropertyOp19
 70
     1
102
RTVSPropertyOp20
 70
     1
102
RTVSPropertyOp21
 70
     1
102
RTVSPropertyOp22
 70
     1
102
RTVSPropertyOp23
 70
     1
102
RTVSPropertyOp24
 70
     1
102
RTVSPropertyOp25
 70
     1
102
RTVSPropertyOp26
 70
     1
102
RTVSPropertyOp27
 70
     1
102
RTVSPropertyOp28
 70
     1
102
RTVSPropertyOp29
 70
     1
102
RTVSPropertyOp30
 70
     1
102
RTVSPropertyOp31
 70
     1
102
RTVSPropertyOp32
 70
     1
102
RTVSPropertyOp33
 70
     1
102
RTVSPropertyOp34
 70
     1
102
RTVSPropertyOp35
 70
     1
102
RTVSPropertyOp36
 70
     1
102
RTVSPropertyOp37
 70
     1
102
RTVSPropertyOp38
 70
     1
102
RTVSPropertyOp39
 70
     1
102
RTVSPropertyOp40
 70
     1
102
RTVSPropertyOp41
 70
     1
102
RTVSPropertyOp42
 70
     1
102
RTVSPropertyOp43
 70
     1
102
RTVSPropertyOp44
 70
     1
102
RTVSPropertyOp45
 70
     1
102
RTVSPropertyOp46
 70
     1
102
RTVSPropertyOp47
 70
     1
102
RTVSPropertyOp48
 70
     1
102
RTVSPropertyOp49
 70
     1
102
RTVSPropertyOp50
 70
     1
102
RTVSPropertyOp51
 70
     0
102
RTVSPropertyOp52
 70
     0
102
RTVSPropertyOp53
 70
     1
102
RTVSPropertyOp54
 70
     1
102
RTVSPropertyOp55
 70
     1
102
RTVSPropertyOp56
 70
     1
102
RTVSPropertyOp57
 70
     1
102
RTVSPost2010Prop28
280
     0
102
RTVSPost2010PropOp28
 70
     1
102
RTVSPost2010Prop29
280
     1
102
RTVSPost2010PropOp29
 70
     1
102
RTVSPost2010Prop30
280
     1
102
RTVSPost2010PropOp30
 70
     1
102
RTVSPost2010Prop31
280
     0
102
RTVSPost2010PropOp31
 70
     1
102
RTVSPost2010Prop32
280
     0
102
RTVSPost2010PropOp32
 70
     1
102
RTVSPost2010Prop33
280
     0
102
RTVSPost2010PropOp33
 70
     1
102
RTVSPost2010Prop34
280
     0
102
RTVSPost2010PropOp34
 70
     1
102
RTVSPost2010Prop35
280
     0
102
RTVSPost2010PropOp35
 70
     1
102
RTVSPost2010Prop36
280
     0
102
RTVSPost2010PropOp36
 70
     1
102
RTVSPost2010Prop37
 90
       50
102
RTVSPost2010PropOp37
 70
     1
102
RTVSPost2010Prop38
140
0.0
102
RTVSPost2010PropOp38
 70
     1
102
RTVSPost2010Prop39
140
1.0
102
RTVSPost2010PropOp39
 70
     1
102
RTVSPost2010Prop40
 90
        0
102
RTVSPost2010PropOp40
 70
     1
102
RTVSPost2010Prop41ColorIndex
 90
       18
102
RTVSPost2010Prop41ColorRGB
 90
        0
102
RTVSPost2010PropOp41
 70
     1
102
RTVSPost2010Prop42
 90
       50
102
RTVSPost2010PropOp42
 70
     1
102
RTVSPost2010Prop43
 90
        3
102
RTVSPost2010PropOp43
 70
     1
102
RTVSPost2010Prop44ColorIndex
 90
        5
102
RTVSPost2010Prop44ColorRGB
 90
      255
102
RTVSPost2010PropOp44
 70
     1
102
RTVSPost2010Prop45
280
     0
102
RTVSPost2010PropOp45
 70
     1
102
RTVSPost2010Prop46
 90
       50
102
RTVSPost2010PropOp46
 70
     1
102
RTVSPost2010Prop47
 90
       50
102
RTVSPost2010PropOp47
 70
     1
102
RTVSPost2010Prop48
 90
       50
102
RTVSPost2010PropOp48
 70
     1
102
RTVSPost2010Prop49
280
     0
102
RTVSPost2010PropOp49
 70
     1
102
RTVSPost2010Prop50
 90
       50
102
RTVSPost2010PropOp50
 70
     1
102
RTVSPost2010Prop51ColorIndex
 90
      256
102
RTVSPost2010Prop51ColorRGB
 90
-16777216
102
RTVSPost2010PropOp51
 70
     0
102
RTVSPost2010Prop52
140
1.0
102
RTVSPost2010PropOp52
 70
     0
102
RTVSPost2010Prop53
 90
        2
102
RTVSPost2010PropOp53
 70
     1
102
RTVSPost2010Prop54
  1
strokes_ogs.tif
102
RTVSPost2010PropOp54
 70
     1
102
RTVSPost2010Prop55
280
     0
102
RTVSPost2010PropOp55
 70
     1
102
RTVSPost2010Prop56
140
1.0
102
RTVSPost2010PropOp56
 70
     1
102
RTVSPost2010Prop57
140
1.0
102
RTVSPost2010PropOp57
 70
     1
  0
XRECORD
  5
A5
102
{ACAD_REACTORS
330
A4
102
}
330
A4
100
AcDbXrecord
280
     1
102
RTVSPropertyOp0
 70
     0
102
RTVSPropertyOp1
 70
     0
102
RTVSPropertyOp2
 70
     0
102
RTVSPropertyOp3
 70
     0
102
RTVSPropertyOp4
 70
     0
102
RTVSPropertyOp5
 70
     0
102
RTVSPropertyOp6
 70
     0
102
RTVSPropertyOp7
 70
     0
102
RTVSPropertyOp8
 70
     0
102
RTVSPropertyOp9
 70
     0
102
RTVSPropertyOp10
 70
     0
102
RTVSPropertyOp11
 70
     0
102
RTVSPropertyOp12
 70
     0
102
RTVSPropertyOp13
 70
     0
102
RTVSPropertyOp14
 70
     2
102
RTVSPropertyOp15
 70
     0
102
RTVSPropertyOp16
 70
     0
102
RTVSPropertyOp17
 70
     0
102
RTVSPropertyOp18
 70
     0
102
RTVSPropertyOp19
 70
     0
102
RTVSPropertyOp20
 70
     0
102
RTVSPropertyOp21
 70
     0
102
RTVSPropertyOp22
 70
     0
102
RTVSPropertyOp23
 70
     0
102
RTVSPropertyOp24
 70
     0
102
RTVSPropertyOp25
 70
     0
102
RTVSPropertyOp26
 70
     0
102
RTVSPropertyOp27
 70
     0
102
RTVSPropertyOp28
 70
     0
102
RTVSPropertyOp29
 70
     0
102
RTVSPropertyOp30
 70
     0
102
RTVSPropertyOp31
 70
     0
102
RTVSPropertyOp32
 70
     0
102
RTVSPropertyOp33
 70
     0
102
RTVSPropertyOp34
 70
     0
102
RTVSPropertyOp35
 70
     0
102
RTVSPropertyOp36
 70
     0
102
RTVSPropertyOp37
 70
     0
102
RTVSPropertyOp38
 70
     0
102
RTVSPropertyOp39
 70
     0
102
RTVSPropertyOp40
 70
     0
102
RTVSPropertyOp41
 70
     0
102
RTVSPropertyOp42
 70
     0
102
RTVSPropertyOp43
 70
     0
102
RTVSPropertyOp44
 70
     0
102
RTVSPropertyOp45
 70
     0
102
RTVSPropertyOp46
 70
     0
102
RTVSPropertyOp47
 70
     0
102
RTVSPropertyOp48
 70
     0
102
RTVSPropertyOp49
 70
     0
102
RTVSPropertyOp50
 70
     0
102
RTVSPropertyOp51
 70
     0
102
RTVSPropertyOp52
 70
     0
102
RTVSPropertyOp53
 70
     0
102
RTVSPropertyOp54
 70
     0
102
RTVSPropertyOp55
 70
     0
102
RTVSPropertyOp56
 70
     0
102
RTVSPropertyOp57
 70
     0
102
RTVSPost2010Prop28
280
     0
102
RTVSPost2010PropOp28
 70
     0
102
RTVSPost2010Prop29
280
     1
102
RTVSPost2010PropOp29
 70
     0
102
RTVSPost2010Prop30
280
     1
102
RTVSPost2010PropOp30
 70
     0
102
RTVSPost2010Prop31
280
     0
102
RTVSPost2010PropOp31
 70
     0
102
RTVSPost2010Prop32
280
     0
102
RTVSPost2010PropOp32
 70
     0
102
RTVSPost2010Prop33
280
     0
102
RTVSPost2010PropOp33
 70
     0
102
RTVSPost2010Prop34
280
     0
102
RTVSPost2010PropOp34
 70
     0
102
RTVSPost2010Prop35
280
     0
102
RTVSPost2010PropOp35
 70
     0
102
RTVSPost2010Prop36
280
     0
102
RTVSPost2010PropOp36
 70
     0
102
RTVSPost2010Prop37
 90
       50
102
RTVSPost2010PropOp37
 70
     0
102
RTVSPost2010Prop38
140
0.0
102
RTVSPost2010PropOp38
 70
     0
102
RTVSPost2010Prop39
140
1.0
102
RTVSPost2010PropOp39
 70
     0
102
RTVSPost2010Prop40
 90
        0
102
RTVSPost2010PropOp40
 70
     0
102
RTVSPost2010Prop41ColorIndex
 90
       18
102
RTVSPost2010Prop41ColorRGB
 90
        0
102
RTVSPost2010PropOp41
 70
     0
102
RTVSPost2010Prop42
 90
       50
102
RTVSPost2010PropOp42
 70
     0
102
RTVSPost2010Prop43
 90
        3
102
RTVSPost2010PropOp43
 70
     0
102
RTVSPost2010Prop44ColorIndex
 90
        5
102
RTVSPost2010Prop44ColorRGB
 90
      255
102
RTVSPost2010PropOp44
 70
     0
102
RTVSPost2010Prop45
280
     0
102
RTVSPost2010PropOp45
 70
     0
102
RTVSPost2010Prop46
 90
       50
102
RTVSPost2010PropOp46
 70
     0
102
RTVSPost2010Prop47
 90
       50
102
RTVSPost2010PropOp47
 70
     0
102
RTVSPost2010Prop48
 90
       50
102
RTVSPost2010PropOp48
 70
     0
102
RTVSPost2010Prop49
280
     0
102
RTVSPost2010PropOp49
 70
     0
102
RTVSPost2010Prop50
 90
       50
102
RTVSPost2010PropOp50
 70
     0
102
RTVSPost2010Prop51ColorIndex
 90
      256
102
RTVSPost2010Prop51ColorRGB
 90
-16777216
102
RTVSPost2010PropOp51
 70
     0
102
RTVSPost2010Prop52
140
1.0
102
RTVSPost2010PropOp52
 70
     0
102
RTVSPost2010Prop53
 90
        2
102
RTVSPost2010PropOp53
 70
     0
102
RTVSPost2010Prop54
  1
strokes_ogs.tif
102
RTVSPost2010PropOp54
 70
     0
102
RTVSPost2010Prop55
280
     0
102
RTVSPost2010PropOp55
 70
     0
102
RTVSPost2010Prop56
140
1.0
102
RTVSPost2010PropOp56
 70
     0
102
RTVSPost2010Prop57
140
1.0
102
RTVSPost2010PropOp57
 70
     0
  0
XRECORD
  5
93
102
{ACAD_REACTORS
330
92
102
}
330
92
100
AcDbXrecord
280
     1
102
RTVSPropertyOp0
 70
     1
102
RTVSPropertyOp1
 70
     1
102
RTVSPropertyOp2
 70
     1
102
RTVSPropertyOp3
 70
     1
102
RTVSPropertyOp4
 70
     1
102
RTVSPropertyOp5
 70
     1
102
RTVSPropertyOp6
 70
     1
102
RTVSPropertyOp7
 70
     1
102
RTVSPropertyOp8
 70
     1
102
RTVSPropertyOp9
 70
     1
102
RTVSPropertyOp10
 70
     1
102
RTVSPropertyOp11
 70
     1
102
RTVSPropertyOp12
 70
     1
102
RTVSPropertyOp13
 70
     1
102
RTVSPropertyOp14
 70
     1
102
RTVSPropertyOp15
 70
     1
102
RTVSPropertyOp16
 70
     1
102
RTVSPropertyOp17
 70
     1
102
RTVSPropertyOp18
 70
     1
102
RTVSPropertyOp19
 70
     1
102
RTVSPropertyOp20
 70
     1
102
RTVSPropertyOp21
 70
     1
102
RTVSPropertyOp22
 70
     1
102
RTVSPropertyOp23
 70
     1
102
RTVSPropertyOp24
 70
     1
102
RTVSPropertyOp25
 70
     1
102
RTVSPropertyOp26
 70
     1
102
RTVSPropertyOp27
 70
     1
102
RTVSPropertyOp28
 70
     1
102
RTVSPropertyOp29
 70
     1
102
RTVSPropertyOp30
 70
     1
102
RTVSPropertyOp31
 70
     1
102
RTVSPropertyOp32
 70
     1
102
RTVSPropertyOp33
 70
     1
102
RTVSPropertyOp34
 70
     1
102
RTVSPropertyOp35
 70
     1
102
RTVSPropertyOp36
 70
     1
102
RTVSPropertyOp37
 70
     1
102
RTVSPropertyOp38
 70
     1
102
RTVSPropertyOp39
 70
     1
102
RTVSPropertyOp40
 70
     1
102
RTVSPropertyOp41
 70
     1
102
RTVSPropertyOp42
 70
     1
102
RTVSPropertyOp43
 70
     1
102
RTVSPropertyOp44
 70
     1
102
RTVSPropertyOp45
 70
     1
102
RTVSPropertyOp46
 70
     1
102
RTVSPropertyOp47
 70
     1
102
RTVSPropertyOp48
 70
     1
102
RTVSPropertyOp49
 70
     1
102
RTVSPropertyOp50
 70
     1
102
RTVSPropertyOp51
 70
     0
102
RTVSPropertyOp52
 70
     0
102
RTVSPropertyOp53
 70
     1
102
RTVSPropertyOp54
 70
     1
102
RTVSPropertyOp55
 70
     1
102
RTVSPropertyOp56
 70
     1
102
RTVSPropertyOp57
 70
     1
102
RTVSPost2010Prop28
280
     0
102
RTVSPost2010PropOp28
 70
     1
102
RTVSPost2010Prop29
280
     1
102
RTVSPost2010PropOp29
 70
     1
102
RTVSPost2010Prop30
280
     1
102
RTVSPost2010PropOp30
 70
     1
102
RTVSPost2010Prop31
280
     0
102
RTVSPost2010PropOp31
 70
     1
102
RTVSPost2010Prop32
280
     0
102
RTVSPost2010PropOp32
 70
     1
102
RTVSPost2010Prop33
280
     0
102
RTVSPost2010PropOp33
 70
     1
102
RTVSPost2010Prop34
280
     0
102
RTVSPost2010PropOp34
 70
     1
102
RTVSPost2010Prop35
280
     0
102
RTVSPost2010PropOp35
 70
     1
102
RTVSPost2010Prop36
280
     0
102
RTVSPost2010PropOp36
 70
     1
102
RTVSPost2010Prop37
 90
       50
102
RTVSPost2010PropOp37
 70
     1
102
RTVSPost2010Prop38
140
0.0
102
RTVSPost2010PropOp38
 70
     1
102
RTVSPost2010Prop39
140
1.0
102
RTVSPost2010PropOp39
 70
     1
102
RTVSPost2010Prop40
 90
        0
102
RTVSPost2010PropOp40
 70
     1
102
RTVSPost2010Prop41ColorIndex
 90
       18
102
RTVSPost2010Prop41ColorRGB
 90
        0
102
RTVSPost2010PropOp41
 70
     1
102
RTVSPost2010Prop42
 90
       50
102
RTVSPost2010PropOp42
 70
     1
102
RTVSPost2010Prop43
 90
        3
102
RTVSPost2010PropOp43
 70
     1
102
RTVSPost2010Prop44ColorIndex
 90
        5
102
RTVSPost2010Prop44ColorRGB
 90
      255
102
RTVSPost2010PropOp44
 70
     1
102
RTVSPost2010Prop45
280
     0
102
RTVSPost2010PropOp45
 70
     1
102
RTVSPost2010Prop46
 90
       50
102
RTVSPost2010PropOp46
 70
     1
102
RTVSPost2010Prop47
 90
       50
102
RTVSPost2010PropOp47
 70
     1
102
RTVSPost2010Prop48
 90
       50
102
RTVSPost2010PropOp48
 70
     1
102
RTVSPost2010Prop49
280
     0
102
RTVSPost2010PropOp49
 70
     1
102
RTVSPost2010Prop50
 90
       50
102
RTVSPost2010PropOp50
 70
     1
102
RTVSPost2010Prop51ColorIndex
 90
      256
102
RTVSPost2010Prop51ColorRGB
 90
-16777216
102
RTVSPost2010PropOp51
 70
     0
102
RTVSPost2010Prop52
140
1.0
102
RTVSPost2010PropOp52
 70
     0
102
RTVSPost2010Prop53
 90
        2
102
RTVSPost2010PropOp53
 70
     1
102
RTVSPost2010Prop54
  1
strokes_ogs.tif
102
RTVSPost2010PropOp54
 70
     1
102
RTVSPost2010Prop55
280
     0
102
RTVSPost2010PropOp55
 70
     1
102
RTVSPost2010Prop56
140
1.0
102
RTVSPost2010PropOp56
 70
     1
102
RTVSPost2010Prop57
140
1.0
102
RTVSPost2010PropOp57
 70
     1
  0
XRECORD
  5
B1
102
{ACAD_REACTORS
330
B0
102
}
330
B0
100
AcDbXrecord
280
     1
102
RTVSPropertyOp0
 70
     1
102
RTVSPropertyOp1
 70
     1
102
RTVSPropertyOp2
 70
     1
102
RTVSPropertyOp3
 70
     1
102
RTVSPropertyOp4
 70
     1
102
RTVSPropertyOp5
 70
     1
102
RTVSPropertyOp6
 70
     1
102
RTVSPropertyOp7
 70
     1
102
RTVSPropertyOp8
 70
     1
102
RTVSPropertyOp9
 70
     1
102
RTVSPropertyOp10
 70
     1
102
RTVSPropertyOp11
 70
     1
102
RTVSPropertyOp12
 70
     1
102
RTVSPropertyOp13
 70
     1
102
RTVSPropertyOp14
 70
     1
102
RTVSPropertyOp15
 70
     1
102
RTVSPropertyOp16
 70
     1
102
RTVSPropertyOp17
 70
     1
102
RTVSPropertyOp18
 70
     1
102
RTVSPropertyOp19
 70
     1
102
RTVSPropertyOp20
 70
     1
102
RTVSPropertyOp21
 70
     1
102
RTVSPropertyOp22
 70
     1
102
RTVSPropertyOp23
 70
     1
102
RTVSPropertyOp24
 70
     1
102
RTVSPropertyOp25
 70
     1
102
RTVSPropertyOp26
 70
     1
102
RTVSPropertyOp27
 70
     1
102
RTVSPropertyOp28
 70
     1
102
RTVSPropertyOp29
 70
     1
102
RTVSPropertyOp30
 70
     1
102
RTVSPropertyOp31
 70
     1
102
RTVSPropertyOp32
 70
     1
102
RTVSPropertyOp33
 70
     1
102
RTVSPropertyOp34
 70
     1
102
RTVSPropertyOp35
 70
     1
102
RTVSPropertyOp36
 70
     1
102
RTVSPropertyOp37
 70
     1
102
RTVSPropertyOp38
 70
     1
102
RTVSPropertyOp39
 70
     1
102
RTVSPropertyOp40
 70
     1
102
RTVSPropertyOp41
 70
     1
102
RTVSPropertyOp42
 70
     1
102
RTVSPropertyOp43
 70
     1
102
RTVSPropertyOp44
 70
     1
102
RTVSPropertyOp45
 70
     1
102
RTVSPropertyOp46
 70
     1
102
RTVSPropertyOp47
 70
     1
102
RTVSPropertyOp48
 70
     1
102
RTVSPropertyOp49
 70
     1
102
RTVSPropertyOp50
 70
     1
102
RTVSPropertyOp51
 70
     0
102
RTVSPropertyOp52
 70
     0
102
RTVSPropertyOp53
 70
     1
102
RTVSPropertyOp54
 70
     1
102
RTVSPropertyOp55
 70
     1
102
RTVSPropertyOp56
 70
     1
102
RTVSPropertyOp57
 70
     1
102
RTVSPost2010Prop28
280
     0
102
RTVSPost2010PropOp28
 70
     1
102
RTVSPost2010Prop29
280
     1
102
RTVSPost2010PropOp29
 70
     1
102
RTVSPost2010Prop30
280
     1
102
RTVSPost2010PropOp30
 70
     1
102
RTVSPost2010Prop31
280
     0
102
RTVSPost2010PropOp31
 70
     1
102
RTVSPost2010Prop32
280
     0
102
RTVSPost2010PropOp32
 70
     1
102
RTVSPost2010Prop33
280
     0
102
RTVSPost2010PropOp33
 70
     1
102
RTVSPost2010Prop34
280
     0
102
RTVSPost2010PropOp34
 70
     1
102
RTVSPost2010Prop35
280
     0
102
RTVSPost2010PropOp35
 70
     1
102
RTVSPost2010Prop36
280
     0
102
RTVSPost2010PropOp36
 70
     1
102
RTVSPost2010Prop37
 90
       50
102
RTVSPost2010PropOp37
 70
     1
102
RTVSPost2010Prop38
140
0.0
102
RTVSPost2010PropOp38
 70
     1
102
RTVSPost2010Prop39
140
1.0
102
RTVSPost2010PropOp39
 70
     1
102
RTVSPost2010Prop40
 90
        0
102
RTVSPost2010PropOp40
 70
     1
102
RTVSPost2010Prop41ColorIndex
 90
       18
102
RTVSPost2010Prop41ColorRGB
 90
        0
102
RTVSPost2010PropOp41
 70
     1
102
RTVSPost2010Prop42
 90
       50
102
RTVSPost2010PropOp42
 70
     1
102
RTVSPost2010Prop43
 90
        3
102
RTVSPost2010PropOp43
 70
     1
102
RTVSPost2010Prop44ColorIndex
 90
        5
102
RTVSPost2010Prop44ColorRGB
 90
      255
102
RTVSPost2010PropOp44
 70
     1
102
RTVSPost2010Prop45
280
     0
102
RTVSPost2010PropOp45
 70
     1
102
RTVSPost2010Prop46
 90
       50
102
RTVSPost2010PropOp46
 70
     1
102
RTVSPost2010Prop47
 90
       50
102
RTVSPost2010PropOp47
 70
     1
102
RTVSPost2010Prop48
 90
       50
102
RTVSPost2010PropOp48
 70
     1
102
RTVSPost2010Prop49
280
     0
102
RTVSPost2010PropOp49
 70
     1
102
RTVSPost2010Prop50
 90
       50
102
RTVSPost2010PropOp50
 70
     1
102
RTVSPost2010Prop51ColorIndex
 90
      256
102
RTVSPost2010Prop51ColorRGB
 90
-16777216
102
RTVSPost2010PropOp51
 70
     0
102
RTVSPost2010Prop52
140
1.0
102
RTVSPost2010PropOp52
 70
     0
102
RTVSPost2010Prop53
 90
        2
102
RTVSPost2010PropOp53
 70
     1
102
RTVSPost2010Prop54
  1
strokes_ogs.tif
102
RTVSPost2010PropOp54
 70
     1
102
RTVSPost2010Prop55
280
     0
102
RTVSPost2010PropOp55
 70
     1
102
RTVSPost2010Prop56
140
1.0
102
RTVSPost2010PropOp56
 70
     1
102
RTVSPost2010Prop57
140
1.0
102
RTVSPost2010PropOp57
 70
     1
  0
XRECORD
  5
AF
102
{ACAD_REACTORS
330
AE
102
}
330
AE
100
AcDbXrecord
280
     1
102
RTVSPropertyOp0
 70
     1
102
RTVSPropertyOp1
 70
     1
102
RTVSPropertyOp2
 70
     1
102
RTVSPropertyOp3
 70
     1
102
RTVSPropertyOp4
 70
     1
102
RTVSPropertyOp5
 70
     1
102
RTVSPropertyOp6
 70
     1
102
RTVSPropertyOp7
 70
     1
102
RTVSPropertyOp8
 70
     1
102
RTVSPropertyOp9
 70
     1
102
RTVSPropertyOp10
 70
     1
102
RTVSPropertyOp11
 70
     1
102
RTVSPropertyOp12
 70
     1
102
RTVSPropertyOp13
 70
     1
102
RTVSPropertyOp14
 70
     1
102
RTVSPropertyOp15
 70
     1
102
RTVSPropertyOp16
 70
     1
102
RTVSPropertyOp17
 70
     1
102
RTVSPropertyOp18
 70
     1
102
RTVSPropertyOp19
 70
     1
102
RTVSPropertyOp20
 70
     1
102
RTVSPropertyOp21
 70
     1
102
RTVSPropertyOp22
 70
     1
102
RTVSPropertyOp23
 70
     1
102
RTVSPropertyOp24
 70
     1
102
RTVSPropertyOp25
 70
     1
102
RTVSPropertyOp26
 70
     1
102
RTVSPropertyOp27
 70
     1
102
RTVSPropertyOp28
 70
     1
102
RTVSPropertyOp29
 70
     1
102
RTVSPropertyOp30
 70
     1
102
RTVSPropertyOp31
 70
     1
102
RTVSPropertyOp32
 70
     1
102
RTVSPropertyOp33
 70
     1
102
RTVSPropertyOp34
 70
     1
102
RTVSPropertyOp35
 70
     1
102
RTVSPropertyOp36
 70
     1
102
RTVSPropertyOp37
 70
     1
102
RTVSPropertyOp38
 70
     1
102
RTVSPropertyOp39
 70
     1
102
RTVSPropertyOp40
 70
     1
102
RTVSPropertyOp41
 70
     1
102
RTVSPropertyOp42
 70
     1
102
RTVSPropertyOp43
 70
     1
102
RTVSPropertyOp44
 70
     1
102
RTVSPropertyOp45
 70
     1
102
RTVSPropertyOp46
 70
     1
102
RTVSPropertyOp47
 70
     1
102
RTVSPropertyOp48
 70
     1
102
RTVSPropertyOp49
 70
     1
102
RTVSPropertyOp50
 70
     1
102
RTVSPropertyOp51
 70
     0
102
RTVSPropertyOp52
 70
     0
102
RTVSPropertyOp53
 70
     1
102
RTVSPropertyOp54
 70
     1
102
RTVSPropertyOp55
 70
     1
102
RTVSPropertyOp56
 70
     1
102
RTVSPropertyOp57
 70
     1
102
RTVSPost2010Prop28
280
     0
102
RTVSPost2010PropOp28
 70
     1
102
RTVSPost2010Prop29
280
     1
102
RTVSPost2010PropOp29
 70
     1
102
RTVSPost2010Prop30
280
     1
102
RTVSPost2010PropOp30
 70
     1
102
RTVSPost2010Prop31
280
     0
102
RTVSPost2010PropOp31
 70
     1
102
RTVSPost2010Prop32
280
     0
102
RTVSPost2010PropOp32
 70
     1
102
RTVSPost2010Prop33
280
     0
102
RTVSPost2010PropOp33
 70
     1
102
RTVSPost2010Prop34
280
     0
102
RTVSPost2010PropOp34
 70
     1
102
RTVSPost2010Prop35
280
     0
102
RTVSPost2010PropOp35
 70
     1
102
RTVSPost2010Prop36
280
     0
102
RTVSPost2010PropOp36
 70
     1
102
RTVSPost2010Prop37
 90
       50
102
RTVSPost2010PropOp37
 70
     1
102
RTVSPost2010Prop38
140
0.0
102
RTVSPost2010PropOp38
 70
     1
102
RTVSPost2010Prop39
140
1.0
102
RTVSPost2010PropOp39
 70
     1
102
RTVSPost2010Prop40
 90
        0
102
RTVSPost2010PropOp40
 70
     1
102
RTVSPost2010Prop41ColorIndex
 90
       18
102
RTVSPost2010Prop41ColorRGB
 90
        0
102
RTVSPost2010PropOp41
 70
     1
102
RTVSPost2010Prop42
 90
       50
102
RTVSPost2010PropOp42
 70
     1
102
RTVSPost2010Prop43
 90
        3
102
RTVSPost2010PropOp43
 70
     1
102
RTVSPost2010Prop44ColorIndex
 90
        5
102
RTVSPost2010Prop44ColorRGB
 90
      255
102
RTVSPost2010PropOp44
 70
     1
102
RTVSPost2010Prop45
280
     0
102
RTVSPost2010PropOp45
 70
     1
102
RTVSPost2010Prop46
 90
       50
102
RTVSPost2010PropOp46
 70
     1
102
RTVSPost2010Prop47
 90
       50
102
RTVSPost2010PropOp47
 70
     1
102
RTVSPost2010Prop48
 90
       50
102
RTVSPost2010PropOp48
 70
     1
102
RTVSPost2010Prop49
280
     0
102
RTVSPost2010PropOp49
 70
     1
102
RTVSPost2010Prop50
 90
       50
102
RTVSPost2010PropOp50
 70
     1
102
RTVSPost2010Prop51ColorIndex
 90
      256
102
RTVSPost2010Prop51ColorRGB
 90
-16777216
102
RTVSPost2010PropOp51
 70
     0
102
RTVSPost2010Prop52
140
1.0
102
RTVSPost2010PropOp52
 70
     0
102
RTVSPost2010Prop53
 90
        2
102
RTVSPost2010PropOp53
 70
     1
102
RTVSPost2010Prop54
  1
strokes_ogs.tif
102
RTVSPost2010PropOp54
 70
     1
102
RTVSPost2010Prop55
280
     0
102
RTVSPost2010PropOp55
 70
     1
102
RTVSPost2010Prop56
140
1.0
102
RTVSPost2010PropOp56
 70
     1
102
RTVSPost2010Prop57
140
1.0
102
RTVSPost2010PropOp57
 70
     1
  0
XRECORD
  5
A9
102
{ACAD_REACTORS
330
A8
102
}
330
A8
100
AcDbXrecord
280
     1
102
RTVSPropertyOp0
 70
     1
102
RTVSPropertyOp1
 70
     1
102
RTVSPropertyOp2
 70
     1
102
RTVSPropertyOp3
 70
     1
102
RTVSPropertyOp4
 70
     1
102
RTVSPropertyOp5
 70
     1
102
RTVSPropertyOp6
 70
     1
102
RTVSPropertyOp7
 70
     1
102
RTVSPropertyOp8
 70
     1
102
RTVSPropertyOp9
 70
     1
102
RTVSPropertyOp10
 70
     1
102
RTVSPropertyOp11
 70
     1
102
RTVSPropertyOp12
 70
     1
102
RTVSPropertyOp13
 70
     1
102
RTVSPropertyOp14
 70
     1
102
RTVSPropertyOp15
 70
     1
102
RTVSPropertyOp16
 70
     1
102
RTVSPropertyOp17
 70
     1
102
RTVSPropertyOp18
 70
     1
102
RTVSPropertyOp19
 70
     1
102
RTVSPropertyOp20
 70
     1
102
RTVSPropertyOp21
 70
     1
102
RTVSPropertyOp22
 70
     1
102
RTVSPropertyOp23
 70
     1
102
RTVSPropertyOp24
 70
     1
102
RTVSPropertyOp25
 70
     1
102
RTVSPropertyOp26
 70
     1
102
RTVSPropertyOp27
 70
     1
102
RTVSPropertyOp28
 70
     1
102
RTVSPropertyOp29
 70
     1
102
RTVSPropertyOp30
 70
     1
102
RTVSPropertyOp31
 70
     1
102
RTVSPropertyOp32
 70
     1
102
RTVSPropertyOp33
 70
     1
102
RTVSPropertyOp34
 70
     1
102
RTVSPropertyOp35
 70
     1
102
RTVSPropertyOp36
 70
     1
102
RTVSPropertyOp37
 70
     1
102
RTVSPropertyOp38
 70
     1
102
RTVSPropertyOp39
 70
     1
102
RTVSPropertyOp40
 70
     1
102
RTVSPropertyOp41
 70
     1
102
RTVSPropertyOp42
 70
     1
102
RTVSPropertyOp43
 70
     1
102
RTVSPropertyOp44
 70
     1
102
RTVSPropertyOp45
 70
     1
102
RTVSPropertyOp46
 70
     1
102
RTVSPropertyOp47
 70
     1
102
RTVSPropertyOp48
 70
     1
102
RTVSPropertyOp49
 70
     1
102
RTVSPropertyOp50
 70
     1
102
RTVSPropertyOp51
 70
     0
102
RTVSPropertyOp52
 70
     0
102
RTVSPropertyOp53
 70
     1
102
RTVSPropertyOp54
 70
     1
102
RTVSPropertyOp55
 70
     1
102
RTVSPropertyOp56
 70
     1
102
RTVSPropertyOp57
 70
     1
102
RTVSPost2010Prop28
280
     0
102
RTVSPost2010PropOp28
 70
     1
102
RTVSPost2010Prop29
280
     1
102
RTVSPost2010PropOp29
 70
     1
102
RTVSPost2010Prop30
280
     1
102
RTVSPost2010PropOp30
 70
     1
102
RTVSPost2010Prop31
280
     0
102
RTVSPost2010PropOp31
 70
     1
102
RTVSPost2010Prop32
280
     0
102
RTVSPost2010PropOp32
 70
     1
102
RTVSPost2010Prop33
280
     0
102
RTVSPost2010PropOp33
 70
     1
102
RTVSPost2010Prop34
280
     0
102
RTVSPost2010PropOp34
 70
     1
102
RTVSPost2010Prop35
280
     0
102
RTVSPost2010PropOp35
 70
     1
102
RTVSPost2010Prop36
280
     0
102
RTVSPost2010PropOp36
 70
     1
102
RTVSPost2010Prop37
 90
       50
102
RTVSPost2010PropOp37
 70
     1
102
RTVSPost2010Prop38
140
0.0
102
RTVSPost2010PropOp38
 70
     1
102
RTVSPost2010Prop39
140
1.0
102
RTVSPost2010PropOp39
 70
     1
102
RTVSPost2010Prop40
 90
        0
102
RTVSPost2010PropOp40
 70
     1
102
RTVSPost2010Prop41ColorIndex
 90
       18
102
RTVSPost2010Prop41ColorRGB
 90
        0
102
RTVSPost2010PropOp41
 70
     1
102
RTVSPost2010Prop42
 90
       50
102
RTVSPost2010PropOp42
 70
     1
102
RTVSPost2010Prop43
 90
        3
102
RTVSPost2010PropOp43
 70
     1
102
RTVSPost2010Prop44ColorIndex
 90
        5
102
RTVSPost2010Prop44ColorRGB
 90
      255
102
RTVSPost2010PropOp44
 70
     1
102
RTVSPost2010Prop45
280
     0
102
RTVSPost2010PropOp45
 70
     1
102
RTVSPost2010Prop46
 90
       50
102
RTVSPost2010PropOp46
 70
     1
102
RTVSPost2010Prop47
 90
       50
102
RTVSPost2010PropOp47
 70
     1
102
RTVSPost2010Prop48
 90
       50
102
RTVSPost2010PropOp48
 70
     1
102
RTVSPost2010Prop49
280
     0
102
RTVSPost2010PropOp49
 70
     1
102
RTVSPost2010Prop50
 90
       50
102
RTVSPost2010PropOp50
 70
     1
102
RTVSPost2010Prop51ColorIndex
 90
      256
102
RTVSPost2010Prop51ColorRGB
 90
-16777216
102
RTVSPost2010PropOp51
 70
     0
102
RTVSPost2010Prop52
140
1.0
102
RTVSPost2010PropOp52
 70
     0
102
RTVSPost2010Prop53
 90
        2
102
RTVSPost2010PropOp53
 70
     1
102
RTVSPost2010Prop54
  1
strokes_ogs.tif
102
RTVSPost2010PropOp54
 70
     1
102
RTVSPost2010Prop55
280
     0
102
RTVSPost2010PropOp55
 70
     1
102
RTVSPost2010Prop56
140
1.0
102
RTVSPost2010PropOp56
 70
     1
102
RTVSPost2010Prop57
140
1.0
102
RTVSPost2010PropOp57
 70
     1
  0
XRECORD
  5
AB
102
{ACAD_REACTORS
330
AA
102
}
330
AA
100
AcDbXrecord
280
     1
102
RTVSPropertyOp0
 70
     1
102
RTVSPropertyOp1
 70
     1
102
RTVSPropertyOp2
 70
     1
102
RTVSPropertyOp3
 70
     1
102
RTVSPropertyOp4
 70
     1
102
RTVSPropertyOp5
 70
     1
102
RTVSPropertyOp6
 70
     1
102
RTVSPropertyOp7
 70
     1
102
RTVSPropertyOp8
 70
     1
102
RTVSPropertyOp9
 70
     1
102
RTVSPropertyOp10
 70
     1
102
RTVSPropertyOp11
 70
     1
102
RTVSPropertyOp12
 70
     1
102
RTVSPropertyOp13
 70
     1
102
RTVSPropertyOp14
 70
     1
102
RTVSPropertyOp15
 70
     1
102
RTVSPropertyOp16
 70
     1
102
RTVSPropertyOp17
 70
     1
102
RTVSPropertyOp18
 70
     1
102
RTVSPropertyOp19
 70
     1
102
RTVSPropertyOp20
 70
     1
102
RTVSPropertyOp21
 70
     1
102
RTVSPropertyOp22
 70
     1
102
RTVSPropertyOp23
 70
     1
102
RTVSPropertyOp24
 70
     1
102
RTVSPropertyOp25
 70
     1
102
RTVSPropertyOp26
 70
     1
102
RTVSPropertyOp27
 70
     1
102
RTVSPropertyOp28
 70
     1
102
RTVSPropertyOp29
 70
     1
102
RTVSPropertyOp30
 70
     1
102
RTVSPropertyOp31
 70
     1
102
RTVSPropertyOp32
 70
     1
102
RTVSPropertyOp33
 70
     1
102
RTVSPropertyOp34
 70
     1
102
RTVSPropertyOp35
 70
     1
102
RTVSPropertyOp36
 70
     1
102
RTVSPropertyOp37
 70
     1
102
RTVSPropertyOp38
 70
     1
102
RTVSPropertyOp39
 70
     1
102
RTVSPropertyOp40
 70
     1
102
RTVSPropertyOp41
 70
     1
102
RTVSPropertyOp42
 70
     1
102
RTVSPropertyOp43
 70
     1
102
RTVSPropertyOp44
 70
     1
102
RTVSPropertyOp45
 70
     1
102
RTVSPropertyOp46
 70
     1
102
RTVSPropertyOp47
 70
     1
102
RTVSPropertyOp48
 70
     1
102
RTVSPropertyOp49
 70
     1
102
RTVSPropertyOp50
 70
     1
102
RTVSPropertyOp51
 70
     0
102
RTVSPropertyOp52
 70
     0
102
RTVSPropertyOp53
 70
     1
102
RTVSPropertyOp54
 70
     1
102
RTVSPropertyOp55
 70
     1
102
RTVSPropertyOp56
 70
     1
102
RTVSPropertyOp57
 70
     1
102
RTVSPost2010Prop28
280
     0
102
RTVSPost2010PropOp28
 70
     1
102
RTVSPost2010Prop29
280
     1
102
RTVSPost2010PropOp29
 70
     1
102
RTVSPost2010Prop30
280
     1
102
RTVSPost2010PropOp30
 70
     1
102
RTVSPost2010Prop31
280
     0
102
RTVSPost2010PropOp31
 70
     1
102
RTVSPost2010Prop32
280
     0
102
RTVSPost2010PropOp32
 70
     1
102
RTVSPost2010Prop33
280
     0
102
RTVSPost2010PropOp33
 70
     1
102
RTVSPost2010Prop34
280
     0
102
RTVSPost2010PropOp34
 70
     1
102
RTVSPost2010Prop35
280
     0
102
RTVSPost2010PropOp35
 70
     1
102
RTVSPost2010Prop36
280
     0
102
RTVSPost2010PropOp36
 70
     1
102
RTVSPost2010Prop37
 90
       50
102
RTVSPost2010PropOp37
 70
     1
102
RTVSPost2010Prop38
140
0.0
102
RTVSPost2010PropOp38
 70
     1
102
RTVSPost2010Prop39
140
1.0
102
RTVSPost2010PropOp39
 70
     1
102
RTVSPost2010Prop40
 90
        0
102
RTVSPost2010PropOp40
 70
     1
102
RTVSPost2010Prop41ColorIndex
 90
       18
102
RTVSPost2010Prop41ColorRGB
 90
        0
102
RTVSPost2010PropOp41
 70
     1
102
RTVSPost2010Prop42
 90
       50
102
RTVSPost2010PropOp42
 70
     1
102
RTVSPost2010Prop43
 90
        3
102
RTVSPost2010PropOp43
 70
     1
102
RTVSPost2010Prop44ColorIndex
 90
        5
102
RTVSPost2010Prop44ColorRGB
 90
      255
102
RTVSPost2010PropOp44
 70
     1
102
RTVSPost2010Prop45
280
     0
102
RTVSPost2010PropOp45
 70
     1
102
RTVSPost2010Prop46
 90
       50
102
RTVSPost2010PropOp46
 70
     1
102
RTVSPost2010Prop47
 90
       50
102
RTVSPost2010PropOp47
 70
     1
102
RTVSPost2010Prop48
 90
       50
102
RTVSPost2010PropOp48
 70
     1
102
RTVSPost2010Prop49
280
     0
102
RTVSPost2010PropOp49
 70
     1
102
RTVSPost2010Prop50
 90
       50
102
RTVSPost2010PropOp50
 70
     1
102
RTVSPost2010Prop51ColorIndex
 90
      256
102
RTVSPost2010Prop51ColorRGB
 90
-16777216
102
RTVSPost2010PropOp51
 70
     0
102
RTVSPost2010Prop52
140
1.0
102
RTVSPost2010PropOp52
 70
     0
102
RTVSPost2010Prop53
 90
        2
102
RTVSPost2010PropOp53
 70
     1
102
RTVSPost2010Prop54
  1
strokes_ogs.tif
102
RTVSPost2010PropOp54
 70
     1
102
RTVSPost2010Prop55
280
     0
102
RTVSPost2010PropOp55
 70
     1
102
RTVSPost2010Prop56
140
1.0
102
RTVSPost2010PropOp56
 70
     1
102
RTVSPost2010Prop57
140
1.0
102
RTVSPost2010PropOp57
 70
     1
  0
XRECORD
  5
9B
102
{ACAD_REACTORS
330
9A
102
}
330
9A
100
AcDbXrecord
280
     1
102
RTVSPropertyOp0
 70
     1
102
RTVSPropertyOp1
 70
     1
102
RTVSPropertyOp2
 70
     1
102
RTVSPropertyOp3
 70
     1
102
RTVSPropertyOp4
 70
     1
102
RTVSPropertyOp5
 70
     1
102
RTVSPropertyOp6
 70
     1
102
RTVSPropertyOp7
 70
     1
102
RTVSPropertyOp8
 70
     1
102
RTVSPropertyOp9
 70
     1
102
RTVSPropertyOp10
 70
     1
102
RTVSPropertyOp11
 70
     1
102
RTVSPropertyOp12
 70
     1
102
RTVSPropertyOp13
 70
     1
102
RTVSPropertyOp14
 70
     1
102
RTVSPropertyOp15
 70
     1
102
RTVSPropertyOp16
 70
     1
102
RTVSPropertyOp17
 70
     1
102
RTVSPropertyOp18
 70
     1
102
RTVSPropertyOp19
 70
     1
102
RTVSPropertyOp20
 70
     1
102
RTVSPropertyOp21
 70
     1
102
RTVSPropertyOp22
 70
     1
102
RTVSPropertyOp23
 70
     1
102
RTVSPropertyOp24
 70
     1
102
RTVSPropertyOp25
 70
     1
102
RTVSPropertyOp26
 70
     1
102
RTVSPropertyOp27
 70
     1
102
RTVSPropertyOp28
 70
     1
102
RTVSPropertyOp29
 70
     1
102
RTVSPropertyOp30
 70
     1
102
RTVSPropertyOp31
 70
     1
102
RTVSPropertyOp32
 70
     1
102
RTVSPropertyOp33
 70
     1
102
RTVSPropertyOp34
 70
     1
102
RTVSPropertyOp35
 70
     1
102
RTVSPropertyOp36
 70
     1
102
RTVSPropertyOp37
 70
     1
102
RTVSPropertyOp38
 70
     1
102
RTVSPropertyOp39
 70
     1
102
RTVSPropertyOp40
 70
     1
102
RTVSPropertyOp41
 70
     1
102
RTVSPropertyOp42
 70
     1
102
RTVSPropertyOp43
 70
     1
102
RTVSPropertyOp44
 70
     1
102
RTVSPropertyOp45
 70
     1
102
RTVSPropertyOp46
 70
     1
102
RTVSPropertyOp47
 70
     1
102
RTVSPropertyOp48
 70
     1
102
RTVSPropertyOp49
 70
     1
102
RTVSPropertyOp50
 70
     1
102
RTVSPropertyOp51
 70
     0
102
RTVSPropertyOp52
 70
     0
102
RTVSPropertyOp53
 70
     1
102
RTVSPropertyOp54
 70
     1
102
RTVSPropertyOp55
 70
     1
102
RTVSPropertyOp56
 70
     1
102
RTVSPropertyOp57
 70
     1
102
RTVSPost2010Prop28
280
     0
102
RTVSPost2010PropOp28
 70
     1
102
RTVSPost2010Prop29
280
     1
102
RTVSPost2010PropOp29
 70
     1
102
RTVSPost2010Prop30
280
     1
102
RTVSPost2010PropOp30
 70
     1
102
RTVSPost2010Prop31
280
     0
102
RTVSPost2010PropOp31
 70
     1
102
RTVSPost2010Prop32
280
     0
102
RTVSPost2010PropOp32
 70
     1
102
RTVSPost2010Prop33
280
     0
102
RTVSPost2010PropOp33
 70
     1
102
RTVSPost2010Prop34
280
     0
102
RTVSPost2010PropOp34
 70
     1
102
RTVSPost2010Prop35
280
     0
102
RTVSPost2010PropOp35
 70
     1
102
RTVSPost2010Prop36
280
     0
102
RTVSPost2010PropOp36
 70
     1
102
RTVSPost2010Prop37
 90
       50
102
RTVSPost2010PropOp37
 70
     1
102
RTVSPost2010Prop38
140
0.0
102
RTVSPost2010PropOp38
 70
     1
102
RTVSPost2010Prop39
140
1.0
102
RTVSPost2010PropOp39
 70
     1
102
RTVSPost2010Prop40
 90
        0
102
RTVSPost2010PropOp40
 70
     1
102
RTVSPost2010Prop41ColorIndex
 90
       18
102
RTVSPost2010Prop41ColorRGB
 90
        0
102
RTVSPost2010PropOp41
 70
     1
102
RTVSPost2010Prop42
 90
       50
102
RTVSPost2010PropOp42
 70
     1
102
RTVSPost2010Prop43
 90
        3
102
RTVSPost2010PropOp43
 70
     1
102
RTVSPost2010Prop44ColorIndex
 90
        5
102
RTVSPost2010Prop44ColorRGB
 90
      255
102
RTVSPost2010PropOp44
 70
     1
102
RTVSPost2010Prop45
280
     0
102
RTVSPost2010PropOp45
 70
     1
102
RTVSPost2010Prop46
 90
       50
102
RTVSPost2010PropOp46
 70
     1
102
RTVSPost2010Prop47
 90
       50
102
RTVSPost2010PropOp47
 70
     1
102
RTVSPost2010Prop48
 90
       50
102
RTVSPost2010PropOp48
 70
     1
102
RTVSPost2010Prop49
280
     0
102
RTVSPost2010PropOp49
 70
     1
102
RTVSPost2010Prop50
 90
       50
102
RTVSPost2010PropOp50
 70
     1
102
RTVSPost2010Prop51ColorIndex
 90
      256
102
RTVSPost2010Prop51ColorRGB
 90
-16777216
102
RTVSPost2010PropOp51
 70
     0
102
RTVSPost2010Prop52
140
1.0
102
RTVSPost2010PropOp52
 70
     0
102
RTVSPost2010Prop53
 90
        2
102
RTVSPost2010PropOp53
 70
     1
102
RTVSPost2010Prop54
  1
strokes_ogs.tif
102
RTVSPost2010PropOp54
 70
     1
102
RTVSPost2010Prop55
280
     0
102
RTVSPost2010PropOp55
 70
     1
102
RTVSPost2010Prop56
140
1.0
102
RTVSPost2010PropOp56
 70
     1
102
RTVSPost2010Prop57
140
1.0
102
RTVSPost2010PropOp57
 70
     1
  0
XRECORD
  5
8D
102
{ACAD_REACTORS
330
8C
102
}
330
8C
100
AcDbXrecord
280
     1
102
RTVSPropertyOp0
 70
     1
102
RTVSPropertyOp1
 70
     1
102
RTVSPropertyOp2
 70
     1
102
RTVSPropertyOp3
 70
     1
102
RTVSPropertyOp4
 70
     1
102
RTVSPropertyOp5
 70
     1
102
RTVSPropertyOp6
 70
     1
102
RTVSPropertyOp7
 70
     1
102
RTVSPropertyOp8
 70
     1
102
RTVSPropertyOp9
 70
     1
102
RTVSPropertyOp10
 70
     1
102
RTVSPropertyOp11
 70
     1
102
RTVSPropertyOp12
 70
     1
102
RTVSPropertyOp13
 70
     1
102
RTVSPropertyOp14
 70
     1
102
RTVSPropertyOp15
 70
     1
102
RTVSPropertyOp16
 70
     1
102
RTVSPropertyOp17
 70
     1
102
RTVSPropertyOp18
 70
     1
102
RTVSPropertyOp19
 70
     1
102
RTVSPropertyOp20
 70
     1
102
RTVSPropertyOp21
 70
     1
102
RTVSPropertyOp22
 70
     1
102
RTVSPropertyOp23
 70
     1
102
RTVSPropertyOp24
 70
     1
102
RTVSPropertyOp25
 70
     1
102
RTVSPropertyOp26
 70
     1
102
RTVSPropertyOp27
 70
     1
102
RTVSPropertyOp28
 70
     1
102
RTVSPropertyOp29
 70
     1
102
RTVSPropertyOp30
 70
     1
102
RTVSPropertyOp31
 70
     1
102
RTVSPropertyOp32
 70
     1
102
RTVSPropertyOp33
 70
     1
102
RTVSPropertyOp34
 70
     1
102
RTVSPropertyOp35
 70
     1
102
RTVSPropertyOp36
 70
     1
102
RTVSPropertyOp37
 70
     1
102
RTVSPropertyOp38
 70
     1
102
RTVSPropertyOp39
 70
     1
102
RTVSPropertyOp40
 70
     1
102
RTVSPropertyOp41
 70
     1
102
RTVSPropertyOp42
 70
     1
102
RTVSPropertyOp43
 70
     1
102
RTVSPropertyOp44
 70
     1
102
RTVSPropertyOp45
 70
     1
102
RTVSPropertyOp46
 70
     1
102
RTVSPropertyOp47
 70
     1
102
RTVSPropertyOp48
 70
     1
102
RTVSPropertyOp49
 70
     1
102
RTVSPropertyOp50
 70
     1
102
RTVSPropertyOp51
 70
     0
102
RTVSPropertyOp52
 70
     0
102
RTVSPropertyOp53
 70
     1
102
RTVSPropertyOp54
 70
     1
102
RTVSPropertyOp55
 70
     1
102
RTVSPropertyOp56
 70
     1
102
RTVSPropertyOp57
 70
     1
102
RTVSPost2010Prop28
280
     0
102
RTVSPost2010PropOp28
 70
     1
102
RTVSPost2010Prop29
280
     1
102
RTVSPost2010PropOp29
 70
     1
102
RTVSPost2010Prop30
280
     1
102
RTVSPost2010PropOp30
 70
     1
102
RTVSPost2010Prop31
280
     0
102
RTVSPost2010PropOp31
 70
     1
102
RTVSPost2010Prop32
280
     0
102
RTVSPost2010PropOp32
 70
     1
102
RTVSPost2010Prop33
280
     0
102
RTVSPost2010PropOp33
 70
     1
102
RTVSPost2010Prop34
280
     0
102
RTVSPost2010PropOp34
 70
     1
102
RTVSPost2010Prop35
280
     0
102
RTVSPost2010PropOp35
 70
     1
102
RTVSPost2010Prop36
280
     0
102
RTVSPost2010PropOp36
 70
     1
102
RTVSPost2010Prop37
 90
       50
102
RTVSPost2010PropOp37
 70
     1
102
RTVSPost2010Prop38
140
0.0
102
RTVSPost2010PropOp38
 70
     1
102
RTVSPost2010Prop39
140
1.0
102
RTVSPost2010PropOp39
 70
     1
102
RTVSPost2010Prop40
 90
        0
102
RTVSPost2010PropOp40
 70
     1
102
RTVSPost2010Prop41ColorIndex
 90
       18
102
RTVSPost2010Prop41ColorRGB
 90
        0
102
RTVSPost2010PropOp41
 70
     1
102
RTVSPost2010Prop42
 90
       50
102
RTVSPost2010PropOp42
 70
     1
102
RTVSPost2010Prop43
 90
        3
102
RTVSPost2010PropOp43
 70
     1
102
RTVSPost2010Prop44ColorIndex
 90
        5
102
RTVSPost2010Prop44ColorRGB
 90
      255
102
RTVSPost2010PropOp44
 70
     1
102
RTVSPost2010Prop45
280
     0
102
RTVSPost2010PropOp45
 70
     1
102
RTVSPost2010Prop46
 90
       50
102
RTVSPost2010PropOp46
 70
     1
102
RTVSPost2010Prop47
 90
       50
102
RTVSPost2010PropOp47
 70
     1
102
RTVSPost2010Prop48
 90
       50
102
RTVSPost2010PropOp48
 70
     1
102
RTVSPost2010Prop49
280
     0
102
RTVSPost2010PropOp49
 70
     1
102
RTVSPost2010Prop50
 90
       50
102
RTVSPost2010PropOp50
 70
     1
102
RTVSPost2010Prop51ColorIndex
 90
      256
102
RTVSPost2010Prop51ColorRGB
 90
-16777216
102
RTVSPost2010PropOp51
 70
     0
102
RTVSPost2010Prop52
140
1.0
102
RTVSPost2010PropOp52
 70
     0
102
RTVSPost2010Prop53
 90
        2
102
RTVSPost2010PropOp53
 70
     1
102
RTVSPost2010Prop54
  1
strokes_ogs.tif
102
RTVSPost2010PropOp54
 70
     1
102
RTVSPost2010Prop55
280
     0
102
RTVSPost2010PropOp55
 70
     1
102
RTVSPost2010Prop56
140
1.0
102
RTVSPost2010PropOp56
 70
     1
102
RTVSPost2010Prop57
140
1.0
102
RTVSPost2010PropOp57
 70
     1
  0
XRECORD
  5
AD
102
{ACAD_REACTORS
330
AC
102
}
330
AC
100
AcDbXrecord
280
     1
102
RTVSPropertyOp0
 70
     1
102
RTVSPropertyOp1
 70
     1
102
RTVSPropertyOp2
 70
     1
102
RTVSPropertyOp3
 70
     1
102
RTVSPropertyOp4
 70
     1
102
RTVSPropertyOp5
 70
     1
102
RTVSPropertyOp6
 70
     1
102
RTVSPropertyOp7
 70
     1
102
RTVSPropertyOp8
 70
     1
102
RTVSPropertyOp9
 70
     1
102
RTVSPropertyOp10
 70
     1
102
RTVSPropertyOp11
 70
     1
102
RTVSPropertyOp12
 70
     1
102
RTVSPropertyOp13
 70
     1
102
RTVSPropertyOp14
 70
     1
102
RTVSPropertyOp15
 70
     1
102
RTVSPropertyOp16
 70
     1
102
RTVSPropertyOp17
 70
     1
102
RTVSPropertyOp18
 70
     1
102
RTVSPropertyOp19
 70
     1
102
RTVSPropertyOp20
 70
     1
102
RTVSPropertyOp21
 70
     1
102
RTVSPropertyOp22
 70
     1
102
RTVSPropertyOp23
 70
     1
102
RTVSPropertyOp24
 70
     1
102
RTVSPropertyOp25
 70
     1
102
RTVSPropertyOp26
 70
     1
102
RTVSPropertyOp27
 70
     1
102
RTVSPropertyOp28
 70
     1
102
RTVSPropertyOp29
 70
     1
102
RTVSPropertyOp30
 70
     1
102
RTVSPropertyOp31
 70
     1
102
RTVSPropertyOp32
 70
     1
102
RTVSPropertyOp33
 70
     1
102
RTVSPropertyOp34
 70
     1
102
RTVSPropertyOp35
 70
     1
102
RTVSPropertyOp36
 70
     1
102
RTVSPropertyOp37
 70
     1
102
RTVSPropertyOp38
 70
     1
102
RTVSPropertyOp39
 70
     1
102
RTVSPropertyOp40
 70
     1
102
RTVSPropertyOp41
 70
     1
102
RTVSPropertyOp42
 70
     1
102
RTVSPropertyOp43
 70
     1
102
RTVSPropertyOp44
 70
     1
102
RTVSPropertyOp45
 70
     1
102
RTVSPropertyOp46
 70
     1
102
RTVSPropertyOp47
 70
     1
102
RTVSPropertyOp48
 70
     1
102
RTVSPropertyOp49
 70
     1
102
RTVSPropertyOp50
 70
     1
102
RTVSPropertyOp51
 70
     0
102
RTVSPropertyOp52
 70
     0
102
RTVSPropertyOp53
 70
     1
102
RTVSPropertyOp54
 70
     1
102
RTVSPropertyOp55
 70
     1
102
RTVSPropertyOp56
 70
     1
102
RTVSPropertyOp57
 70
     1
102
RTVSPost2010Prop28
280
     0
102
RTVSPost2010PropOp28
 70
     1
102
RTVSPost2010Prop29
280
     1
102
RTVSPost2010PropOp29
 70
     1
102
RTVSPost2010Prop30
280
     1
102
RTVSPost2010PropOp30
 70
     1
102
RTVSPost2010Prop31
280
     0
102
RTVSPost2010PropOp31
 70
     1
102
RTVSPost2010Prop32
280
     0
102
RTVSPost2010PropOp32
 70
     1
102
RTVSPost2010Prop33
280
     0
102
RTVSPost2010PropOp33
 70
     1
102
RTVSPost2010Prop34
280
     0
102
RTVSPost2010PropOp34
 70
     1
102
RTVSPost2010Prop35
280
     0
102
RTVSPost2010PropOp35
 70
     1
102
RTVSPost2010Prop36
280
     0
102
RTVSPost2010PropOp36
 70
     1
102
RTVSPost2010Prop37
 90
       50
102
RTVSPost2010PropOp37
 70
     1
102
RTVSPost2010Prop38
140
0.0
102
RTVSPost2010PropOp38
 70
     1
102
RTVSPost2010Prop39
140
1.0
102
RTVSPost2010PropOp39
 70
     1
102
RTVSPost2010Prop40
 90
        0
102
RTVSPost2010PropOp40
 70
     1
102
RTVSPost2010Prop41ColorIndex
 90
       18
102
RTVSPost2010Prop41ColorRGB
 90
        0
102
RTVSPost2010PropOp41
 70
     1
102
RTVSPost2010Prop42
 90
       50
102
RTVSPost2010PropOp42
 70
     1
102
RTVSPost2010Prop43
 90
        3
102
RTVSPost2010PropOp43
 70
     1
102
RTVSPost2010Prop44ColorIndex
 90
        5
102
RTVSPost2010Prop44ColorRGB
 90
      255
102
RTVSPost2010PropOp44
 70
     1
102
RTVSPost2010Prop45
280
     0
102
RTVSPost2010PropOp45
 70
     1
102
RTVSPost2010Prop46
 90
       50
102
RTVSPost2010PropOp46
 70
     1
102
RTVSPost2010Prop47
 90
       50
102
RTVSPost2010PropOp47
 70
     1
102
RTVSPost2010Prop48
 90
       50
102
RTVSPost2010PropOp48
 70
     1
102
RTVSPost2010Prop49
280
     0
102
RTVSPost2010PropOp49
 70
     1
102
RTVSPost2010Prop50
 90
       50
102
RTVSPost2010PropOp50
 70
     1
102
RTVSPost2010Prop51ColorIndex
 90
      256
102
RTVSPost2010Prop51ColorRGB
 90
-16777216
102
RTVSPost2010PropOp51
 70
     0
102
RTVSPost2010Prop52
140
1.0
102
RTVSPost2010PropOp52
 70
     0
102
RTVSPost2010Prop53
 90
        2
102
RTVSPost2010PropOp53
 70
     1
102
RTVSPost2010Prop54
  1
strokes_ogs.tif
102
RTVSPost2010PropOp54
 70
     1
102
RTVSPost2010Prop55
280
     0
102
RTVSPost2010PropOp55
 70
     1
102
RTVSPost2010Prop56
140
1.0
102
RTVSPost2010PropOp56
 70
     1
102
RTVSPost2010Prop57
140
1.0
102
RTVSPost2010PropOp57
 70
     1
  0
ENDSEC
  0
EOF
