  0
SECTION
  2
HEADER
  9
$ACADVER
  1
AC1015
  9
$ACADMAINTVER
 70
     6
  9
$DWGCODEPAGE
  3
ANSI_1251
  9
$INSBASE
 10
0.0
 20
0.0
 30
0.0
  9
$EXTMIN
 10
0.0
 20
0.0
 30
0.0
  9
$EXTMAX
 10
279.4
 20
215.9
 30
0.0
  9
$LIMMIN
 10
0.0
 20
0.0
  9
$LIMMAX
 10
279.4
 20
215.9
  9
$ORTHOMODE
 70
     0
  9
$REGENMODE
 70
     1
  9
$FILLMODE
 70
     1
  9
$QTEXTMODE
 70
     0
  9
$MIRRTEXT
 70
     1
  9
$LTSCALE
 40
1.0
  9
$ATTMODE
 70
     1
  9
$TEXTSIZE
 40
3.5
  9
$TRACEWID
 40
1.0
  9
$TEXTSTYLE
  7
Standard
  9
$CLAYER
  8
0
  9
$CELTYPE
  6
ByLayer
  9
$CECOLOR
 62
   256
  9
$CELTSCALE
 40
1.0
  9
$DISPSILH
 70
     0
  9
$DIMSCALE
 40
1.0
  9
$DIMASZ
 40
3.5
  9
$DIMEXO
 40
0.01
  9
$DIMDLI
 40
3.75
  9
$DIMRND
 40
0.0
  9
$DIMDLE
 40
0.0
  9
$DIMEXE
 40
1.0
  9
$DIMTP
 40
0.0
  9
$DIMTM
 40
0.0
  9
$DIMTXT
 40
3.5
  9
$DIMCEN
 40
2.5
  9
$DIMTSZ
 40
0.0
  9
$DIMTOL
 70
     0
  9
$DIMLIM
 70
     0
  9
$DIMTIH
 70
     1
  9
$DIMTOH
 70
     1
  9
$DIMSE1
 70
     0
  9
$DIMSE2
 70
     0
  9
$DIMTAD
 70
     1
  9
$DIMZIN
 70
     0
  9
$DIMBLK
  1

  9
$DIMASO
 70
     1
  9
$DIMSHO
 70
     1
  9
$DIMPOST
  1

  9
$DIMAPOST
  1

  9
$DIMALT
 70
     0
  9
$DIMALTD
 70
     3
  9
$DIMALTF
 40
0.0393700787
  9
$DIMLFAC
 40
2.0
  9
$DIMTOFL
 70
     1
  9
$DIMTVP
 40
0.0
  9
$DIMTIX
 70
     0
  9
$DIMSOXD
 70
     0
  9
$DIMSAH
 70
     0
  9
$DIMBLK1
  1

  9
$DIMBLK2
  1

  9
$DIMSTYLE
  2
ISO-25
  9
$DIMCLRD
 70
     0
  9
$DIMCLRE
 70
     0
  9
$DIMCLRT
 70
     0
  9
$DIMTFAC
 40
1.0
  9
$DIMGAP
 40
3.0
  9
$DIMJUST
 70
     0
  9
$DIMSD1
 70
     0
  9
$DIMSD2
 70
     0
  9
$DIMTOLJ
 70
     0
  9
$DIMTZIN
 70
     0
  9
$DIMALTZ
 70
     0
  9
$DIMALTTZ
 70
     0
  9
$DIMUPT
 70
     0
  9
$DIMDEC
 70
     2
  9
$DIMTDEC
 70
     3
  9
$DIMALTU
 70
     2
  9
$DIMALTTD
 70
     3
  9
$DIMTXSTY
  7
Standard
  9
$DIMAUNIT
 70
     0
  9
$DIMADEC
 70
     2
  9
$DIMALTRND
 40
0.0
  9
$DIMAZIN
 70
     0
  9
$DIMDSEP
 70
    44
  9
$DIMATFIT
 70
     3
  9
$DIMFRAC
 70
     0
  9
$DIMLDRBLK
  1

  9
$DIMLUNIT
 70
     2
  9
$DIMLWD
 70
    -2
  9
$DIMLWE
 70
    -2
  9
$DIMTMOVE
 70
     0
  9
$LUNITS
 70
     2
  9
$LUPREC
 70
     2
  9
$SKETCHINC
 40
1.0
  9
$FILLETRAD
 40
10.0
  9
$AUNITS
 70
     0
  9
$AUPREC
 70
     2
  9
$MENU
  1
.
  9
$ELEVATION
 40
0.0
  9
$PELEVATION
 40
0.0
  9
$THICKNESS
 40
0.0
  9
$LIMCHECK
 70
     0
  9
$CHAMFERA
 40
10.0
  9
$CHAMFERB
 40
10.0
  9
$CHAMFERC
 40
20.0
  9
$CHAMFERD
 40
0.0
  9
$SKPOLY
 70
     0
  9
$TDCREATE
 40
2457408.6955664
  9
$TDUCREATE
 40
2457408.612233067
  9
$TDUPDATE
 40
2457408.695568206
  9
$TDUUPDATE
 40
2457408.612234873
  9
$TDINDWG
 40
0.0000000116
  9
$TDUSRTIMER
 40
0.0000000116
  9
$USRTIMER
 70
     1
  9
$ANGBASE
 50
0.0
  9
$ANGDIR
 70
     0
  9
$PDMODE
 70
     0
  9
$PDSIZE
 40
-1.0
  9
$PLINEWID
 40
0.0
  9
$SPLFRAME
 70
     0
  9
$SPLINETYPE
 70
     6
  9
$SPLINESEGS
 70
     8
  9
$HANDSEED
  5
2D0
  9
$SURFTAB1
 70
     6
  9
$SURFTAB2
 70
     6
  9
$SURFTYPE
 70
     6
  9
$SURFU
 70
     6
  9
$SURFV
 70
     6
  9
$UCSBASE
  2

  9
$UCSNAME
  2

  9
$UCSORG
 10
0.0
 20
0.0
 30
0.0
  9
$UCSXDIR
 10
1.0
 20
0.0
 30
0.0
  9
$UCSYDIR
 10
0.0
 20
1.0
 30
0.0
  9
$UCSORTHOREF
  2

  9
$UCSORTHOVIEW
 70
     0
  9
$UCSORGTOP
 10
0.0
 20
0.0
 30
0.0
  9
$UCSORGBOTTOM
 10
0.0
 20
0.0
 30
0.0
  9
$UCSORGLEFT
 10
0.0
 20
0.0
 30
0.0
  9
$UCSORGRIGHT
 10
0.0
 20
0.0
 30
0.0
  9
$UCSORGFRONT
 10
0.0
 20
0.0
 30
0.0
  9
$UCSORGBACK
 10
0.0
 20
0.0
 30
0.0
  9
$PUCSBASE
  2

  9
$PUCSNAME
  2

  9
$PUCSORG
 10
0.0
 20
0.0
 30
0.0
  9
$PUCSXDIR
 10
1.0
 20
0.0
 30
0.0
  9
$PUCSYDIR
 10
0.0
 20
1.0
 30
0.0
  9
$PUCSORTHOREF
  2

  9
$PUCSORTHOVIEW
 70
     0
  9
$PUCSORGTOP
 10
0.0
 20
0.0
 30
0.0
  9
$PUCSORGBOTTOM
 10
0.0
 20
0.0
 30
0.0
  9
$PUCSORGLEFT
 10
0.0
 20
0.0
 30
0.0
  9
$PUCSORGRIGHT
 10
0.0
 20
0.0
 30
0.0
  9
$PUCSORGFRONT
 10
0.0
 20
0.0
 30
0.0
  9
$PUCSORGBACK
 10
0.0
 20
0.0
 30
0.0
  9
$USERI1
 70
     0
  9
$USERI2
 70
     0
  9
$USERI3
 70
     0
  9
$USERI4
 70
     0
  9
$USERI5
 70
     0
  9
$USERR1
 40
0.0
  9
$USERR2
 40
0.0
  9
$USERR3
 40
0.0
  9
$USERR4
 40
0.0
  9
$USERR5
 40
0.0
  9
$WORLDVIEW
 70
     1
  9
$SHADEDGE
 70
     3
  9
$SHADEDIF
 70
    70
  9
$TILEMODE
 70
     1
  9
$MAXACTVP
 70
    64
  9
$PINSBASE
 10
0.0
 20
0.0
 30
0.0
  9
$PLIMCHECK
 70
     0
  9
$PEXTMIN
 10
1.0000000000E+20
 20
1.0000000000E+20
 30
1.0000000000E+20
  9
$PEXTMAX
 10
-1.0000000000E+20
 20
-1.0000000000E+20
 30
-1.0000000000E+20
  9
$PLIMMIN
 10
0.0
 20
0.0
  9
$PLIMMAX
 10
420.0
 20
297.0
  9
$UNITMODE
 70
     0
  9
$VISRETAIN
 70
     1
  9
$PLINEGEN
 70
     0
  9
$PSLTSCALE
 70
     1
  9
$TREEDEPTH
 70
  3020
  9
$CMLSTYLE
  2
Standard
  9
$CMLJUST
 70
     0
  9
$CMLSCALE
 40
20.0
  9
$PROXYGRAPHICS
 70
     1
  9
$MEASUREMENT
 70
     1
  9
$CELWEIGHT
370
    -1
  9
$ENDCAPS
280
     0
  9
$JOINSTYLE
280
     0
  9
$LWDISPLAY
290
     1
  9
$INSUNITS
 70
     4
  9
$HYPERLINKBASE
  1

  9
$STYLESHEET
  1

  9
$XEDIT
290
     1
  9
$CEPSNTYPE
380
     0
  9
$PSTYLEMODE
290
     1
  9
$FINGERPRINTGUID
  2
{3767D88B-2292-4A20-B3DE-B00AC6807583}
  9
$VERSIONGUID
  2
{FAEB1C32-E019-11D5-929B-00C0DF256EC4}
  9
$EXTNAMES
290
     1
  9
$PSVPSCALE
 40
0.0
  9
$OLESTARTUP
290
     0
  0
ENDSEC
  0
SECTION
  2
CLASSES
  0
CLASS
  1
ACDBDICTIONARYWDFLT
  2
AcDbDictionaryWithDefault
  3
ObjectDBX Classes
 90
        0
280
     0
281
     0
  0
CLASS
  1
VISUALSTYLE
  2
AcDbVisualStyle
  3
ObjectDBX Classes
 90
     4095
280
     0
281
     0
  0
CLASS
  1
MATERIAL
  2
AcDbMaterial
  3
ObjectDBX Classes
 90
     1153
280
     0
281
     0
  0
CLASS
  1
ACDBPLACEHOLDER
  2
AcDbPlaceHolder
  3
ObjectDBX Classes
 90
        0
280
     0
281
     0
  0
CLASS
  1
LAYOUT
  2
AcDbLayout
  3
ObjectDBX Classes
 90
        0
280
     0
281
     0
  0
ENDSEC
  0
SECTION
  2
TABLES
  0
TABLE
  2
VPORT
  5
8
330
0
100
AcDbSymbolTable
 70
     1
  0
VPORT
  5
29
330
8
100
AcDbSymbolTableRecord
100
AcDbViewportTableRecord
  2
*Active
 70
     0
 10
0.0
 20
0.0
 11
1.0
 21
1.0
 12
139.7
 22
107.95
 13
0.0
 23
0.0
 14
10.0
 24
10.0
 15
10.0
 25
10.0
 16
0.0
 26
0.0
 36
1.0
 17
0.0
 27
0.0
 37
0.0
 40
215.9
 41
1.2941176471
 42
50.0
 43
0.0
 44
0.0
 50
0.0
 51
0.0
 71
     0
 72
  2000
 73
     1
 74
     3
 75
     0
 76
     0
 77
     0
 78
     0
281
     0
 65
     1
110
0.0
120
0.0
130
0.0
111
1.0
121
0.0
131
0.0
112
0.0
122
1.0
132
0.0
 79
     0
146
0.0
  0
ENDTAB
  0
TABLE
  2
LTYPE
  5
5
330
0
100
AcDbSymbolTable
 70
     6
  0
LTYPE
  5
14
330
5
100
AcDbSymbolTableRecord
100
AcDbLinetypeTableRecord
  2
ByBlock
 70
     0
  3

 72
    65
 73
     0
 40
0.0
  0
LTYPE
  5
15
330
5
100
AcDbSymbolTableRecord
100
AcDbLinetypeTableRecord
  2
ByLayer
 70
     0
  3

 72
    65
 73
     0
 40
0.0
  0
LTYPE
  5
16
330
5
100
AcDbSymbolTableRecord
100
AcDbLinetypeTableRecord
  2
Continuous
 70
     0
  3
Solid line
 72
    65
 73
     0
 40
0.0
  0
LTYPE
  5
3F
330
5
100
AcDbSymbolTableRecord
100
AcDbLinetypeTableRecord
  2
HIDDEN
 70
     0
  3
Hidden __ __ __ __ __ __ __ __ __ __ __ __ __ __
 72
    65
 73
     2
 40
1.905
 49
1.27
 74
     0
 49
-0.635
 74
     0
  0
LTYPE
  5
40
330
5
100
AcDbSymbolTableRecord
100
AcDbLinetypeTableRecord
  2
PHANTOM
 70
     0
  3
Phantom ______  __  __  ______  __  __  ______
 72
    65
 73
     6
 40
12.7
 49
6.35
 74
     0
 49
-1.27
 74
     0
 49
1.27
 74
     0
 49
-1.27
 74
     0
 49
1.27
 74
     0
 49
-1.27
 74
     0
  0
LTYPE
  5
41
330
5
100
AcDbSymbolTableRecord
100
AcDbLinetypeTableRecord
  2
CENTER
 70
     0
  3
Center ____ _ ____ _ ____ _ ____ _ ____ _ ____
 72
    65
 73
     4
 40
10.16
 49
6.35
 74
     0
 49
-1.27
 74
     0
 49
1.27
 74
     0
 49
-1.27
 74
     0
  0
LTYPE
  5
42
330
5
100
AcDbSymbolTableRecord
100
AcDbLinetypeTableRecord
  2
CENTERX2
 70
     0
  3
Center (2x) ________  __  ________  __  _____
 72
    65
 73
     4
 40
20.32
 49
12.7
 74
     0
 49
-2.54
 74
     0
 49
2.54
 74
     0
 49
-2.54
 74
     0
  0
LTYPE
  5
43
330
5
100
AcDbSymbolTableRecord
100
AcDbLinetypeTableRecord
  2
DOT2
 70
     0
  3
Dot (.5x) ........................................
 72
    65
 73
     2
 40
0.635
 49
0.0
 74
     0
 49
-0.635
 74
     0
  0
ENDTAB
  0
TABLE
  2
LAYER
  5
2
330
0
100
AcDbSymbolTable
 70
     1
  0
LAYER
  5
10
330
2
100
AcDbSymbolTableRecord
100
AcDbLayerTableRecord
  2
0
 70
     0
 62
     7
  6
Continuous
370
    -3
390
F
  0
ENDTAB
  0
TABLE
  2
STYLE
  5
3
330
0
100
AcDbSymbolTable
 70
     1
  0
STYLE
  5
11
330
3
100
AcDbSymbolTableRecord
100
AcDbTextStyleTableRecord
  2
Standard
 70
     0
 40
0.0
 41
1.0
 50
0.0
 71
     0
 42
3.5
  3
txt
  4

  0
ENDTAB
  0
TABLE
  2
VIEW
  5
6
330
0
100
AcDbSymbolTable
 70
     0
  0
ENDTAB
  0
TABLE
  2
UCS
  5
7
330
0
100
AcDbSymbolTable
 70
     0
  0
ENDTAB
  0
TABLE
  2
APPID
  5
9
330
0
100
AcDbSymbolTable
 70
     1
  0
APPID
  5
12
330
9
100
AcDbSymbolTableRecord
100
AcDbRegAppTableRecord
  2
ACAD
 70
     0
  0
ENDTAB
  0
TABLE
  2
DIMSTYLE
  5
A
330
0
100
AcDbSymbolTable
 70
     1
100
AcDbDimStyleTable
  0
DIMSTYLE
105
27
330
A
100
AcDbSymbolTableRecord
100
AcDbDimStyleTableRecord
  2
ISO-25
 70
     0
 41
2.5
 42
0.625
 43
3.75
 44
1.25
 73
     0
 74
     0
 77
     1
 78
     8
140
2.5
141
2.5
143
0.0393700787
147
0.625
171
     3
172
     1
178
     0
271
     2
272
     2
274
     3
278
    44
283
     0
284
     8
340
11
  0
ENDTAB
  0
TABLE
  2
BLOCK_RECORD
  5
1
330
0
100
AcDbSymbolTable
 70
     1
  0
BLOCK_RECORD
  5
1F
330
1
100
AcDbSymbolTableRecord
100
AcDbBlockTableRecord
  2
*Model_Space
340
22
  0
BLOCK_RECORD
  5
1B
330
1
100
AcDbSymbolTableRecord
100
AcDbBlockTableRecord
  2
*Paper_Space
340
1E
  0
BLOCK_RECORD
  5
23
330
1
100
AcDbSymbolTableRecord
100
AcDbBlockTableRecord
  2
*Paper_Space0
340
26
  0
ENDTAB
  0
ENDSEC
  0
SECTION
  2
BLOCKS
  0
BLOCK
  5
20
330
1F
100
AcDbEntity
  8
0
100
AcDbBlockBegin
  2
*Model_Space
 70
     0
 10
0.0
 20
0.0
 30
0.0
  3
*Model_Space
  1

  0
ENDBLK
  5
21
330
1F
100
AcDbEntity
  8
0
100
AcDbBlockEnd
  0
BLOCK
  5
1C
330
1B
100
AcDbEntity
 67
     1
  8
0
100
AcDbBlockBegin
  2
*Paper_Space
 70
     0
 10
0.0
 20
0.0
 30
0.0
  3
*Paper_Space
  1

  0
ENDBLK
  5
1D
330
1B
100
AcDbEntity
 67
     1
  8
0
100
AcDbBlockEnd
  0
BLOCK
  5
24
330
23
100
AcDbEntity
  8
0
100
AcDbBlockBegin
  2
*Paper_Space0
 70
     0
 10
0.0
 20
0.0
 30
0.0
  3
*Paper_Space0
  1

  0
ENDBLK
  5
25
330
23
100
AcDbEntity
  8
0
100
AcDbBlockEnd
  0
ENDSEC
  0
SECTION
  2
ENTITIES
  0
SPLINE
  5
44
330
1F
100
AcDbEntity
  8
0
  6
Continuous
 62
     7
370
    15
100
AcDbSpline
210
0.0
220
0.0
230
1.0
 70
     8
 71
     3
 72
    17
 73
    13
 74
     0
 42
0.00000001
 43
0.00000001
 12
1.0
 22
0.0
 32
0.0
 13
1.0
 23
0.0
 33
0.0
 40
0.0
 40
0.0
 40
0.0
 40
0.0
 40
0.2918465735743897
 40
0.4376805284822409
 40
0.5766233123010558
 40
0.7034856884766931
 40
0.8479382711877586
 40
0.8818117833707512
 40
0.8941072298972241
 40
0.9225934958444708
 40
0.9764948298097383
 40
1.0
 40
1.0
 40
1.0
 40
1.0
 10
105.8642558941111
 20
153.5006495793529
 30
0.0
 10
103.5820899786906
 20
151.7050853475096
 30
0.0
 10
99.70478503586838
 20
149.8077047757652
 30
0.0
 10
94.2061213728664
 20
148.1572717748783
 30
0.0
 10
90.05309150570437
 20
148.5395015624534
 30
0.0
 10
86.44098608564518
 20
150.9756176121558
 30
0.0
 10
85.24056272759783
 20
153.2482104236107
 30
0.0
 10
83.8837771893976
 20
155.2891788983308
 30
0.0
 10
83.18512962710922
 20
154.8436358282662
 30
0.0
 10
82.81901650804058
 20
154.0011021806972
 30
0.0
 10
82.20653658408536
 20
153.022182761456
 30
0.0
 10
81.47479678987635
 20
152.8179804403378
 30
0.0
 10
81.22059092526254
 20
152.8159940725301
 30
0.0
  0
LINE
  5
45
330
1F
100
AcDbEntity
  8
0
  6
Continuous
 62
     7
370
    15
100
AcDbLine
 10
81.2205876946
 20
152.8159938629
 30
0.0
 11
81.2196116685
 21
152.9409903909
 31
0.0
  0
SPLINE
  5
46
330
1F
100
AcDbEntity
  8
0
  6
Continuous
 62
     7
370
    15
100
AcDbSpline
210
0.0
220
0.0
230
1.0
 70
     8
 71
     3
 72
    60
 73
    56
 74
     0
 42
0.00000001
 43
0.00000001
 12
1.0
 22
0.0
 32
0.0
 13
1.0
 23
0.0
 33
0.0
 40
0.0
 40
0.0
 40
0.0
 40
0.0
 40
0.0027611645034145
 40
0.0054832639575444
 40
0.0081774351292712
 40
0.0108551632723243
 40
0.0135281456057437
 40
0.0162081414905508
 40
0.0189068186056455
 40
0.0216356050101896
 40
0.0244055561203825
 40
0.0272272435419841
 40
0.030110669889012
 40
0.0436742753691369
 40
0.0600992925966796
 40
0.0668489957210897
 40
0.0752714090625894
 40
0.0840879585108036
 40
0.0903843881118194
 40
0.0982192503997837
 40
0.1055785883100072
 40
0.1140310608395972
 40
0.1211692548982177
 40
0.1258148581182726
 40
0.1309096775145256
 40
0.1367907326525108
 40
0.1436546557227776
 40
0.1523850790888847
 40
0.1609278783551628
 40
0.1712918417017387
 40
0.1834779969090698
 40
0.2110728823277636
 40
0.2318073262600219
 40
0.2456841175751259
 40
0.2676182010951251
 40
0.2882180811107236
 40
0.3075699427019297
 40
0.3385487775676847
 40
0.3706433776262434
 40
0.4024332101267273
 40
0.4337930994830735
 40
0.4651244384156114
 40
0.4968297040192727
 40
0.5572076538301338
 40
0.6228052185511803
 40
0.6506645812245114
 40
0.6809251564245249
 40
0.7136349178588776
 40
0.7488318258698664
 40
0.8135651783950333
 40
0.8740294096571399
 40
0.9062147848691855
 40
0.9367222125117385
 40
0.9667269510215231
 40
1.0
 40
1.0
 40
1.0
 40
1.0
 10
81.21961420351629
 20
152.9409902565304
 30
0.0
 10
81.24693197617077
 20
152.9412896957496
 30
0.0
 10
81.30118102870334
 20
152.9418843377116
 30
0.0
 10
81.38181465358407
 20
152.9491957630193
 30
0.0
 10
81.46100653575755
 20
152.9612419940529
 30
0.0
 10
81.53875565223639
 20
152.9784652940305
 30
0.0
 10
81.61505656060969
 20
153.0007488238972
 30
0.0
 10
81.68990507754306
 20
153.0281222629678
 30
0.0
 10
81.76329739160131
 20
153.0605747877652
 30
0.0
 10
81.83523018923661
 20
153.0981055745517
 30
0.0
 10
81.90570280545192
 20
153.1407094468391
 30
0.0
 10
81.97470932383891
 20
153.1883857689018
 30
0.0
 10
82.1250373980367
 20
153.3057229524833
 30
0.0
 10
82.34830450406166
 20
153.545607462012
 30
0.0
 10
82.55194698917401
 20
153.8476771596742
 30
0.0
 10
82.70492422980757
 20
154.1203028628671
 30
0.0
 10
82.81138949976547
 20
154.3323889355195
 30
0.0
 10
82.91612219014524
 20
154.540288268158
 30
0.0
 10
83.02774359086312
 20
154.7381103239067
 30
0.0
 10
83.15470300987865
 20
154.9098241500502
 30
0.0
 10
83.3234387650987
 20
155.0729816869279
 30
0.0
 10
83.51589389238539
 20
155.1984784680233
 30
0.0
 10
83.7167879269869
 20
155.2454366289886
 30
0.0
 10
83.88409042236725
 20
155.2166674983889
 30
0.0
 10
84.02347049608532
 20
155.1460072070222
 30
0.0
 10
84.16035503806351
 20
155.0330217854772
 30
0.0
 10
84.29998102680536
 20
154.8721288912298
 30
0.0
 10
84.43751897353935
 20
154.6767816392495
 30
0.0
 10
84.58643481802619
 20
154.4475548658233
 30
0.0
 10
84.75239517734795
 20
154.1886313725884
 30
0.0
 10
85.01552640891039
 20
153.7682008147356
 30
0.0
 10
85.33291348543953
 20
153.2607189771564
 30
0.0
 10
85.66355207963177
 20
152.7418292775453
 30
0.0
 10
85.97042941395303
 20
152.2741902099922
 30
0.0
 10
86.29880377181092
 20
151.8226617185562
 30
0.0
 10
86.6872945008621
 20
151.3491119485944
 30
0.0
 10
87.16959190225442
 20
150.8387745811225
 30
0.0
 10
87.78665514218473
 20
150.3030693446336
 30
0.0
 10
88.55774287282769
 20
149.7656868469714
 30
0.0
 10
89.38340224758807
 20
149.3082363718057
 30
0.0
 10
90.24892073251358
 20
148.950426956529
 30
0.0
 10
91.14872681103017
 20
148.6936901922932
 30
0.0
 10
92.35521165169736
 20
148.4931843019065
 30
0.0
 10
93.92462154427986
 20
148.4790523052031
 30
0.0
 10
95.43208075660456
 20
148.7280116420513
 30
0.0
 10
96.61566276765105
 20
149.0394414778112
 30
0.0
 10
97.47441035213683
 20
149.3043024850805
 30
0.0
 10
98.39128063153002
 20
149.6244178970898
 30
0.0
 10
99.61603091387849
 20
150.0950721069771
 30
0.0
 10
101.0744884427867
 20
150.7216102422944
 30
0.0
 10
102.4643890417843
 20
151.4253367599976
 30
0.0
 10
103.5205760758985
 20
152.0327148874541
 30
0.0
 10
104.2986319969976
 20
152.5182101655698
 30
0.0
 10
105.0626489427675
 20
153.0450256085129
 30
0.0
 10
105.5599058936337
 20
153.4252206886661
 30
0.0
 10
105.8213760798998
 20
153.6251368049757
 30
0.0
  0
SPLINE
  5
47
330
1F
100
AcDbEntity
  8
0
  6
Continuous
 62
     7
370
    15
100
AcDbSpline
210
0.0
220
0.0
230
1.0
 70
     8
 71
     3
 72
     8
 73
     4
 74
     0
 42
0.00000001
 43
0.00000001
 12
1.0
 22
0.0
 32
0.0
 13
1.0
 23
0.0
 33
0.0
 40
0.0
 40
0.0
 40
0.0
 40
0.0
 40
1.0
 40
1.0
 40
1.0
 40
1.0
 10
105.8649279734394
 20
153.5006611071462
 30
0.0
 10
105.8506800178839
 20
153.5423543549842
 30
0.0
 10
105.8363960144378
 20
153.5840280460937
 30
0.0
 10
105.8220813591669
 20
153.6256858730789
 30
0.0
  0
SPLINE
  5
48
330
1F
100
AcDbEntity
  8
0
  6
Continuous
 62
     7
370
    15
100
AcDbSpline
210
0.0
220
0.0
230
1.0
 70
     8
 71
     3
 72
   138
 73
   134
 74
     0
 42
0.00000001
 43
0.00000001
 12
1.0
 22
0.0
 32
0.0
 13
1.0
 23
0.0
 33
0.0
 40
-0.0120737544271941
 40
-0.0077783418232424
 40
-0.0045974405800482
 40
0.0
 40
0.0075358030191636
 40
0.014097150046055
 40
0.0196840582222879
 40
0.0242965555535305
 40
0.0279346925479938
 40
0.0305985751371751
 40
0.0386805636190301
 40
0.0464544992625917
 40
0.0539249646624325
 40
0.0610971241364534
 40
0.076830287641951
 40
0.0921245054922608
 40
0.1070321824366447
 40
0.121609892495734
 40
0.1531187583373292
 40
0.1826549484825616
 40
0.2139197173984894
 40
0.2436850835108777
 40
0.2592292922019305
 40
0.2743227275823066
 40
0.2821333827987776
 40
0.2897925018956955
 40
0.2973786930999862
 40
0.3049728296442185
 40
0.3150326566429965
 40
0.3251887404733078
 40
0.3355910738375451
 40
0.3427727160358706
 40
0.3502536019793187
 40
0.3580542724915476
 40
0.3661928474582852
 40
0.3758366257279528
 40
0.385088062506168
 40
0.3939983544567104
 40
0.4026247743318536
 40
0.4110303994791233
 40
0.4192833713927039
 40
0.4274556509848411
 40
0.4428314201566527
 40
0.4581910539176445
 40
0.4735006027564784
 40
0.4890091063466672
 40
0.5043090785373877
 40
0.5198044434737629
 40
0.5278321791668276
 40
0.5355944654035957
 40
0.5431743995082121
 40
0.5506611531828116
 40
0.5569801828355982
 40
0.5631362371915941
 40
0.5692253480607264
 40
0.5753466986944206
 40
0.5815979379672453
 40
0.5845290950316373
 40
0.5871221431636725
 40
0.589383022853375
 40
0.5934514117181172
 40
0.5971245154690314
 40
0.6010325020278349
 40
0.6049013625112043
 40
0.6088439045844325
 40
0.6126368802695695
 40
0.6148774736823852
 40
0.6172198944860008
 40
0.6196947761545055
 40
0.6223281335167383
 40
0.6251415887578223
 40
0.6281528870595805
 40
0.631608396743142
 40
0.6359762252500032
 40
0.6397337251175178
 40
0.6423573431613651
 40
0.6438472305114529
 40
0.646748035018581
 40
0.6495255576331964
 40
0.6521830920190848
 40
0.6547243984156104
 40
0.6571537768219566
 40
0.6594761490429367
 40
0.6676378698935332
 40
0.6756306734448421
 40
0.6839459056278878
 40
0.691893769329639
 40
0.6960245708556944
 40
0.7000730265861967
 40
0.7041088723584003
 40
0.7082024885022502
 40
0.7134820208278396
 40
0.7188806750733153
 40
0.7245509346950267
 40
0.732643668905972
 40
0.7408220713643566
 40
0.7491038377521789
 40
0.7570544199432229
 40
0.7608224103675751
 40
0.7647691894347225
 40
0.7689259603277729
 40
0.7733194543354299
 40
0.7834787224109714
 40
0.7942266186913131
 40
0.8056935610598874
 40
0.8159610491204613
 40
0.8267434966156212
 40
0.8380786676294053
 40
0.8478371446772386
 40
0.858630595818766
 40
0.8704744665248021
 40
0.8747775905552496
 40
0.8867117197767548
 40
0.8956461374008745
 40
0.9029384255218872
 40
0.9127428828806881
 40
0.9213738598841981
 40
0.928885055015511
 40
0.9353580951742905
 40
0.9437034109997366
 40
0.9515409800620649
 40
0.9556843925807581
 40
0.9597049757520822
 40
0.9638513060342404
 40
0.9678110161662906
 40
0.969844597242604
 40
0.9718689907511011
 40
0.9739028532154105
 40
0.975964584122533
 40
0.980032273498514
 40
0.9840995486915257
 40
0.987926245572806
 40
0.9922216581767576
 40
0.9954025594199518
 40
1.0
 40
1.007535803019164
 40
1.014097150046055
 40
1.019684058222288
 10
116.177832020976
 20
157.1634254893068
 30
0.0
 10
116.4416037231181
 20
157.4511011144284
 30
0.0
 10
116.7661792240889
 20
157.7998839012625
 30
0.0
 10
117.1076282056267
 20
158.1674110339702
 30
0.0
 10
117.3990926616238
 20
158.4796823128661
 30
0.0
 10
117.6403745418832
 20
158.7368810753124
 30
0.0
 10
117.8313727496659
 20
158.9391075204136
 30
0.0
 10
118.0851151311388
 20
159.2036872603254
 30
0.0
 10
118.4180220291142
 20
159.5383474896404
 30
0.0
 10
118.8463521097984
 20
159.9506618399597
 30
0.0
 10
119.2679065401371
 20
160.3363627526053
 30
0.0
 10
119.8536913978601
 20
160.842601465397
 30
0.0
 10
120.6165711157278
 20
161.4483246721751
 30
0.0
 10
121.5730731198157
 20
162.1243605771124
 30
0.0
 10
122.5438352187383
 20
162.7259761648249
 30
0.0
 10
123.9146204215437
 20
163.4602698860531
 30
0.0
 10
125.7080583238651
 20
164.1911118507204
 30
0.0
 10
128.020519358275
 20
164.6865880278778
 30
0.0
 10
130.34986658877
 20
164.7062153149493
 30
0.0
 10
132.2657381680079
 20
164.2232574921209
 30
0.0
 10
133.655626665054
 20
163.5504269322422
 30
0.0
 10
134.4641132003839
 20
162.988272581932
 30
0.0
 10
135.0419227262259
 20
162.4643804046
 30
0.0
 10
135.4356331354516
 20
162.0267580410625
 30
0.0
 10
135.7792890646834
 20
161.5556430852661
 30
0.0
 10
136.1021865020473
 20
160.9980463046537
 30
0.0
 10
136.3864831721689
 20
160.3467317606699
 30
0.0
 10
136.6096792142358
 20
159.5969800059601
 30
0.0
 10
136.727175734469
 20
158.8981740913917
 30
0.0
 10
136.7790319061193
 20
158.2611948021775
 30
0.0
 10
136.7958535374924
 20
157.6886927032466
 30
0.0
 10
136.7827300425686
 20
157.0917299771824
 30
0.0
 10
136.7396740201618
 20
156.4409629231336
 30
0.0
 10
136.6579190213698
 20
155.7563348891622
 30
0.0
 10
136.5225094883037
 20
155.0600616160331
 30
0.0
 10
136.3408908502545
 20
154.4012016467108
 30
0.0
 10
136.1125387768066
 20
153.779862127937
 30
0.0
 10
135.8375423340965
 20
153.1961248267337
 30
0.0
 10
135.5156270562513
 20
152.6501544935433
 30
0.0
 10
135.0396599447975
 20
151.9929992486529
 30
0.0
 10
134.3450579194833
 20
151.2755675322669
 30
0.0
 10
133.3692542474922
 20
150.6104656463479
 30
0.0
 10
132.2852757082175
 20
150.1355863276399
 30
0.0
 10
131.1346806351702
 20
149.8667608170624
 30
0.0
 10
129.9519714148953
 20
149.7925597149232
 30
0.0
 10
128.9627283312077
 20
149.8896278390668
 30
0.0
 10
128.1836357062108
 20
150.0637114723828
 30
0.0
 10
127.6176083874054
 20
150.2527762389176
 30
0.0
 10
127.0876070251611
 20
150.4953952870752
 30
0.0
 10
126.6184649821275
 20
150.7751170989414
 30
0.0
 10
126.2126146623373
 20
151.083730022245
 30
0.0
 10
125.8738813298177
 20
151.4159133154644
 30
0.0
 10
125.5832843424859
 20
151.7844523589732
 30
0.0
 10
125.340683054547
 20
152.1891433045039
 30
0.0
 10
125.1845688284409
 20
152.547628805218
 30
0.0
 10
125.085290122226
 20
152.8308650182841
 30
0.0
 10
125.0265272074995
 20
153.0204594128829
 30
0.0
 10
124.971215422637
 20
153.2411109596305
 30
0.0
 10
124.9344786272969
 20
153.4944462110695
 30
0.0
 10
124.9423372918186
 20
153.7928993993078
 30
0.0
 10
125.0135151824095
 20
154.0789452661066
 30
0.0
 10
125.1549823725176
 20
154.3449205967555
 30
0.0
 10
125.3534695952165
 20
154.5693238324398
 30
0.0
 10
125.5753361763479
 20
154.701598697585
 30
0.0
 10
125.7781085821826
 20
154.7697746052806
 30
0.0
 10
125.954356383535
 20
154.8075880896702
 30
0.0
 10
126.1436199230297
 20
154.8267044417428
 30
0.0
 10
126.3457789799202
 20
154.8277125889457
 30
0.0
 10
126.5608601814327
 20
154.8104234656588
 30
0.0
 10
126.7948467857444
 20
154.7745469188474
 30
0.0
 10
127.064118575885
 20
154.7124984966216
 30
0.0
 10
127.3479972249075
 20
154.631561844459
 30
0.0
 10
127.6105060481089
 20
154.5532597080438
 30
0.0
 10
127.8031218925668
 20
154.4972370266292
 30
0.0
 10
127.9752684862536
 20
154.448999524173
 30
0.0
 10
128.1530783880968
 20
154.4068191798502
 30
0.0
 10
128.3610384677185
 20
154.3632781831438
 30
0.0
 10
128.5614855526798
 20
154.3291105820733
 30
0.0
 10
128.7543006821073
 20
154.3038889960642
 30
0.0
 10
128.9395454816139
 20
154.2877423263316
 30
0.0
 10
129.2684113073783
 20
154.2744739615208
 30
0.0
 10
129.7415347424927
 20
154.3125665207411
 30
0.0
 10
130.3424945736036
 20
154.4941084841065
 30
0.0
 10
130.8888672833361
 20
154.7965276554216
 30
0.0
 10
131.264364021022
 20
155.1657108080066
 30
0.0
 10
131.495937639985
 20
155.5063632908405
 30
0.0
 10
131.6375848770905
 20
155.7846180369828
 30
0.0
 10
131.740146328031
 20
156.0785190746031
 30
0.0
 10
131.8103102428253
 20
156.4138941286967
 30
0.0
 10
131.8311918135036
 20
156.7917823713859
 30
0.0
 10
131.7799952070685
 20
157.2073805800183
 30
0.0
 10
131.6422696478375
 20
157.6776593135664
 30
0.0
 10
131.3964341792134
 20
158.1841077076369
 30
0.0
 10
131.0166926995616
 20
158.6859394067063
 30
0.0
 10
130.5482232079953
 20
159.1035624213356
 30
0.0
 10
130.0882913359172
 20
159.3372017455444
 30
0.0
 10
129.7053631147481
 20
159.4518435179789
 30
0.0
 10
129.4084865399311
 20
159.5122401995008
 30
0.0
 10
129.0917647528068
 20
159.5490595970154
 30
0.0
 10
128.6149581032207
 20
159.567513239993
 30
0.0
 10
127.9694899207147
 20
159.5283880169613
 30
0.0
 10
127.1555711633455
 20
159.3838580433515
 30
0.0
 10
126.3588523705699
 20
159.1542598558805
 30
0.0
 10
125.5824008256755
 20
158.8630717900492
 30
0.0
 10
124.8284012029798
 20
158.5262474159483
 30
0.0
 10
124.1056100084671
 20
158.1544661742306
 30
0.0
 10
123.4026733203514
 20
157.7461047487062
 30
0.0
 10
122.7073027081945
 20
157.3006781644567
 30
0.0
 10
122.1405117995214
 20
156.9129076054956
 30
0.0
 10
121.5608369099009
 20
156.4931853430278
 30
0.0
 10
121.0408075980819
 20
156.1175492687712
 30
0.0
 10
120.4568898947736
 20
155.7002221587891
 30
0.0
 10
119.9095884187306
 20
155.3251843387328
 30
0.0
 10
119.3537675619013
 20
154.9766066528348
 30
0.0
 10
118.7703408516021
 20
154.6640137696061
 30
0.0
 10
118.2394605347467
 20
154.4369985952066
 30
0.0
 10
117.6923446224875
 20
154.2751386607995
 30
0.0
 10
117.1103127867635
 20
154.2225298415047
 30
0.0
 10
116.5947148720596
 20
154.329272166601
 30
0.0
 10
116.2244245333601
 20
154.5049650291074
 30
0.0
 10
115.970662822326
 20
154.6926367256947
 30
0.0
 10
115.7618293098438
 20
154.92441521904
 30
0.0
 10
115.6433692267368
 20
155.157532635036
 30
0.0
 10
115.5844863107329
 20
155.3534567084131
 30
0.0
 10
115.5531126265181
 20
155.5057419214884
 30
0.0
 10
115.5367641143925
 20
155.6611136026928
 30
0.0
 10
115.5344212114852
 20
155.8693782671037
 30
0.0
 10
115.5668473105541
 20
156.1288347389786
 30
0.0
 10
115.6617334787471
 20
156.4205170731665
 30
0.0
 10
115.8089155585162
 20
156.6953571501281
 30
0.0
 10
115.976901134867
 20
156.9302330616066
 30
0.0
 10
116.177832020976
 20
157.1634254893068
 30
0.0
 10
116.4416037231181
 20
157.4511011144284
 30
0.0
 10
116.7661792240889
 20
157.7998839012625
 30
0.0
  0
ARC
  5
49
330
1F
100
AcDbEntity
  8
0
  6
Continuous
 62
     7
370
    15
100
AcDbCircle
 10
65.9254076579
 20
160.1347080048
 30
0.0
 40
0.6250000000000226
100
AcDbArc
 50
270.7719026033
 51
333.3862189559
  0
SPLINE
  5
4A
330
1F
100
AcDbEntity
  8
0
  6
Continuous
 62
     7
370
    15
100
AcDbSpline
210
0.0
220
0.0
230
1.0
 70
     8
 71
     3
 72
    35
 73
    31
 74
     0
 42
0.00000001
 43
0.00000001
 12
1.0
 22
0.0
 32
0.0
 13
1.0
 23
0.0
 33
0.0
 40
0.0
 40
0.0
 40
0.0
 40
0.0
 40
0.0349531801011084
 40
0.0685968039882465
 40
0.1009682528833322
 40
0.1321094896138295
 40
0.1620676469815939
 40
0.1908956612536239
 40
0.2186529353830194
 40
0.2454060057404581
 40
0.2712291722046047
 40
0.2962050350555591
 40
0.3204248651601191
 40
0.3439887201432777
 40
0.3670052142131943
 40
0.3895908597231877
 40
0.4118689299530139
 40
0.4339678459774882
 40
0.4560191591351658
 40
0.478155269469379
 40
0.5005070701956891
 40
0.5620132241126734
 40
0.6254029045818891
 40
0.6873381223379873
 40
0.7505666668760619
 40
0.7973157569695453
 40
0.8453367767825248
 40
0.8949410230396225
 40
0.9464110738763639
 40
1.0
 40
1.0
 40
1.0
 40
1.0
 10
70.55447112458465
 20
159.8621719334794
 30
0.0
 10
70.52401584993612
 20
159.9177802062608
 30
0.0
 10
70.46424633827996
 20
160.0269133316898
 30
0.0
 10
70.36992953396943
 20
160.1839467146918
 30
0.0
 10
70.27431553105673
 20
160.332007904403
 30
0.0
 10
70.17699014829488
 20
160.4708774039377
 30
0.0
 10
70.07805421151083
 20
160.6006114813719
 30
0.0
 10
69.97747760489322
 20
160.7211960787336
 30
0.0
 10
69.8752625934313
 20
160.8326340131209
 30
0.0
 10
69.77140264711745
 20
160.9349225752149
 30
0.0
 10
69.66589311350793
 20
161.0280588041404
 30
0.0
 10
69.55872896794885
 20
161.1120377852374
 30
0.0
 10
69.44990605939554
 20
161.1868528265216
 30
0.0
 10
69.33942166138876
 20
161.2524954123
 30
0.0
 10
69.22727535164609
 20
161.3089555544064
 30
0.0
 10
69.11346957833972
 20
161.3562226613906
 30
0.0
 10
68.99801052273563
 20
161.3942862307507
 30
0.0
 10
68.88090625932917
 20
161.423138757712
 30
0.0
 10
68.76217234306786
 20
161.4427711114131
 30
0.0
 10
68.64180694641306
 20
161.4531951922257
 30
0.0
 10
68.44943957360225
 20
161.4550359694708
 30
0.0
 10
68.182574240127
 20
161.4211256488204
 30
0.0
 10
67.8591674086794
 20
161.3140270250244
 30
0.0
 10
67.55561430739843
 20
161.1531344226575
 30
0.0
 10
67.30739918964096
 20
160.9621971133309
 30
0.0
 10
67.10244106519878
 20
160.7614822054838
 30
0.0
 10
66.93022509430774
 20
160.5638298515853
 30
0.0
 10
66.76936036330419
 20
160.3461798965639
 30
0.0
 10
66.61825012437181
 20
160.1094523842907
 30
0.0
 10
66.52947137041309
 20
159.9407676086147
 30
0.0
 10
66.4841867291108
 20
159.8547241666984
 30
0.0
  0
ARC
  5
4B
330
1F
100
AcDbEntity
  8
0
  6
Continuous
 62
     7
370
    15
100
AcDbCircle
 10
71.1057495625
 20
160.1566495794
 30
0.0
 40
0.6250000000000571
100
AcDbArc
 50
208.1098960135
 51
270.0
  0
LINE
  5
4C
330
1F
100
AcDbEntity
  8
0
  6
Continuous
 62
     7
370
    15
100
AcDbLine
 10
72.0218997239
 20
159.5316496554
 30
0.0
 11
71.1057465314
 21
159.5316496554
 31
0.0
  0
ARC
  5
4D
330
1F
100
AcDbEntity
  8
0
  6
Continuous
 62
     7
370
    15
100
AcDbCircle
 10
72.0218990837
 20
160.1566495794
 30
0.0
 40
0.6250000000000284
100
AcDbArc
 50
270.0
 51
344.6665187247
  0
LINE
  5
4E
330
1F
100
AcDbEntity
  8
0
  6
Continuous
 62
     7
370
    15
100
AcDbLine
 10
73.3225624799
 20
162.5366634566
 30
0.0
 11
72.6246516942
 21
159.9913767881
 31
0.0
  0
ARC
  5
4F
330
1F
100
AcDbEntity
  8
0
  6
Continuous
 62
     7
370
    15
100
AcDbCircle
 10
73.6842127045
 20
162.4374995794
 30
0.0
 40
0.375
100
AcDbArc
 50
90.0
 51
164.6665187247
  0
LINE
  5
50
330
1F
100
AcDbEntity
  8
0
  6
Continuous
 62
     7
370
    15
100
AcDbLine
 10
74.4234006643
 20
162.8124997828
 30
0.0
 11
73.6842136621
 21
162.8124997828
 31
0.0
  0
ARC
  5
51
330
1F
100
AcDbEntity
  8
0
  6
Continuous
 62
     7
370
    15
100
AcDbCircle
 10
74.4234026169
 20
162.4374995794
 30
0.0
 40
0.375
100
AcDbArc
 50
29.6776961541
 51
90.0
  0
LINE
  5
52
330
1F
100
AcDbEntity
  8
0
  6
Continuous
 62
     7
370
    15
100
AcDbLine
 10
75.3963421821
 20
161.4875993568
 30
0.0
 11
74.7492145538
 21
162.6231698196
 31
0.0
  0
ARC
  5
53
330
1F
100
AcDbEntity
  8
0
  6
Continuous
 62
     7
370
    15
100
AcDbCircle
 10
75.9393591713
 20
161.7970495794
 30
0.0
 40
0.625
100
AcDbArc
 50
209.6776961541
 51
270.0
  0
LINE
  5
54
330
1F
100
AcDbEntity
  8
0
  6
Continuous
 62
     7
370
    15
100
AcDbLine
 10
81.1874549627
 20
161.1720495734
 30
0.0
 11
75.9393628477
 21
161.1720495734
 31
0.0
  0
SPLINE
  5
55
330
1F
100
AcDbEntity
  8
0
  6
Continuous
 62
     7
370
    15
100
AcDbSpline
210
0.0
220
0.0
230
1.0
 70
     8
 71
     3
 72
    74
 73
    70
 74
     0
 42
0.00000001
 43
0.00000001
 12
1.0
 22
0.0
 32
0.0
 13
1.0
 23
0.0
 33
0.0
 40
0.0
 40
0.0
 40
0.0
 40
0.0
 40
0.0088773892216909
 40
0.0177375619963307
 40
0.0265857096710428
 40
0.0354270447752276
 40
0.0442667918897899
 40
0.0531101784101392
 40
0.061962425284301
 40
0.0708287378079983
 40
0.0797142965573731
 40
0.0886242485372239
 40
0.0975636986182875
 40
0.1065377013313695
 40
0.115551253079204
 40
0.1246092848191209
 40
0.18642453194279
 40
0.2492359834593345
 40
0.2849154198391654
 40
0.3204524097168832
 40
0.3570155235691004
 40
0.3915809556707519
 40
0.4446189086494745
 40
0.4985295995548181
 40
0.519599513085921
 40
0.5405035535050214
 40
0.5613043032087627
 40
0.5820652787010421
 40
0.6028503611233805
 40
0.623723210281435
 40
0.655548593019116
 40
0.686761906390128
 40
0.7176272334939376
 40
0.7484176125641017
 40
0.7582336697051288
 40
0.7662947145271976
 40
0.7726009392190604
 40
0.7771527582530813
 40
0.7799513656900157
 40
0.7857229538677146
 40
0.791260290141879
 40
0.796581555794042
 40
0.801707231893458
 40
0.8066602264441174
 40
0.8114659175254402
 40
0.8207126998757893
 40
0.8288504773487932
 40
0.8361824623467276
 40
0.8431183638212384
 40
0.857210473774696
 40
0.8745498113494061
 40
0.87939534142755
 40
0.8849538209542775
 40
0.8912452582935579
 40
0.8982834135329175
 40
0.9060780931791093
 40
0.9127238521329988
 40
0.9179723261384026
 40
0.9218248109818095
 40
0.9297844845640323
 40
0.9375444751733575
 40
0.9459397429936035
 40
0.953232096430975
 40
0.9579540772034474
 40
0.9631557853109868
 40
0.9688939182451239
 40
0.9764100417683634
 40
0.9867773946210225
 40
1.0
 40
1.0
 40
1.0
 40
1.0
 10
99.58468704781579
 20
161.1253528142752
 30
0.0
 10
99.54575405322899
 20
161.1810107255564
 30
0.0
 10
99.46796356911922
 20
161.2922186074328
 30
0.0
 10
99.34630987390821
 20
161.4552710315028
 30
0.0
 10
99.22119301405769
 20
161.6153129090413
 30
0.0
 10
99.09224728425036
 20
161.7720919601673
 30
0.0
 10
98.9595706575322
 20
161.9256754442278
 30
0.0
 10
98.8231370804599
 20
162.0760451493413
 30
0.0
 10
98.68295372556776
 20
162.2232057696533
 30
0.0
 10
98.53901888886415
 20
162.3671558752266
 30
0.0
 10
98.39133321740643
 20
162.5078957211394
 30
0.0
 10
98.23989690224633
 20
162.6454250573453
 30
0.0
 10
98.08470964937072
 20
162.7797440786866
 30
0.0
 10
97.92577361004906
 20
162.9108518156305
 30
0.0
 10
97.7630816057331
 20
163.038751652029
 30
0.0
 10
97.27392483069994
 20
163.4052196417942
 30
0.0
 10
96.39950321858926
 20
163.9449724695824
 30
0.0
 10
95.26393535504307
 20
164.4209928804542
 30
0.0
 10
94.2782222594495
 20
164.7073982416129
 30
0.0
 10
93.46864850317901
 20
164.8692584362418
 30
0.0
 10
92.65626538081659
 20
164.9594109915713
 30
0.0
 10
91.70459239714151
 20
164.9663170911207
 30
0.0
 10
90.62624059762464
 20
164.8138848503025
 30
0.0
 10
89.69252065844074
 20
164.5010936822585
 30
0.0
 10
89.02625013295528
 20
164.1936180912734
 30
0.0
 10
88.60101908810373
 20
163.9697943381186
 30
0.0
 10
88.19095293989693
 20
163.7238560904809
 30
0.0
 10
87.7958659544297
 20
163.456132022668
 30
0.0
 10
87.41583541429601
 20
163.1665063004291
 30
0.0
 10
86.98789800321943
 20
162.801505434537
 30
0.0
 10
86.52904427795278
 20
162.3512050242061
 30
0.0
 10
86.06375436347183
 20
161.8025159643266
 30
0.0
 10
85.65516671570991
 20
161.2197965024609
 30
0.0
 10
85.38781833887668
 20
160.741860562828
 30
0.0
 10
85.22120798077206
 20
160.4088906561476
 30
0.0
 10
85.13673489187978
 20
160.2442692072958
 30
0.0
 10
85.07005896190553
 20
160.1157923010564
 30
0.0
 10
85.02121450096006
 20
160.0234242781295
 30
0.0
 10
84.97214864667852
 20
159.9358103407701
 30
0.0
 10
84.91326692652767
 20
159.8452388873006
 30
0.0
 10
84.83922637841424
 20
159.7417134111843
 30
0.0
 10
84.76197195777729
 20
159.6467924439136
 30
0.0
 10
84.6818586662374
 20
159.5602906395981
 30
0.0
 10
84.59884419914896
 20
159.4821680191549
 30
0.0
 10
84.48554454815743
 20
159.3908831079904
 30
0.0
 10
84.3428626240618
 20
159.297666628851
 30
0.0
 10
84.1686519024887
 20
159.2213327279382
 30
0.0
 10
83.99887571876732
 20
159.1875346426471
 30
0.0
 10
83.77967323556534
 20
159.2023492166713
 30
0.0
 10
83.50807356856774
 20
159.3366406322949
 30
0.0
 10
83.31070459272891
 20
159.5363154147431
 30
0.0
 10
83.18313159933047
 20
159.706007460623
 30
0.0
 10
83.11429422203295
 20
159.8137500277518
 30
0.0
 10
83.0425381923195
 20
159.9392183147521
 30
0.0
 10
82.96802996735794
 20
160.0826943187212
 30
0.0
 10
82.89771896593504
 20
160.2312417906922
 30
0.0
 10
82.83463413483136
 20
160.3680333028319
 30
0.0
 10
82.78244709945623
 20
160.4766262618977
 30
0.0
 10
82.72413262831333
 20
160.5934137669869
 30
0.0
 10
82.64713690253583
 20
160.7222606791105
 30
0.0
 10
82.53511050854664
 20
160.8692151822916
 30
0.0
 10
82.4074686241415
 20
160.9969422759239
 30
0.0
 10
82.27161841076028
 20
161.0779818430559
 30
0.0
 10
82.14572814677942
 20
161.1181427234335
 30
0.0
 10
82.02825402000238
 20
161.142641017836
 30
0.0
 10
81.887646708701
 20
161.1574539212082
 30
0.0
 10
81.70703547319033
 20
161.1647708360183
 30
0.0
 10
81.46910685385348
 20
161.1703382996002
 30
0.0
 10
81.28862134226286
 20
161.1714349093967
 30
0.0
 10
81.18745589411111
 20
161.1720495793529
 30
0.0
  0
ARC
  5
56
330
1F
100
AcDbEntity
  8
0
  6
Continuous
 62
     7
370
    15
100
AcDbCircle
 10
100.0996333087
 20
161.4795495794
 30
0.0
 40
0.6250000000000147
100
AcDbArc
 50
214.52145669
 51
270.0
  0
LINE
  5
57
330
1F
100
AcDbEntity
  8
0
  6
Continuous
 62
     7
370
    15
100
AcDbLine
 10
101.2912075757
 20
160.8545496005
 30
0.0
 11
100.0996362209
 21
160.8545496005
 31
0.0
  0
ARC
  5
58
330
1F
100
AcDbEntity
  8
0
  6
Continuous
 62
     7
370
    15
100
AcDbCircle
 10
101.291205623
 20
161.4795495794
 30
0.0
 40
0.6250000000000027
100
AcDbArc
 50
270.0
 51
313.326005542
  0
LINE
  5
59
330
1F
100
AcDbEntity
  8
0
  6
Continuous
 62
     7
370
    15
100
AcDbLine
 10
102.9833014845
 20
162.2163974556
 30
0.0
 11
101.7200480937
 21
161.0248861711
 31
0.0
  0
ARC
  5
5A
330
1F
100
AcDbEntity
  8
0
  6
Continuous
 62
     7
370
    15
100
AcDbCircle
 10
103.2406061652
 20
161.9435995794
 30
0.0
 40
0.375
100
AcDbArc
 50
90.0
 51
133.326005542
  0
LINE
  5
5B
330
1F
100
AcDbEntity
  8
0
  6
Continuous
 62
     7
370
    15
100
AcDbLine
 10
104.1485126852
 20
162.318599398
 30
0.0
 11
103.2406072854
 21
162.318599398
 31
0.0
  0
ARC
  5
5C
330
1F
100
AcDbEntity
  8
0
  6
Continuous
 62
     7
370
    15
100
AcDbCircle
 10
104.1485109494
 20
161.9435995794
 30
0.0
 40
0.375000000000021
100
AcDbArc
 50
43.185402806
 51
90.0
  0
LINE
  5
5D
330
1F
100
AcDbEntity
  8
0
  6
Continuous
 62
     7
370
    15
100
AcDbLine
 10
106.0130353808
 20
160.5050237726
 30
0.0
 11
104.4219378173
 21
162.2002352837
 31
0.0
  0
ARC
  5
5E
330
1F
100
AcDbEntity
  8
0
  6
Continuous
 62
     7
370
    15
100
AcDbCircle
 10
106.4687508389
 20
160.9327495794
 30
0.0
 40
0.6250000000000182
100
AcDbArc
 50
223.185402806
 51
270.0
  0
LINE
  5
5F
330
1F
100
AcDbEntity
  8
0
  6
Continuous
 62
     7
370
    15
100
AcDbLine
 10
108.4713171958
 20
160.3077496278
 30
0.0
 11
106.468750143
 21
160.3077496278
 31
0.0
  0
ARC
  5
60
330
1F
100
AcDbEntity
  8
0
  6
Continuous
 62
     7
370
    15
100
AcDbCircle
 10
108.4713189019
 20
160.9327495794
 30
0.0
 40
0.625
100
AcDbArc
 50
270.0
 51
313.1054610077
  0
LINE
  5
61
330
1F
100
AcDbEntity
  8
0
  6
Continuous
 62
     7
370
    15
100
AcDbLine
 10
112.1907401621
 20
163.5579359594
 30
0.0
 11
108.8984068274
 21
160.4764389216
 31
0.0
  0
ARC
  5
62
330
1F
100
AcDbEntity
  8
0
  6
Continuous
 62
     7
370
    15
100
AcDbCircle
 10
112.4469928863
 20
163.2841495794
 30
0.0
 40
0.375
100
AcDbArc
 50
90.0
 51
133.1054610077
  0
LINE
  5
63
330
1F
100
AcDbEntity
  8
0
  6
Continuous
 62
     7
370
    15
100
AcDbLine
 10
113.9166485309
 20
163.6591497685
 30
0.0
 11
112.4469917058
 21
163.6591497685
 31
0.0
  0
ARC
  5
64
330
1F
100
AcDbEntity
  8
0
  6
Continuous
 62
     7
370
    15
100
AcDbCircle
 10
113.9166497798
 20
163.2841495794
 30
0.0
 40
0.3750000000000032
100
AcDbArc
 50
49.3998995644
 51
90.0
  0
LINE
  5
65
330
1F
100
AcDbEntity
  8
0
  6
Continuous
 62
     7
370
    15
100
AcDbLine
 10
114.8676257371
 20
162.962955876
 30
0.0
 11
114.1606922983
 21
163.56887574
 31
0.0
  0
ARC
  5
66
330
1F
100
AcDbEntity
  8
0
  6
Continuous
 62
     7
370
    15
100
AcDbCircle
 10
115.2743620085
 20
163.4374995794
 30
0.0
 40
0.625
100
AcDbArc
 50
229.3998995644
 51
270.0
  0
LINE
  5
67
330
1F
100
AcDbEntity
  8
0
  6
Continuous
 62
     7
370
    15
100
AcDbLine
 10
115.5948061287
 20
162.8124997828
 30
0.0
 11
115.2743603825
 21
162.8124997828
 31
0.0
  0
ARC
  5
68
330
1F
100
AcDbEntity
  8
0
  6
Continuous
 62
     7
370
    15
100
AcDbCircle
 10
115.5948058941
 20
163.4374995794
 30
0.0
 40
0.6250000000000142
100
AcDbArc
 50
270.0
 51
0.0
  0
LINE
  5
69
330
1F
100
AcDbEntity
  8
0
  6
Continuous
 62
     7
370
    15
100
AcDbLine
 10
116.2198055326
 20
166.6531497489
 30
0.0
 11
116.2198055326
 21
163.4374996524
 31
0.0
  0
ARC
  5
6A
330
1F
100
AcDbEntity
  8
0
  6
Continuous
 62
     7
370
    15
100
AcDbCircle
 10
116.5948058941
 20
166.6531495794
 30
0.0
 40
0.375
100
AcDbArc
 50
90.0
 51
180.0
  0
LINE
  5
6B
330
1F
100
AcDbEntity
  8
0
  6
Continuous
 62
     7
370
    15
100
AcDbLine
 10
117.5850163936
 20
167.0281495775
 30
0.0
 11
116.5948044299
 21
167.0281495775
 31
0.0
  0
ARC
  5
6C
330
1F
100
AcDbEntity
  8
0
  6
Continuous
 62
     7
370
    15
100
AcDbCircle
 10
117.5850153754
 20
166.6531495794
 30
0.0
 40
0.3750000000000069
100
AcDbArc
 50
64.1074185109
 51
90.0
  0
LINE
  5
6D
330
1F
100
AcDbEntity
  8
0
  6
Continuous
 62
     7
370
    15
100
AcDbLine
 10
119.3587686657
 20
166.2089908372
 30
0.0
 11
117.7487727045
 21
166.9905045878
 31
0.0
  0
ARC
  5
6E
330
1F
100
AcDbEntity
  8
0
  6
Continuous
 62
     7
370
    15
100
AcDbCircle
 10
119.6316964128
 20
166.7712495794
 30
0.0
 40
0.6250000000000284
100
AcDbArc
 50
244.1074185109
 51
270.0
  0
LINE
  5
6F
330
1F
100
AcDbEntity
  8
0
  6
Continuous
 62
     7
370
    15
100
AcDbLine
 10
124.0235361993
 20
166.146249498
 30
0.0
 11
119.6316946089
 21
166.146249498
 31
0.0
  0
SPLINE
  5
70
330
1F
100
AcDbEntity
  8
0
  6
Continuous
 62
     7
370
    15
100
AcDbSpline
210
0.0
220
0.0
230
1.0
 70
     8
 71
     3
 72
    47
 73
    43
 74
     0
 42
0.00000001
 43
0.00000001
 12
1.0
 22
0.0
 32
0.0
 13
1.0
 23
0.0
 33
0.0
 40
0.0
 40
0.0
 40
0.0
 40
0.0
 40
0.0125772395101707
 40
0.0250545076702933
 40
0.0374366702228372
 40
0.0497287058520654
 40
0.0619357035188706
 40
0.0740628592389539
 40
0.0861154722907154
 40
0.0980989408447878
 40
0.1100187570133347
 40
0.1218805013240191
 40
0.1336898366307477
 40
0.145452501480858
 40
0.1571743029661199
 40
0.1688611090926173
 40
0.1805188407120777
 40
0.1921534630643069
 40
0.2037709769868802
 40
0.2153774098539581
 40
0.226978806310823
 40
0.2385812188743947
 40
0.2501906984723726
 40
0.3123465100658768
 40
0.3747729947715799
 40
0.4377341123384169
 40
0.4994615401064134
 40
0.5621929514672988
 40
0.6245893118985945
 40
0.6869158630408256
 40
0.7497061360391224
 40
0.7720527309433781
 40
0.7943234677067066
 40
0.8165714888666844
 40
0.838850099516255
 40
0.8612123860004748
 40
0.8837108423589988
 40
0.9063970173917656
 40
0.9293211935842756
 40
0.9525321067067687
 40
0.9760767120175734
 40
1.0
 40
1.0
 40
1.0
 40
1.0
 10
140.0951759990924
 20
159.7794852432616
 30
0.0
 10
140.0764121927621
 20
159.8650434503299
 30
0.0
 10
140.0390337259494
 20
160.0354797971543
 30
0.0
 10
139.9768963087357
 20
160.2887045709359
 30
0.0
 10
139.9105892586431
 20
160.5388032675305
 30
0.0
 10
139.8396704069381
 20
160.7856814647999
 30
0.0
 10
139.7642567652973
 20
161.0293640336639
 30
0.0
 10
139.6843171914763
 20
161.2698442217876
 30
0.0
 10
139.5998598302809
 20
161.50712364595
 30
0.0
 10
139.5108824179455
 20
161.7412016893595
 30
0.0
 10
139.4173854674925
 20
161.9720783154097
 30
0.0
 10
139.3193687704632
 20
162.1997533220799
 30
0.0
 10
139.2168323277291
 20
162.4242265414536
 30
0.0
 10
139.1097761032406
 20
162.645497788659
 30
0.0
 10
138.9982000917274
 20
162.8635668767484
 30
0.0
 10
138.8821042978554
 20
163.0784336175358
 30
0.0
 10
138.76148875644
 20
163.2900978140499
 30
0.0
 10
138.6363534753171
 20
163.4985593009841
 30
0.0
 10
138.5066986444303
 20
163.7038178025411
 30
0.0
 10
138.3725238577078
 20
163.9058734715983
 30
0.0
 10
138.2338310113581
 20
164.1047248893442
 30
0.0
 10
138.0906134891803
 20
164.3003765365207
 30
0.0
 10
137.7286084331781
 20
164.7719690851039
 30
0.0
 10
137.0961938367774
 20
165.4825430274269
 30
0.0
 10
136.1115432838642
 20
166.3452447755923
 30
0.0
 10
135.0329101208731
 20
167.0824189638547
 30
0.0
 10
133.8666044118631
 20
167.6764797284849
 30
0.0
 10
132.6338033751245
 20
168.1066670349366
 30
0.0
 10
131.3473831172653
 20
168.3540437121557
 30
0.0
 10
130.039060561747
 20
168.41922510438
 30
0.0
 10
129.0126361082516
 20
168.3272709852141
 30
0.0
 10
128.2765728351815
 20
168.1931802210129
 30
0.0
 10
127.8228825977029
 20
168.0873944095589
 30
0.0
 10
127.3753920486784
 20
167.9596652340792
 30
0.0
 10
126.934082209946
 20
167.8099736426457
 30
0.0
 10
126.4989686167585
 20
167.6383273582916
 30
0.0
 10
126.0700499930711
 20
167.4447366266585
 30
0.0
 10
125.6473524794279
 20
167.2291817350257
 30
0.0
 10
125.2308011264093
 20
166.9917675018314
 30
0.0
 10
124.820696099189
 20
166.7321266808144
 30
0.0
 10
124.4159035933328
 20
166.4516907506926
 30
0.0
 10
124.1547137818573
 20
166.2489856800625
 30
0.0
 10
124.0230770344793
 20
166.1468245887702
 30
0.0
  0
ARC
  5
71
330
1F
100
AcDbEntity
  8
0
  6
Continuous
 62
     7
370
    15
100
AcDbCircle
 10
140.7064608972
 20
159.9096995794
 30
0.0
 40
0.6250000000000284
100
AcDbArc
 50
192.0252618189
 51
270.0
  0
LINE
  5
72
330
1F
100
AcDbEntity
  8
0
  6
Continuous
 62
     7
370
    15
100
AcDbLine
 10
141.7947876989
 20
159.2846995795
 30
0.0
 11
140.706460902
 21
159.2846995795
 31
0.0
  0
ARC
  5
73
330
1F
100
AcDbEntity
  8
0
  6
Continuous
 62
     7
370
    15
100
AcDbCircle
 10
141.7947881299
 20
159.9096995794
 30
0.0
 40
0.625000000000037
100
AcDbArc
 50
270.0
 51
335.8479494705
  0
SPLINE
  5
74
330
1F
100
AcDbEntity
  8
0
  6
Continuous
 62
     7
370
    15
100
AcDbSpline
210
0.0
220
0.0
230
1.0
 70
     8
 71
     3
 72
    36
 73
    32
 74
     0
 42
0.00000001
 43
0.00000001
 12
1.0
 22
0.0
 32
0.0
 13
1.0
 23
0.0
 33
0.0
 40
0.0
 40
0.0
 40
0.0
 40
0.0
 40
0.0318783866577751
 40
0.0626514371094275
 40
0.0923593364554917
 40
0.1210467463119047
 40
0.1487632618981445
 40
0.1755638689709855
 40
0.2015093771364094
 40
0.2266667975071295
 40
0.2511096237904087
 40
0.2749179682305171
 40
0.2981784997055454
 40
0.3209841335551342
 40
0.3434334341527061
 40
0.3656297133593024
 40
0.3876798397800926
 40
0.4096928107514649
 40
0.4317781737337303
 40
0.4540444077302753
 40
0.4765973819460457
 40
0.4995389962489785
 40
0.5625998568794822
 40
0.6237468631954796
 40
0.6853634745695769
 40
0.7497810450834765
 40
0.7955791685061446
 40
0.8431676496130854
 40
0.8929005794306416
 40
0.9450884173965407
 40
1.0
 40
1.0
 40
1.0
 40
1.0
 10
146.2336843760882
 20
159.653974855087
 30
0.0
 10
146.2100830230272
 20
159.7049370458845
 30
0.0
 10
146.1636986591358
 20
159.805094388412
 30
0.0
 10
146.0889664445874
 20
159.9496714992501
 30
0.0
 10
146.0119652811944
 20
160.086618782378
 30
0.0
 10
145.9322772041863
 20
160.215749329138
 30
0.0
 10
145.8500047893647
 20
160.3371106170622
 30
0.0
 10
145.7651178224758
 20
160.4506898302565
 30
0.0
 10
145.6776195006918
 20
160.556488538604
 30
0.0
 10
145.5875043578395
 20
160.6545034593992
 30
0.0
 10
145.4947693047774
 20
160.7447311510368
 30
0.0
 10
145.3994112599738
 20
160.8271666991872
 30
0.0
 10
145.3014283018462
 20
160.9018040944212
 30
0.0
 10
145.2008199619803
 20
160.9686364003762
 30
0.0
 10
145.0975876615775
 20
161.0276562379881
 30
0.0
 10
144.9917349593083
 20
161.0788564288251
 30
0.0
 10
144.8832673640405
 20
161.1222307592185
 30
0.0
 10
144.7721924749226
 20
161.1577746605146
 30
0.0
 10
144.6585174188203
 20
161.1854858633188
 30
0.0
 10
144.5422552057987
 20
161.2053641164918
 30
0.0
 10
144.4233967632944
 20
161.2174129125759
 30
0.0
 10
144.2322117441862
 20
161.2240581286819
 30
0.0
 10
143.9722234011773
 20
161.2024425377138
 30
0.0
 10
143.6555587759235
 20
161.1113625850535
 30
0.0
 10
143.3613658300538
 20
160.9576322440064
 30
0.0
 10
143.1237556683972
 20
160.7674571756842
 30
0.0
 10
142.9308674244075
 20
160.5668290282909
 30
0.0
 10
142.772354517055
 20
160.3703489338588
 30
0.0
 10
142.6247427535025
 20
160.1519441317099
 30
0.0
 10
142.4864880360605
 20
159.9123728104474
 30
0.0
 10
142.4062280091559
 20
159.7415555773371
 30
0.0
 10
142.365077412134
 20
159.653974855087
 30
0.0
  0
ARC
  5
75
330
1F
100
AcDbEntity
  8
0
  6
Continuous
 62
     7
370
    15
100
AcDbCircle
 10
146.8039736583
 20
159.9096995794
 30
0.0
 40
0.625000000000063
100
AcDbArc
 50
204.1520505295
 51
270.0
  0
LINE
  5
76
330
1F
100
AcDbEntity
  8
0
  6
Continuous
 62
     7
370
    15
100
AcDbLine
 10
148.6307903915
 20
159.2846995795
 30
0.0
 11
146.8039732217
 21
159.2846995795
 31
0.0
  0
ARC
  5
77
330
1F
100
AcDbEntity
  8
0
  6
Continuous
 62
     7
370
    15
100
AcDbCircle
 10
148.6307902116
 20
159.9096995794
 30
0.0
 40
0.6250000000000284
100
AcDbArc
 50
270.0
 51
340.1135812089
  0
SPLINE
  5
78
330
1F
100
AcDbEntity
  8
0
  6
Continuous
 62
     7
370
    15
100
AcDbSpline
210
0.0
220
0.0
230
1.0
 70
     8
 71
     3
 72
    37
 73
    33
 74
     0
 42
0.00000001
 43
0.00000001
 12
1.0
 22
0.0
 32
0.0
 13
1.0
 23
0.0
 33
0.0
 40
0.0
 40
0.0
 40
0.0
 40
0.0
 40
0.0189542859256047
 40
0.0376562076009991
 40
0.0561239965148969
 40
0.0743765857557847
 40
0.0924335853470083
 40
0.110315248806851
 40
0.1280424306346887
 40
0.1456365346651873
 40
0.1631194535098071
 40
0.1805134996070101
 40
0.1978413287136329
 40
0.2151258569709439
 40
0.2323901729498539
 40
0.2496574463007458
 40
0.2922997145956679
 40
0.3338804796077416
 40
0.3749354940659376
 40
0.4385171158682725
 40
0.4997052437711776
 40
0.5610774080669372
 40
0.6246118078169898
 40
0.6865233124021289
 40
0.7497926583662424
 40
0.7831451214639449
 40
0.817028595771528
 40
0.8516135100612198
 40
0.8870601769073683
 40
0.9235175426018642
 40
0.9611225457938113
 40
1.0
 40
1.0
 40
1.0
 40
1.0
 10
155.6225979674867
 20
159.7344714053937
 30
0.0
 10
155.603490808239
 20
159.7880623224968
 30
0.0
 10
155.5655308894047
 20
159.8945306277597
 30
0.0
 10
155.5028323152094
 20
160.0509263123565
 30
0.0
 10
155.4363941243131
 20
160.2034563379324
 30
0.0
 10
155.3657902460179
 20
160.351972729974
 30
0.0
 10
155.2911322972388
 20
160.4965137055751
 30
0.0
 10
155.2123905057854
 20
160.6370684078723
 30
0.0
 10
155.1295724331539
 20
160.7736388175952
 30
0.0
 10
155.0426759738768
 20
160.9062235214692
 30
0.0
 10
154.9517014561955
 20
161.0348217544108
 30
0.0
 10
154.8566496359148
 20
161.1594333203907
 30
0.0
 10
154.7575178515468
 20
161.2800550563678
 30
0.0
 10
154.6543173128081
 20
161.3966950977384
 30
0.0
 10
154.5470079818695
 20
161.5093196361967
 30
0.0
 10
154.3813182766528
 20
161.6712350166569
 30
0.0
 10
154.1486663390176
 20
161.8688503046626
 30
0.0
 10
153.835791872747
 20
162.0789589263151
 30
0.0
 10
153.4449928984644
 20
162.280391833189
 30
0.0
 10
152.9697949431035
 20
162.4403298659464
 30
0.0
 10
152.4096316011332
 20
162.4996399479787
 30
0.0
 10
151.8503742068572
 20
162.4339949070163
 30
0.0
 10
151.3165448980978
 20
162.2504367991324
 30
0.0
 10
150.8205419419528
 20
161.9709674243968
 30
0.0
 10
150.452488257652
 20
161.6654355442796
 30
0.0
 10
150.1824555858578
 20
161.3813348182813
 30
0.0
 10
149.9878432927532
 20
161.1453450226293
 30
0.0
 10
149.8066524435359
 20
160.8911838291286
 30
0.0
 10
149.6386129578268
 20
160.6190189925384
 30
0.0
 10
149.4841268455762
 20
160.3287040406575
 30
0.0
 10
149.3417307700711
 20
160.0207798066044
 30
0.0
 10
149.2600437375083
 20
159.8061844668319
 30
0.0
 10
149.2185207010403
 20
159.6971016682571
 30
0.0
  0
ARC
  5
79
330
1F
100
AcDbEntity
  8
0
  6
Continuous
 62
     7
370
    15
100
AcDbCircle
 10
156.213330995
 20
159.9385779713
 30
0.0
 40
0.6250000000000268
100
AcDbArc
 50
199.0607507679
 51
342.4906059722
  0
ARC
  5
7A
330
1F
100
AcDbEntity
  8
0
  6
Continuous
 62
     7
370
    15
100
AcDbCircle
 10
164.3195058941
 20
157.3812495794
 30
0.0
 40
7.875000000000203
100
AcDbArc
 50
197.9570948543
 51
162.4906059722
  0
ARC
  5
7B
330
1F
100
AcDbEntity
  8
0
  6
Continuous
 62
     7
370
    15
100
AcDbCircle
 10
156.2335608463
 20
154.7606594391
 30
0.0
 40
0.6249999999998747
100
AcDbArc
 50
17.9570948543
 51
161.3869500541
  0
SPLINE
  5
7C
330
1F
100
AcDbEntity
  8
0
  6
Continuous
 62
     7
370
    15
100
AcDbSpline
210
0.0
220
0.0
230
1.0
 70
     8
 71
     3
 72
    36
 73
    32
 74
     0
 42
0.00000001
 43
0.00000001
 12
1.0
 22
0.0
 32
0.0
 13
1.0
 23
0.0
 33
0.0
 40
0.0
 40
0.0
 40
0.0
 40
0.0
 40
0.0209603959516549
 40
0.0415482655726419
 40
0.061781540152573
 40
0.0816791096659172
 40
0.1012608356487128
 40
0.120547555432223
 40
0.1395610762835905
 40
0.1583241580650725
 40
0.1768604831681562
 40
0.1951946127174753
 40
0.2133519283767551
 40
0.2313585595215756
 40
0.2492412960581323
 40
0.2917325165802873
 40
0.3333338144722883
 40
0.3746183645143987
 40
0.4380240856893062
 40
0.4994816015547743
 40
0.5606774660297663
 40
0.6243421518776279
 40
0.686046555157301
 40
0.7496150855206918
 40
0.7841001191360295
 40
0.818713069241978
 40
0.8536404004070792
 40
0.8890636129278332
 40
0.9251567270073673
 40
0.9620842933815552
 40
1.0
 40
1.0
 40
1.0
 40
1.0
 10
149.2370772486537
 20
154.9474725037545
 30
0.0
 10
149.2595372617095
 20
154.8887016158491
 30
0.0
 10
149.3040581089951
 20
154.7722043672159
 30
0.0
 10
149.3765318581454
 20
154.6014746416961
 30
0.0
 10
149.4524325125772
 20
154.4357613921783
 30
0.0
 10
149.5321909939072
 20
154.2752252274813
 30
0.0
 10
149.6156955688372
 20
154.1198247192599
 30
0.0
 10
149.7029762380829
 20
153.9695713659795
 30
0.0
 10
149.7940258083572
 20
153.8244629011273
 30
0.0
 10
149.8888470636815
 20
153.6845010624795
 30
0.0
 10
149.9874388947885
 20
153.5496857328282
 30
0.0
 10
150.089805363347
 20
153.4200208639227
 30
0.0
 10
150.1959332414957
 20
153.2954967330216
 30
0.0
 10
150.3058716854412
 20
153.1761540778608
 30
0.0
 10
150.4717102888504
 20
153.0092364379888
 30
0.0
 10
150.7033506212489
 20
152.8081172086666
 30
0.0
 10
151.0151918707915
 20
152.5958545863447
 30
0.0
 10
151.4056579223482
 20
152.3931391870767
 30
0.0
 10
151.8815315529312
 20
152.2324586505616
 30
0.0
 10
152.4409638724518
 20
152.1699853811089
 30
0.0
 10
153.0013961196034
 20
152.2321681664151
 30
0.0
 10
153.5349329821903
 20
152.4146597784681
 30
0.0
 10
154.0321376300952
 20
152.6930373102273
 30
0.0
 10
154.4053706976308
 20
152.9978034606134
 30
0.0
 10
154.6833614690183
 20
153.2832612958896
 30
0.0
 10
154.8846639365551
 20
153.5223230849104
 30
0.0
 10
155.0694840815051
 20
153.7777897514863
 30
0.0
 10
155.2380827058028
 20
154.0494981982787
 30
0.0
 10
155.3899954775952
 20
154.3375946959313
 30
0.0
 10
155.5268851873631
 20
154.6414952705994
 30
0.0
 10
155.6027949953883
 20
154.8529968992652
 30
0.0
 10
155.6412510101437
 20
154.9601439197142
 30
0.0
  0
ARC
  5
7D
330
1F
100
AcDbEntity
  8
0
  6
Continuous
 62
     7
370
    15
100
AcDbCircle
 10
148.6510258935
 20
154.7302886896
 30
0.0
 40
0.6250000000000283
100
AcDbArc
 50
20.3341196175
 51
90.4477008264
  0
LINE
  5
7E
330
1F
100
AcDbEntity
  8
0
  6
Continuous
 62
     7
370
    15
100
AcDbLine
 10
146.8193810224
 20
155.3409953944
 30
0.0
 11
148.6461423128
 21
155.3552695426
 31
0.0
  0
ARC
  5
7F
330
1F
100
AcDbEntity
  8
0
  6
Continuous
 62
     7
370
    15
100
AcDbCircle
 10
146.8242651092
 20
154.716014358
 30
0.0
 40
0.6250000000000075
100
AcDbArc
 50
90.4477008264
 51
156.2956502969
  0
SPLINE
  5
80
330
1F
100
AcDbEntity
  8
0
  6
Continuous
 62
     7
370
    15
100
AcDbSpline
210
0.0
220
0.0
230
1.0
 70
     8
 71
     3
 72
    36
 73
    32
 74
     0
 42
0.00000001
 43
0.00000001
 12
1.0
 22
0.0
 32
0.0
 13
1.0
 23
0.0
 33
0.0
 40
0.0
 40
0.0
 40
0.0
 40
0.0
 40
0.0318783866577884
 40
0.0626514371094569
 40
0.0923593364555303
 40
0.1210467463119557
 40
0.1487632618982048
 40
0.1755638689710544
 40
0.2015093771364812
 40
0.226666797507209
 40
0.2511096237904972
 40
0.2749179682306029
 40
0.2981784997056321
 40
0.3209841335552172
 40
0.3434334341527874
 40
0.3656297133593822
 40
0.3876798397801663
 40
0.4096928107515326
 40
0.4317781737337928
 40
0.4540444077303253
 40
0.4765973819460947
 40
0.4995389962490144
 40
0.5625998568791456
 40
0.6237468631950318
 40
0.6853634745692431
 40
0.7497810450834255
 40
0.7955791685056405
 40
0.8431676496123476
 40
0.8929005794299065
 40
0.9450884173960511
 40
1.0
 40
1.0
 40
1.0
 40
1.0
 10
142.3835061984789
 20
154.9370467435741
 30
0.0
 10
142.4075050380778
 20
154.8862705241884
 30
0.0
 10
142.4546705927833
 20
154.7864786761992
 30
0.0
 10
142.5305302187723
 20
154.6424899196435
 30
0.0
 10
142.6085991065901
 20
154.5061484869281
 30
0.0
 10
142.6892937477858
 20
154.377644546887
 30
0.0
 10
142.7725119406678
 20
154.2569298219332
 30
0.0
 10
142.8582837984272
 20
154.1440173636572
 30
0.0
 10
142.9466061362559
 20
154.0389055772415
 30
0.0
 10
143.0374843945101
 20
153.9415977880031
 30
0.0
 10
143.1309216353451
 20
153.85209746158
 30
0.0
 10
143.2269209017988
 20
153.7704095362301
 30
0.0
 10
143.3254840684389
 20
153.6965400362141
 30
0.0
 10
143.4266115494663
 20
153.6304959013428
 30
0.0
 10
143.5303018660645
 20
153.57228449935
 30
0.0
 10
143.636551403581
 20
153.521912980642
 30
0.0
 10
143.7453546047641
 20
153.4793875156526
 30
0.0
 10
143.8567038349987
 20
153.444712613518
 30
0.0
 10
143.9705919499043
 20
153.4178904878758
 30
0.0
 10
144.0870059378505
 20
153.3989212881999
 30
0.0
 10
144.2059548984137
 20
153.3878015929456
 30
0.0
 10
144.397186005242
 20
153.3826504562305
 30
0.0
 10
144.6569975119843
 20
153.4062968774652
 30
0.0
 10
144.9729407919371
 20
153.4998483954431
 30
0.0
 10
145.2659235425484
 20
153.6558728005932
 30
0.0
 10
145.5020404654447
 20
153.8478986953464
 30
0.0
 10
145.6933551579472
 20
154.0500279031027
 30
0.0
 10
145.8503279751699
 20
154.2477405834192
 30
0.0
 10
145.9962286666729
 20
154.4672921230625
 30
0.0
 10
146.1326072073216
 20
154.7079364218058
 30
0.0
 10
146.211530056799
 20
154.8793755739182
 30
0.0
 10
146.2519950616082
 20
154.9672751639689
 30
0.0
  0
ARC
  5
81
330
1F
100
AcDbEntity
  8
0
  6
Continuous
 62
     7
370
    15
100
AcDbCircle
 10
141.8152325013
 20
154.6768737145
 30
0.0
 40
0.6250000000000345
100
AcDbArc
 50
24.5997513558
 51
90.4477008264
  0
LINE
  5
82
330
1F
100
AcDbEntity
  8
0
  6
Continuous
 62
     7
370
    15
100
AcDbLine
 10
140.718491727
 20
155.2933228544
 30
0.0
 11
141.8103482365
 21
155.3018547005
 31
0.0
  0
ARC
  5
83
330
1F
100
AcDbEntity
  8
0
  6
Continuous
 62
     7
370
    15
100
AcDbCircle
 10
140.7233749525
 20
154.668341926
 30
0.0
 40
0.6250000000000059
100
AcDbArc
 50
90.4477008264
 51
167.7399531005
  0
SPLINE
  5
84
330
1F
100
AcDbEntity
  8
0
  6
Continuous
 62
     7
370
    15
100
AcDbSpline
210
0.0
220
0.0
230
1.0
 70
     8
 71
     3
 72
    39
 73
    35
 74
     0
 42
0.00000001
 43
0.00000001
 12
1.0
 22
0.0
 32
0.0
 13
1.0
 23
0.0
 33
0.0
 40
0.0
 40
0.0
 40
0.0
 40
0.0
 40
0.009520326688633
 40
0.0190352146519241
 40
0.0285498894427108
 40
0.0380695769648758
 40
0.0475994948758359
 40
0.0571448440566874
 40
0.0667108002192414
 40
0.0763025057166064
 40
0.0859250616201716
 40
0.0955835201209389
 40
0.1052828773073519
 40
0.1150280663651882
 40
0.124823951237985
 40
0.1870396919738303
 40
0.2497600309792135
 40
0.3124090551233147
 40
0.3746132919161153
 40
0.4160985189985981
 40
0.4576282626333047
 40
0.4996282181599513
 40
0.5618835660566442
 40
0.6246618607424745
 40
0.6868338736746382
 40
0.7496961554742657
 40
0.8120938310021117
 40
0.8744219601596355
 40
0.8955856688729331
 40
0.9166063460715608
 40
0.9375206912436193
 40
0.9583659654985336
 40
0.9791798009031069
 40
1.0
 40
1.0
 40
1.0
 40
1.0
 10
123.1236559908234
 20
149.4686369137045
 30
0.0
 10
123.1708391764573
 20
149.4172384818992
 30
0.0
 10
123.2651785931473
 20
149.3144709809315
 30
0.0
 10
123.4112007824453
 20
149.1645905862021
 30
0.0
 10
123.5604373944367
 20
149.0179375076141
 30
0.0
 10
123.7132182707045
 20
148.8748106990312
 30
0.0
 10
123.8694548212299
 20
148.7351301860114
 30
0.0
 10
124.0291706114176
 20
148.5989175500447
 30
0.0
 10
124.1923590948161
 20
148.4661671091282
 30
0.0
 10
124.3590218506963
 20
148.3368804742562
 30
0.0
 10
124.5291580887981
 20
148.2110572998081
 30
0.0
 10
124.7027683324536
 20
148.088697653674
 30
0.0
 10
124.8798502026641
 20
147.9698018142002
 30
0.0
 10
125.0604116800865
 20
147.8543686941495
 30
0.0
 10
125.5722471107724
 20
147.5429278398203
 30
0.0
 10
126.4578707782746
 20
147.0979326653351
 30
0.0
 10
127.7646625148072
 20
146.6579214739995
 30
0.0
 10
129.1190850582703
 20
146.3988160379959
 30
0.0
 10
130.3412465623547
 20
146.3422956365347
 30
0.0
 10
131.4040914839893
 20
146.4221672520223
 30
0.0
 10
132.3074189006439
 20
146.5847987219669
 30
0.0
 10
133.3359426499499
 20
146.8794868236486
 30
0.0
 10
134.4685772650256
 20
147.3551256146897
 30
0.0
 10
135.6491940887987
 20
148.0623173267725
 30
0.0
 10
136.7295017449841
 20
148.921308773048
 30
0.0
 10
137.6886233724877
 20
149.9096071029506
 30
0.0
 10
138.5218787417621
 20
151.0070504727295
 30
0.0
 10
139.0614000792303
 20
151.9334770496432
 30
0.0
 10
139.3924642656034
 20
152.6242841539468
 30
0.0
 10
139.5748567991655
 20
153.0493587244531
 30
0.0
 10
139.7384780877253
 20
153.479511424018
 30
0.0
 10
139.8828732292654
 20
153.9148572816748
 30
0.0
 10
140.0097695003475
 20
154.3550106198012
 30
0.0
 10
140.0783388558188
 20
154.6523617689612
 30
0.0
 10
140.11262877391
 20
154.8010600683534
 30
0.0
  0
ARC
  5
85
330
1F
100
AcDbEntity
  8
0
  6
Continuous
 62
     7
370
    15
100
AcDbCircle
 10
122.6599849801
 20
149.0495495794
 30
0.0
 40
0.6250000000000234
100
AcDbArc
 50
42.1087354813
 51
90.0
  0
LINE
  5
86
330
1F
100
AcDbEntity
  8
0
  6
Continuous
 62
     7
370
    15
100
AcDbLine
 10
120.8991687536
 20
149.6745496865
 30
0.0
 11
122.6599868178
 21
149.6745496865
 31
0.0
  0
ARC
  5
87
330
1F
100
AcDbEntity
  8
0
  6
Continuous
 62
     7
370
    15
100
AcDbCircle
 10
120.8991673126
 20
149.0495495794
 30
0.0
 40
0.6250000000000002
100
AcDbArc
 50
90.0
 51
146.943975969
  0
LINE
  5
88
330
1F
100
AcDbEntity
  8
0
  6
Continuous
 62
     7
370
    15
100
AcDbLine
 10
119.9479456782
 20
148.7337527673
 30
0.0
 11
120.3753296077
 21
149.390460911
 31
0.0
  0
ARC
  5
89
330
1F
100
AcDbEntity
  8
0
  6
Continuous
 62
     7
370
    15
100
AcDbCircle
 10
119.6336444756
 20
148.9382995794
 30
0.0
 40
0.375
100
AcDbArc
 50
270.0
 51
326.943975969
  0
LINE
  5
8A
330
1F
100
AcDbEntity
  8
0
  6
Continuous
 62
     7
370
    15
100
AcDbLine
 10
117.9048958956
 20
148.5632993157
 30
0.0
 11
119.6336429357
 21
148.5632993157
 31
0.0
  0
ARC
  5
8B
330
1F
100
AcDbEntity
  8
0
  6
Continuous
 62
     7
370
    15
100
AcDbCircle
 10
117.9048971452
 20
148.9382995794
 30
0.0
 40
0.3750000000000095
100
AcDbArc
 50
225.4242687839
 51
270.0
  0
LINE
  5
8C
330
1F
100
AcDbEntity
  8
0
  6
Continuous
 62
     7
370
    15
100
AcDbLine
 10
114.3353227317
 20
151.9289514858
 30
0.0
 11
117.6417041361
 21
148.6711781348
 31
0.0
  0
ARC
  5
8D
330
1F
100
AcDbEntity
  8
0
  6
Continuous
 62
     7
370
    15
100
AcDbCircle
 10
113.896664643
 20
151.4837495794
 30
0.0
 40
0.6250000000000284
100
AcDbArc
 50
45.4242687838
 51
90.0
  0
LINE
  5
8E
330
1F
100
AcDbEntity
  8
0
  6
Continuous
 62
     7
370
    15
100
AcDbLine
 10
112.4577801465
 20
152.1087493624
 30
0.0
 11
113.8966660737
 21
152.1087493624
 31
0.0
  0
ARC
  5
8F
330
1F
100
AcDbEntity
  8
0
  6
Continuous
 62
     7
370
    15
100
AcDbCircle
 10
112.4577812788
 20
151.4837495794
 30
0.0
 40
0.6250000000000288
100
AcDbArc
 50
90.0
 51
135.2284131932
  0
LINE
  5
90
330
1F
100
AcDbEntity
  8
0
  6
Continuous
 62
     7
370
    15
100
AcDbLine
 10
110.1025994658
 20
149.9971435282
 30
0.0
 11
112.0140794455
 21
151.9239260692
 31
0.0
  0
ARC
  5
91
330
1F
100
AcDbEntity
  8
0
  6
Continuous
 62
     7
370
    15
100
AcDbCircle
 10
109.8363805095
 20
150.2612495794
 30
0.0
 40
0.375
100
AcDbArc
 50
270.0
 51
315.2284131933
  0
LINE
  5
92
330
1F
100
AcDbEntity
  8
0
  6
Continuous
 62
     7
370
    15
100
AcDbLine
 10
108.9664045512
 20
149.8862495522
 30
0.0
 11
109.8363790452
 21
149.8862495522
 31
0.0
  0
ARC
  5
93
330
1F
100
AcDbEntity
  8
0
  6
Continuous
 62
     7
370
    15
100
AcDbCircle
 10
108.9664060063
 20
150.2612495794
 30
0.0
 40
0.3750000000000195
100
AcDbArc
 50
208.4777653454
 51
270.0
  0
LINE
  5
94
330
1F
100
AcDbEntity
  8
0
  6
Continuous
 62
     7
370
    15
100
AcDbLine
 10
106.8921331107
 20
153.2986606348
 30
0.0
 11
108.6367796897
 21
150.0824428971
 31
0.0
  0
ARC
  5
95
330
1F
100
AcDbEntity
  8
0
  6
Continuous
 62
     7
370
    15
100
AcDbCircle
 10
106.342755782
 20
153.0006495794
 30
0.0
 40
0.6250000000000367
100
AcDbArc
 50
28.4777653454
 51
90.0
  0
LINE
  5
96
330
1F
100
AcDbEntity
  8
0
  6
Continuous
 62
     7
370
    15
100
AcDbLine
 10
105.8209780394
 20
153.6256496205
 30
0.0
 11
106.3427570998
 21
153.6256496205
 31
0.0
  0
LINE
  5
97
330
1F
100
AcDbEntity
  8
0
  6
Continuous
 62
     7
370
    15
100
AcDbLine
 10
75.9716760158
 20
152.899982861
 30
0.0
 11
81.2196116685
 21
152.9409903909
 31
0.0
  0
ARC
  5
98
330
1F
100
AcDbEntity
  8
0
  6
Continuous
 62
     7
370
    15
100
AcDbCircle
 10
75.9765613033
 20
152.275001895
 30
0.0
 40
0.6250000000000342
100
AcDbArc
 50
90.4477008264
 51
150.7700046722
  0
LINE
  5
99
330
1F
100
AcDbEntity
  8
0
  6
Continuous
 62
     7
370
    15
100
AcDbLine
 10
74.7929047584
 20
151.4396075967
 30
0.0
 11
75.4311438441
 21
152.5801997508
 31
0.0
  0
ARC
  5
9A
330
1F
100
AcDbEntity
  8
0
  6
Continuous
 62
     7
370
    15
100
AcDbCircle
 10
74.4656553596
 20
151.6227261048
 30
0.0
 40
0.3749999999999934
100
AcDbArc
 50
270.4477008264
 51
330.7700046722
  0
LINE
  5
9B
330
1F
100
AcDbEntity
  8
0
  6
Continuous
 62
     7
370
    15
100
AcDbLine
 10
73.7294163346
 20
151.2419618543
 30
0.0
 11
74.4685884356
 21
151.2477374512
 31
0.0
  0
ARC
  5
9C
330
1F
100
AcDbEntity
  8
0
  6
Continuous
 62
     7
370
    15
100
AcDbCircle
 10
73.7264880132
 20
151.6169502419
 30
0.0
 40
0.3750000000000091
100
AcDbArc
 50
195.7811821017
 51
270.4477008264
  0
LINE
  5
9D
330
1F
100
AcDbEntity
  8
0
  6
Continuous
 62
     7
370
    15
100
AcDbLine
 10
72.6478453516
 20
154.0547192439
 30
0.0
 11
73.3656193852
 21
151.5149637002
 31
0.0
  0
ARC
  5
9E
330
1F
100
AcDbEntity
  8
0
  6
Continuous
 62
     7
370
    15
100
AcDbCircle
 10
72.0464030931
 20
153.8847416692
 30
0.0
 40
0.6250000000000158
100
AcDbArc
 50
15.7811821017
 51
90.4477008264
  0
LINE
  5
9F
330
1F
100
AcDbEntity
  8
0
  6
Continuous
 62
     7
370
    15
100
AcDbLine
 10
71.125401163
 20
154.5025640975
 30
0.0
 11
72.0415171026
 21
154.5097224756
 31
0.0
  0
ARC
  5
A0
330
1F
100
AcDbEntity
  8
0
  6
Continuous
 62
     7
370
    15
100
AcDbCircle
 10
71.1302815401
 20
153.8775830839
 30
0.0
 40
0.6250000000000223
100
AcDbArc
 50
90.4477008264
 51
152.3378048128
  0
SPLINE
  5
A1
330
1F
100
AcDbEntity
  8
0
  6
Continuous
 62
     7
370
    15
100
AcDbSpline
210
0.0
220
0.0
230
1.0
 70
     8
 71
     3
 72
    29
 73
    25
 74
     0
 42
0.00000001
 43
0.00000001
 12
1.0
 22
0.0
 32
0.0
 13
1.0
 23
0.0
 33
0.0
 40
0.0
 40
0.0
 40
0.0
 40
0.0
 40
0.0299749516379434
 40
0.0592596382986058
 40
0.0878933345651038
 40
0.1159180520998745
 40
0.1433785977222409
 40
0.1703225929865873
 40
0.1968004467078579
 40
0.2228652723646264
 40
0.2485727435997173
 40
0.3357071362473283
 40
0.4174422795878125
 40
0.4985179009193922
 40
0.5409926106808793
 40
0.5830692375377756
 40
0.6256586354610132
 40
0.6696398113519564
 40
0.7158123527538885
 40
0.7648688105933373
 40
0.8173877715643137
 40
0.8738414622910085
 40
0.9346104499519586
 40
1.0
 40
1.0
 40
1.0
 40
1.0
 10
66.50650061686544
 20
154.1433874320033
 30
0.0
 10
66.53185864116851
 20
154.0952904707385
 30
0.0
 10
66.58199074367585
 20
154.0002041279066
 30
0.0
 10
66.66260634480959
 20
153.8626142350823
 30
0.0
 10
66.74609132376125
 20
153.7309405849201
 30
0.0
 10
66.83287244195438
 20
153.6054026577081
 30
0.0
 10
66.92283946640667
 20
153.4859443246955
 30
0.0
 10
67.01602689090538
 20
153.3725839743083
 30
0.0
 10
67.11241098467843
 20
153.2653112567084
 30
0.0
 10
67.2120572113552
 20
153.1641591980468
 30
0.0
 10
67.39685479162848
 20
152.9929310610918
 30
0.0
 10
67.6842356943724
 20
152.7829946647425
 30
0.0
 10
68.10678230420238
 20
152.6068862631638
 30
0.0
 10
68.47944451775983
 20
152.5530796689332
 30
0.0
 10
68.78037748199459
 20
152.5667103034681
 30
0.0
 10
69.00745811067843
 20
152.6118133019156
 30
0.0
 10
69.2279279812946
 20
152.6906138074722
 30
0.0
 10
69.44164044669299
 20
152.8030963505525
 30
0.0
 10
69.64852708033261
 20
152.9489352892242
 30
0.0
 10
69.84864174530284
 20
153.1279432153206
 30
0.0
 10
70.04218287476697
 20
153.3399486884992
 30
0.0
 10
70.22894872931201
 20
153.5850709608043
 30
0.0
 10
70.41039275388219
 20
153.8626013834334
 30
0.0
 10
70.51993949963433
 20
154.0635763386418
 30
0.0
 10
70.57671894987244
 20
154.1677441748473
 30
0.0
  0
ARC
  5
A2
330
1F
100
AcDbEntity
  8
0
  6
Continuous
 62
     7
370
    15
100
AcDbCircle
 10
65.9499263345
 20
153.8590459679
 30
0.0
 40
0.6250000000000228
100
AcDbArc
 50
27.0614818704
 51
89.675798223
  0
LINE
  5
A3
330
1F
100
AcDbEntity
  8
0
  6
Continuous
 62
     7
370
    15
100
AcDbLine
 10
42.7013393282
 20
154.6156068675
 30
0.0
 11
65.9534614324
 21
154.4840359005
 31
0.0
  0
SPLINE
  5
A4
330
1F
100
AcDbEntity
  8
0
  6
Continuous
 62
     7
370
    15
100
AcDbSpline
210
0.0
220
0.0
230
1.0
 70
     8
 71
     3
 72
    30
 73
    26
 74
     0
 42
0.00000001
 43
0.00000001
 12
1.0
 22
0.0
 32
0.0
 13
1.0
 23
0.0
 33
0.0
 40
0.0
 40
0.0
 40
0.0
 40
0.0
 40
0.0331152010151355
 40
0.0662217346226246
 40
0.0993286366171263
 40
0.1324449424917613
 40
0.1655796800466294
 40
0.1987418620287713
 40
0.2319404788334239
 40
0.2651844912959249
 40
0.2984828236026646
 40
0.3318443563485188
 40
0.3652779197666455
 40
0.3987922871551854
 40
0.432396168523463
 40
0.4660982044784532
 40
0.4999069603702098
 40
0.5624333243364639
 40
0.6248478308310819
 40
0.6872042551990699
 40
0.7495565230633793
 40
0.8119585708226638
 40
0.8744642060098129
 40
0.9371269693115855
 40
1.0
 40
1.0
 40
1.0
 40
1.0
 10
33.65266423539425
 20
156.8705629906894
 30
0.0
 10
33.74471929601103
 20
156.8223134724472
 30
0.0
 10
33.92880532321193
 20
156.7258270645512
 30
0.0
 10
34.20790620628994
 20
156.586910343176
 30
0.0
 10
34.48909873572106
 20
156.4522942447965
 30
0.0
 10
34.77260221328396
 20
156.3223925107778
 30
0.0
 10
35.05835778607349
 20
156.1970942944751
 30
0.0
 10
35.34638114843919
 20
156.0764293399002
 30
0.0
 10
35.63666800557644
 20
155.9603896899498
 30
0.0
 10
35.92921942397884
 20
155.8489774943315
 30
0.0
 10
36.22403502974297
 20
155.742192185324
 30
0.0
 10
36.52111484107232
 20
155.6400339176057
 30
0.0
 10
36.82045875165046
 20
155.5425026514346
 30
0.0
 10
37.12206676387175
 20
155.4495983743018
 30
0.0
 10
37.42593857436432
 20
155.3613211340925
 30
0.0
 10
37.73207500575912
 20
155.2776706835402
 30
0.0
 10
38.12743413814628
 20
155.1763651557807
 30
0.0
 10
38.61280269889581
 20
155.0635468505694
 30
0.0
 10
39.18910236007797
 20
154.9472890598817
 30
0.0
 10
39.76803440762941
 20
154.8481078263096
 30
0.0
 10
40.34959495532923
 20
154.7660336157575
 30
0.0
 10
40.93378249532511
 20
154.7009563464214
 30
0.0
 10
41.5205991056365
 20
154.6532875172746
 30
0.0
 10
42.11003007883891
 20
154.6214861776731
 30
0.0
 10
42.50398985864529
 20
154.6147278117316
 30
0.0
 10
42.70129968191132
 20
154.6113429687657
 30
0.0
  0
SPLINE
  5
A5
330
1F
100
AcDbEntity
  8
0
  6
Continuous
 62
     7
370
    15
100
AcDbSpline
210
0.0
220
0.0
230
1.0
 70
     8
 71
     3
 72
    30
 73
    26
 74
     0
 42
0.00000001
 43
0.00000001
 12
1.0
 22
0.0
 32
0.0
 13
1.0
 23
0.0
 33
0.0
 40
0.0
 40
0.0
 40
0.0
 40
0.0
 40
0.0334343112434859
 40
0.0668181841876144
 40
0.1001599601756139
 40
0.1334680121777856
 40
0.1667507386163695
 40
0.2000165570949976
 40
0.2332738980557746
 40
0.2665311983877425
 40
0.2997968950108564
 40
0.3330794184598437
 40
0.3663871864923108
 40
0.3997285977452583
 40
0.4331120254637014
 40
0.466545811324529
 40
0.5000382593778472
 40
0.5631904047237782
 40
0.6260396201679371
 40
0.6886428361042174
 40
0.75105765608032
 40
0.8133422063572514
 40
0.8755549783354827
 40
0.9377546659126542
 40
1.0
 40
1.0
 40
1.0
 40
1.0
 10
42.6834398734109
 20
159.1965109230128
 30
0.0
 10
42.57852369753176
 20
159.1946399270887
 30
0.0
 10
42.36884962011176
 20
159.1909007577856
 30
0.0
 10
42.0547113550725
 20
159.1790113661497
 30
0.0
 10
41.74118717483603
 20
159.1625260649558
 30
0.0
 10
41.42828309894703
 20
159.1409956421752
 30
0.0
 10
41.11599759292992
 20
159.1145402424027
 30
0.0
 10
40.80433114359214
 20
159.0831277141468
 30
0.0
 10
40.49328369719886
 20
159.0467666648348
 30
0.0
 10
40.18285534422919
 20
159.0054547953799
 30
0.0
 10
39.87304613733836
 20
158.9591927334249
 30
0.0
 10
39.56385613348418
 20
158.9079803231649
 30
0.0
 10
39.25528540558371
 20
158.8518176390251
 30
0.0
 10
38.94733395188857
 20
158.7907046401126
 30
0.0
 10
38.64000204565401
 20
158.7246415383005
 30
0.0
 10
38.33328892300672
 20
158.6536276687227
 30
0.0
 10
37.93705454212667
 20
158.5552950111098
 30
0.0
 10
37.45400707668803
 20
158.4237526669847
 30
0.0
 10
36.8877208416202
 20
158.2511507806693
 30
0.0
 10
36.32909675460369
 20
158.0622549739064
 30
0.0
 10
35.77815458726275
 20
157.8570372812475
 30
0.0
 10
35.23483918440548
 20
157.635601398561
 30
0.0
 10
34.69936019968414
 20
157.3975622340463
 30
0.0
 10
34.17094372688223
 20
157.1443576809855
 30
0.0
 10
33.82554072796248
 20
156.9619905428566
 30
0.0
 10
33.65277588148685
 20
156.8707735276032
 30
0.0
  0
LINE
  5
A6
330
1F
100
AcDbEntity
  8
0
  6
Continuous
 62
     7
370
    15
100
AcDbLine
 10
65.9338291525
 20
159.5097647391
 30
0.0
 11
42.6834430336
 21
159.1965108986
 31
0.0
  0
CIRCLE
  5
A7
330
1F
100
AcDbEntity
  8
0
  6
Continuous
 62
     7
370
    15
100
AcDbCircle
 10
164.3195058941
 20
157.3812495794
 30
0.0
 40
2.625000000000028
  0
LINE
  5
A8
330
1F
100
AcDbEntity
  8
0
  6
Continuous
 62
     7
370
    15
100
AcDbLine
 10
96.693513894
 20
157.3073152926
 30
0.0
 11
96.6605972289
 21
156.0737611602
 31
0.0
  0
SPLINE
  5
A9
330
1F
100
AcDbEntity
  8
0
  6
Continuous
 62
     7
370
    15
100
AcDbSpline
210
0.0
220
0.0
230
1.0
 70
     8
 71
     3
 72
    89
 73
    85
 74
     0
 42
0.00000001
 43
0.00000001
 12
1.0
 22
0.0
 32
0.0
 13
1.0
 23
0.0
 33
0.0
 40
0.0
 40
0.0
 40
0.0
 40
0.0
 40
0.0026909886580566
 40
0.0053481659930067
 40
0.0079772973610974
 40
0.0105843341927743
 40
0.0131753801712325
 40
0.0157566524182025
 40
0.0183344387734311
 40
0.0209150525576213
 40
0.0235047864132201
 40
0.0261098668941729
 40
0.0287364114133803
 40
0.0313903889641979
 40
0.0456241927228965
 40
0.0624553226731617
 40
0.0695477807466811
 40
0.0779789108106366
 40
0.0857710348087392
 40
0.093563158806842
 40
0.1005659442397655
 40
0.1071813074445172
 40
0.113417501488084
 40
0.1192843798125671
 40
0.1247937777566799
 40
0.1362793310956504
 40
0.1464763749654606
 40
0.1559148566182058
 40
0.1614440465766387
 40
0.1666015276157871
 40
0.1715724156813316
 40
0.1766473646505771
 40
0.1817849554802867
 40
0.1872491668785727
 40
0.1948703112543598
 40
0.2028212738118174
 40
0.207778462206442
 40
0.2129559878674637
 40
0.2184484522202517
 40
0.2242907901470664
 40
0.2314467616211742
 40
0.2399317711023176
 40
0.2497549725622109
 40
0.2635047813769023
 40
0.2784863677723981
 40
0.2947210754590228
 40
0.3122256648764847
 40
0.3298595058580133
 40
0.3461332864377981
 40
0.3610533043635244
 40
0.374627741714547
 40
0.407748552001068
 40
0.436853623798601
 40
0.4525584576929091
 40
0.4681302997783746
 40
0.4836885893041195
 40
0.4993530755307574
 40
0.5210559740885254
 40
0.5417888894088927
 40
0.5619297255905086
 40
0.5939146118241249
 40
0.6245178811551776
 40
0.6454361576055895
 40
0.6659843779412369
 40
0.6870761784316987
 40
0.7181685679387215
 40
0.7495030260388397
 40
0.7808020782025471
 40
0.8119449526383453
 40
0.8276434697212237
 40
0.8432818896573508
 40
0.8592247981693824
 40
0.8747342480108526
 40
0.8906012045478083
 40
0.9059734227772682
 40
0.9213674605166561
 40
0.9372977531576706
 40
0.9530084102129404
 40
0.968651585281398
 40
0.9750334126998951
 40
0.9813334544880097
 40
0.9875771092386211
 40
0.9937904670697784
 40
1.0
 40
1.0
 40
1.0
 40
1.0
 10
96.66071309257369
 20
156.074097263478
 30
0.0
 10
96.69567938735626
 20
156.0623764943873
 30
0.0
 10
96.76517263776357
 20
156.0390822235345
 30
0.0
 10
96.87070583600644
 20
156.0103901594971
 30
0.0
 10
96.97625077873396
 20
155.9866248022661
 30
0.0
 10
97.08195087997015
 20
155.9682003927432
 30
0.0
 10
97.18776647686437
 20
155.9550089814063
 30
0.0
 10
97.29370598937714
 20
155.9470801908104
 30
0.0
 10
97.39976485917859
 20
155.9444068901978
 30
0.0
 10
97.50594198915469
 20
155.946990776885
 30
0.0
 10
97.61223497322207
 20
155.9548325381675
 30
0.0
 10
97.71864339797106
 20
155.967925838288
 30
0.0
 10
97.82516084665552
 20
155.986291634029
 30
0.0
 10
98.08634940339938
 20
156.043979289201
 30
0.0
 10
98.52079920025287
 20
156.2124944194959
 30
0.0
 10
98.9696038577284
 20
156.4838579426184
 30
0.0
 10
99.3296909515321
 20
156.7425147099316
 30
0.0
 10
99.58313437295679
 20
156.9370808030674
 30
0.0
 10
99.84164724527231
 20
157.1406793792824
 30
0.0
 10
100.0827174015458
 20
157.3347552978884
 30
0.0
 10
100.3131405495925
 20
157.5163826828982
 30
0.0
 10
100.5331490352529
 20
157.676515701343
 30
0.0
 10
100.7458233656276
 20
157.8199786078737
 30
0.0
 10
100.9515944985611
 20
157.9462487070751
 30
0.0
 10
101.2256919653722
 20
158.0979594830679
 30
0.0
 10
101.5699402968209
 20
158.2455630995016
 30
0.0
 10
101.9916360293721
 20
158.3310068499306
 30
0.0
 10
102.3401621483041
 20
158.3106837984901
 30
0.0
 10
102.6068255751259
 20
158.236042575035
 30
0.0
 10
102.8012610909024
 20
158.1423281930531
 30
0.0
 10
102.968228877245
 20
158.0153168011863
 30
0.0
 10
103.1038927702267
 20
157.8550602388297
 30
0.0
 10
103.2002738883653
 20
157.660891402033
 30
0.0
 10
103.2609161695741
 20
157.417062217393
 30
0.0
 10
103.2675967252586
 20
157.1256538760462
 30
0.0
 10
103.2015136904703
 20
156.849166700925
 30
0.0
 10
103.1006514240325
 20
156.6220557938781
 30
0.0
 10
102.9858583032853
 20
156.4404166628213
 30
0.0
 10
102.8408178593499
 20
156.2660982592894
 30
0.0
 10
102.6599212617908
 20
156.088399130951
 30
0.0
 10
102.4399953314865
 20
155.8926392421595
 30
0.0
 10
102.1705768884475
 20
155.670835254404
 30
0.0
 10
101.82475529382
 20
155.3999275966735
 30
0.0
 10
101.3975456245594
 20
155.0888779473012
 30
0.0
 10
100.8841183239328
 20
154.7480065204248
 30
0.0
 10
100.3158573226285
 20
154.3974562148454
 30
0.0
 10
99.70552074525044
 20
154.0465948326118
 30
0.0
 10
99.08798406138203
 20
153.7075638621537
 30
0.0
 10
98.49624186610393
 20
153.3953127189043
 30
0.0
 10
97.94756052580291
 20
153.1208745805209
 30
0.0
 10
97.18353750617742
 20
152.7616348209998
 30
0.0
 10
96.21615797633329
 20
152.3777216846405
 30
0.0
 10
95.17656670572546
 20
152.1156448881858
 30
0.0
 10
94.35380144251515
 20
152.0189877589572
 30
0.0
 10
93.7115943403708
 20
151.9988464357522
 30
0.0
 10
93.07058698085766
 20
152.0355469440925
 30
0.0
 10
92.35224667353172
 20
152.1405961260927
 30
0.0
 10
91.57788985961044
 20
152.3338769093195
 30
0.0
 10
90.7771952761186
 20
152.64841767683
 30
0.0
 10
89.90635370426253
 20
153.1417302680057
 30
0.0
 10
89.03156053268435
 20
153.8845908476208
 30
0.0
 10
88.39826175817272
 20
154.8575467819959
 30
0.0
 10
88.07008735375696
 20
155.7955749414969
 30
0.0
 10
87.96373457883264
 20
156.6532239587983
 30
0.0
 10
88.05347485292565
 20
157.6515099516206
 30
0.0
 10
88.4156031422773
 20
158.7546763428217
 30
0.0
 10
89.16608204957713
 20
159.8170022416501
 30
0.0
 10
90.15810997526307
 20
160.6561967768835
 30
0.0
 10
91.14662545138047
 20
161.1034440188596
 30
0.0
 10
91.98182179519083
 20
161.300278477889
 30
0.0
 10
92.62884424844472
 20
161.361304458821
 30
0.0
 10
93.2756913388347
 20
161.3353802247967
 30
0.0
 10
93.91510068815184
 20
161.2145044680885
 30
0.0
 10
94.521167571929
 20
160.997510686618
 30
0.0
 10
95.07691318871692
 20
160.6747461126737
 30
0.0
 10
95.56337569713175
 20
160.2533711013739
 30
0.0
 10
95.96785405422462
 20
159.7476706143181
 30
0.0
 10
96.29257316566209
 20
159.1844540845292
 30
0.0
 10
96.4818575308985
 20
158.7009728833649
 30
0.0
 10
96.58481907341118
 20
158.3265906620483
 30
0.0
 10
96.63788436205259
 20
158.0725530468762
 30
0.0
 10
96.67386945405634
 20
157.8179382020769
 30
0.0
 10
96.6943023284513
 20
157.5627073615341
 30
0.0
 10
96.69377499955398
 20
157.3924285054461
 30
0.0
 10
96.69351141628532
 20
157.3073152910978
 30
0.0
  0
LINE
  5
AA
330
1F
100
AcDbEntity
  8
0
  6
Continuous
 62
     7
370
    15
100
AcDbLine
 10
106.3427570998
 20
153.5006496
 30
0.0
 11
105.8642547368
 21
153.5006496
 31
0.0
  0
LINE
  5
AB
330
1F
100
AcDbEntity
  8
0
  6
Continuous
 62
     7
370
    15
100
AcDbLine
 10
106.3427570998
 20
153.5006496
 30
0.0
 11
106.3427570998
 21
153.6256496205
 31
0.0
  0
LINE
  5
AC
330
1F
100
AcDbEntity
  8
0
  6
Continuous
 62
     7
370
    15
100
AcDbLine
 10
119.6316946089
 20
166.146249498
 30
0.0
 11
119.6316946089
 21
166.2712497513
 31
0.0
  0
LINE
  5
AD
330
1F
100
AcDbEntity
  8
0
  6
Continuous
 62
     7
370
    15
100
AcDbLine
 10
119.6316946089
 20
166.2712497513
 30
0.0
 11
123.9794064104
 21
166.2712497513
 31
0.0
  0
LINE
  5
AE
330
1F
100
AcDbEntity
  8
0
  6
Continuous
 62
     7
370
    15
100
AcDbLine
 10
124.0224223375
 20
166.1460548516
 30
0.0
 11
123.9787544846
 21
166.2712376441
 31
0.0
  0
SPLINE
  5
AF
330
1F
100
AcDbEntity
  8
0
  6
Continuous
 62
     7
370
    15
100
AcDbSpline
210
0.0
220
0.0
230
1.0
 70
     8
 71
     3
 72
    15
 73
    11
 74
     0
 42
0.00000001
 43
0.00000001
 12
1.0
 22
0.0
 32
0.0
 13
1.0
 23
0.0
 33
0.0
 40
0.0
 40
0.0
 40
0.0
 40
0.0
 40
0.2193828634092545
 40
0.3274629411265684
 40
0.4355267643739351
 40
0.5444875673170434
 40
0.6555736120685016
 40
0.7685725860818
 40
0.8828712320678107
 40
0.981188681219622
 40
0.981188681219622
 40
0.981188681219622
 40
0.981188681219622
 10
123.9794058941111
 20
166.2712495793529
 30
0.0
 10
125.2023155044483
 20
167.257622717127
 30
0.0
 10
127.374024689952
 20
168.3184796172177
 30
0.0
 10
130.5079998556859
 20
168.6052778427124
 30
0.0
 10
132.833194743857
 20
168.2542681306034
 30
0.0
 10
135.0093135321422
 20
167.3107458595613
 30
0.0
 10
136.9437080187161
 20
165.8869421229175
 30
0.0
 10
138.5453898430726
 20
164.0417064766344
 30
0.0
 10
139.6325974079435
 20
161.9589296010392
 30
0.0
 10
140.0708716160445
 20
160.4935533336617
 30
0.0
 10
140.2174329787175
 20
159.8055281104799
 30
0.0
  0
LINE
  5
B0
330
1F
100
AcDbEntity
  8
0
  6
Continuous
 62
     7
370
    15
100
AcDbLine
 10
140.0951761543
 20
159.7794853027
 30
0.0
 11
140.2174327313
 21
159.8055281087
 31
0.0
  0
LINE
  5
B1
330
1F
100
AcDbEntity
  8
0
  6
Continuous
 62
     7
370
    15
100
AcDbLine
 10
96.5332593559
 20
155.9877495624
 30
0.0
 11
96.5685527562
 21
157.3106495802
 31
0.0
  0
LINE
  5
B2
330
1F
100
AcDbEntity
  8
0
  6
Continuous
 62
     7
370
    15
100
AcDbLine
 10
96.693513894
 20
157.3073152926
 30
0.0
 11
96.5685527562
 21
157.3106495802
 31
0.0
  0
LINE
  5
B3
330
1F
100
AcDbEntity
  8
0
  6
Continuous
 62
     7
370
    15
100
AcDbLine
 10
96.5332519054
 20
155.9877536369
 30
0.0
 11
96.6604929208
 21
156.0740592999
 31
0.0
  0
SPLINE
  5
B4
330
1F
100
AcDbEntity
  8
0
  6
Continuous
 62
     7
370
    15
100
AcDbSpline
210
0.0
220
0.0
230
1.0
 70
     8
 71
     3
 72
    24
 73
    20
 74
     0
 42
0.00000001
 43
0.00000001
 12
1.0
 22
0.0
 32
0.0
 13
1.0
 23
0.0
 33
0.0
 40
0.0
 40
0.0
 40
0.0
 40
0.0
 40
0.0900606909489803
 40
0.1404200751207427
 40
0.2051332589221376
 40
0.2804108927229818
 40
0.347856402565713
 40
0.4042089892920323
 40
0.4760112841211038
 40
0.5613052973944015
 40
0.6598912715967384
 40
0.7726960088384786
 40
0.7861845816990622
 40
0.8083611444233625
 40
0.8217023186640644
 40
0.8429596531745912
 40
0.8711667712981432
 40
0.9127745225495777
 40
1.0
 40
1.0
 40
1.0
 40
1.0
 10
96.56855589411111
 20
157.3106495793529
 30
0.0
 10
96.60086604182518
 20
158.5215021122411
 30
0.0
 10
95.65782518991178
 20
160.5548018311442
 30
0.0
 10
92.94880669993077
 20
161.4260112089012
 30
0.0
 10
90.353748755245
 20
160.8853286578816
 30
0.0
 10
88.2804162698441
 20
158.7845395755077
 30
0.0
 10
87.91051778153455
 20
155.9670855373945
 30
0.0
 10
89.23880658142986
 20
153.5810724811855
 30
0.0
 10
91.82676710257482
 20
152.1558534161997
 30
0.0
 10
95.35270994094431
 20
151.9788618238057
 30
0.0
 10
98.95739048830957
 20
153.7249529481027
 30
0.0
 10
101.5483972521821
 20
155.2234421599294
 30
0.0
 10
102.9940312132309
 20
156.5717481380719
 30
0.0
 10
103.2196894274582
 20
157.247827547094
 30
0.0
 10
102.9473952794786
 20
158.0059937330282
 30
0.0
 10
102.0460569716559
 20
158.3217592201051
 30
0.0
 10
100.8812289584304
 20
157.8403542426644
 30
0.0
 10
99.30645446230294
 20
156.5129317821241
 30
0.0
 10
97.8194724914267
 20
155.485514487711
 30
0.0
 10
96.53325589411114
 20
155.9877495793529
 30
0.0
  0
SPLINE
  5
B5
330
1F
100
AcDbEntity
  8
0
  6
Continuous
 62
     7
370
    15
100
AcDbSpline
210
0.0
220
0.0
230
1.0
 70
     8
 71
     3
 72
     8
 73
     4
 74
     0
 42
0.00000001
 43
0.00000001
 12
1.0
 22
0.0
 32
0.0
 13
1.0
 23
0.0
 33
0.0
 40
0.0
 40
0.0
 40
0.0
 40
0.0
 40
1.0
 40
1.0
 40
1.0
 40
1.0
 10
33.39050515561248
 20
156.8697169623802
 30
0.0
 10
33.47812264313943
 20
156.8707129523516
 30
0.0
 10
33.56551802585852
 20
156.87104590318
 30
0.0
 10
33.65268415764883
 20
156.8707240504808
 30
0.0
  0
SPLINE
  5
B6
330
1F
100
AcDbEntity
  8
0
  6
Continuous
 62
     7
370
    15
100
AcDbSpline
210
0.0
220
0.0
230
1.0
 70
     8
 71
     3
 72
     8
 73
     4
 74
     0
 42
0.00000001
 43
0.00000001
 12
1.0
 22
0.0
 32
0.0
 13
1.0
 23
0.0
 33
0.0
 40
0.0
 40
0.0
 40
0.0
 40
0.0
 40
1.0
 40
1.0
 40
1.0
 40
1.0
 10
33.39050515561248
 20
156.8697169623802
 30
0.0
 10
36.22389862080396
 20
158.4425631608475
 30
0.0
 10
39.44481357991309
 20
159.2778880708264
 30
0.0
 10
42.68175589411111
 20
159.321499579353
 30
0.0
  0
LINE
  5
B7
330
1F
100
AcDbEntity
  8
0
  6
Continuous
 62
     7
370
    15
100
AcDbLine
 10
42.6834430336
 20
159.1965108986
 30
0.0
 11
42.6817592024
 21
159.3214996268
 31
0.0
  0
SPLINE
  5
B8
330
1F
100
AcDbEntity
  8
0
  6
Continuous
 62
     7
370
    15
100
AcDbSpline
210
0.0
220
0.0
230
1.0
 70
     8
 71
     3
 72
     8
 73
     4
 74
     0
 42
0.00000001
 43
0.00000001
 12
1.0
 22
0.0
 32
0.0
 13
1.0
 23
0.0
 33
0.0
 40
0.0
 40
0.0
 40
0.0
 40
0.0
 40
0.9999986513486123
 40
0.9999986513486123
 40
0.9999986513486123
 40
0.9999986513486123
 10
42.70061682852227
 20
154.4906090007061
 30
0.0
 10
39.46343695359877
 20
154.5089285533203
 30
0.0
 10
36.23609814994067
 20
155.3190603671609
 30
0.0
 10
33.39050515561248
 20
156.8697169623802
 30
0.0
  0
LINE
  5
B9
330
1F
100
AcDbEntity
  8
0
  6
Continuous
 62
     7
370
    15
100
AcDbLine
 10
42.7006017207
 20
154.4884634081
 30
0.0
 11
42.7013095259
 21
154.6134750701
 31
0.0
  0
SPLINE
  5
BA
330
1F
100
AcDbEntity
  8
0
  6
Continuous
 62
     7
370
    15
100
AcDbSpline
210
0.0
220
0.0
230
1.0
 70
     8
 71
     3
 72
    14
 73
    10
 74
     0
 42
0.00000001
 43
0.00000001
 12
1.0
 22
0.0
 32
0.0
 13
1.0
 23
0.0
 33
0.0
 40
0.0351500306209693
 40
0.0351500306209693
 40
0.0351500306209693
 40
0.0351500306209693
 40
0.158671169264247
 40
0.3047215275512241
 40
0.4340925685181141
 40
0.559317138410854
 40
0.6886836806842084
 40
0.8335497365816937
 40
0.9616322215674192
 40
0.9616322215674192
 40
0.9616322215674192
 40
0.9616322215674192
 10
155.7597129773702
 20
154.9202470235838
 30
0.0
 10
155.6281807054667
 20
154.5297010614991
 30
0.0
 10
155.2408577327774
 20
153.700775995587
 30
0.0
 10
154.3482359767498
 20
152.6851283442371
 30
0.0
 10
153.129427375325
 20
152.0461452179142
 30
0.0
 10
151.798019115288
 20
152.0368452729947
 30
0.0
 10
150.5695145353571
 20
152.6501193319679
 30
0.0
 10
149.6672857739736
 20
153.6765947988271
 30
0.0
 10
149.2675820958318
 20
154.5054395307973
 30
0.0
 10
149.1198669776207
 20
154.9040357409331
 30
0.0
  0
LINE
  5
BB
330
1F
100
AcDbEntity
  8
0
  6
Continuous
 62
     7
370
    15
100
AcDbLine
 10
149.119866991
 20
154.904035839
 30
0.0
 11
149.2370776623
 21
154.9474724911
 31
0.0
  0
LINE
  5
BC
330
1F
100
AcDbEntity
  8
0
  6
Continuous
 62
     7
370
    15
100
AcDbLine
 10
155.7597126602
 20
154.9202471382
 30
0.0
 11
155.6412512227
 21
154.9601438332
 31
0.0
  0
ARC
  5
BD
330
1F
100
AcDbEntity
  8
0
  6
Continuous
 62
     7
370
    15
100
AcDbCircle
 10
156.2335608463
 20
154.7606594391
 30
0.0
 40
0.4999999999998439
100
AcDbArc
 50
17.9570948543
 51
161.3869500541
  0
LINE
  5
BE
330
1F
100
AcDbEntity
  8
0
  6
Continuous
 62
     7
370
    15
100
AcDbLine
 10
156.7092048726
 20
154.9148117069
 30
0.0
 11
156.8281156733
 21
154.953349835
 31
0.0
  0
SPLINE
  5
BF
330
1F
100
AcDbEntity
  8
0
  6
Continuous
 62
     7
370
    15
100
AcDbSpline
210
0.0
220
0.0
230
1.0
 70
     8
 71
     3
 72
    12
 73
     8
 74
     0
 42
0.00000001
 43
0.00000001
 12
1.0
 22
0.0
 32
0.0
 13
1.0
 23
0.0
 33
0.0
 40
0.0497141026202717
 40
0.0497141026202717
 40
0.0497141026202717
 40
0.0497141026202717
 40
0.2297597157149419
 40
0.4152928740924789
 40
0.5832582115718229
 40
0.7672493083148708
 40
0.9493899228796756
 40
0.9493899228796756
 40
0.9493899228796756
 40
0.9493899228796756
 10
70.68743146791759
 20
154.1097119566568
 30
0.0
 10
70.51867900144315
 20
153.7877699204523
 30
0.0
 10
70.09853250137479
 20
153.1161788123228
 30
0.0
 10
69.1676302794299
 20
152.3973260269513
 30
0.0
 10
67.95433879824364
 20
152.4228386151148
 30
0.0
 10
67.00253730994471
 20
153.0930213036301
 30
0.0
 10
66.56503721615384
 20
153.7540493307777
 30
0.0
 10
66.39518576039397
 20
154.0865191391791
 30
0.0
  0
LINE
  5
C0
330
1F
100
AcDbEntity
  8
0
  6
Continuous
 62
     7
370
    15
100
AcDbLine
 10
66.3951840042
 20
154.0865192532
 30
0.0
 11
66.5065031289
 21
154.1433874394
 31
0.0
  0
LINE
  5
C1
330
1F
100
AcDbEntity
  8
0
  6
Continuous
 62
     7
370
    15
100
AcDbLine
 10
70.6874336838
 20
154.1097119793
 30
0.0
 11
70.5767180561
 21
154.1677440859
 31
0.0
  0
ARC
  5
C2
330
1F
100
AcDbEntity
  8
0
  6
Continuous
 62
     7
370
    15
100
AcDbCircle
 10
65.9499263345
 20
153.8590459679
 30
0.0
 40
0.5000000000000183
100
AcDbArc
 50
27.0614818704
 51
89.675798223
  0
LINE
  5
C3
330
1F
100
AcDbEntity
  8
0
  6
Continuous
 62
     7
370
    15
100
AcDbLine
 10
65.9527536272
 20
154.3590379755
 30
0.0
 11
65.9534614324
 21
154.4840359005
 31
0.0
  0
ARC
  5
C4
330
1F
100
AcDbEntity
  8
0
  6
Continuous
 62
     7
370
    15
100
AcDbCircle
 10
140.7233749525
 20
154.668341926
 30
0.0
 40
0.499999999999999
100
AcDbArc
 50
90.4477008264
 51
167.7399531005
  0
LINE
  5
C5
330
1F
100
AcDbEntity
  8
0
  6
Continuous
 62
     7
370
    15
100
AcDbLine
 10
140.2347776829
 20
154.7745163429
 30
0.0
 11
140.1126291394
 21
154.8010599676
 31
0.0
  0
LINE
  5
C6
330
1F
100
AcDbEntity
  8
0
  6
Continuous
 62
     7
370
    15
100
AcDbLine
 10
140.7194677531
 20
155.1683265592
 30
0.0
 11
140.718491727
 21
155.2933228544
 31
0.0
  0
SPLINE
  5
C7
330
1F
100
AcDbEntity
  8
0
  6
Continuous
 62
     7
370
    15
100
AcDbSpline
210
0.0
220
0.0
230
1.0
 70
     8
 71
     3
 72
    12
 73
     8
 74
     0
 42
0.00000001
 43
0.00000001
 12
1.0
 22
0.0
 32
0.0
 13
1.0
 23
0.0
 33
0.0
 40
0.009574946486455
 40
0.009574946486455
 40
0.009574946486455
 40
0.009574946486455
 40
0.2060928538164006
 40
0.4189536565813898
 40
0.5754556562469303
 40
0.7811096432266585
 40
0.9825048733615718
 40
0.9825048733615718
 40
0.9825048733615718
 40
0.9825048733615718
 10
140.2347780096314
 20
154.774516439877
 30
0.0
 10
139.9180338102207
 20
153.3169138400038
 30
0.0
 10
138.616020708851
 20
150.4118160957252
 30
0.0
 10
135.3625552562556
 20
147.4057299207348
 30
0.0
 10
131.1491969612781
 20
145.9646006103263
 30
0.0
 10
126.741156252891
 20
146.5009274810086
 30
0.0
 10
124.0628679728202
 20
148.2430919571344
 30
0.0
 10
123.0309217886785
 20
149.3848194468341
 30
0.0
  0
LINE
  5
C8
330
1F
100
AcDbEntity
  8
0
  6
Continuous
 62
     7
370
    15
100
AcDbLine
 10
123.0309214234
 20
149.3848198901
 30
0.0
 11
123.1236550748
 21
149.4686370592
 31
0.0
  0
ARC
  5
C9
330
1F
100
AcDbEntity
  8
0
  6
Continuous
 62
     7
370
    15
100
AcDbCircle
 10
140.7064608972
 20
159.9096995794
 30
0.0
 40
0.5
100
AcDbArc
 50
192.0252618189
 51
270.0
  0
LINE
  5
CA
330
1F
100
AcDbEntity
  8
0
  6
Continuous
 62
     7
370
    15
100
AcDbLine
 10
140.706460902
 20
159.2846995795
 30
0.0
 11
140.706460902
 21
159.4096994835
 31
0.0
  0
LINE
  5
CB
330
1F
100
AcDbEntity
  8
0
  6
Continuous
 62
     7
370
    15
100
AcDbLine
 10
99.5846893429
 20
161.1253528267
 30
0.0
 11
99.6876787185
 21
161.1961922485
 31
0.0
  0
ARC
  5
CC
330
1F
100
AcDbEntity
  8
0
  6
Continuous
 62
     7
370
    15
100
AcDbCircle
 10
100.0996333087
 20
161.4795495794
 30
0.0
 40
0.5000000000000001
100
AcDbArc
 50
214.52145669
 51
270.0
  0
LINE
  5
CD
330
1F
100
AcDbEntity
  8
0
  6
Continuous
 62
     7
370
    15
100
AcDbLine
 10
100.0996362209
 20
160.8545496005
 30
0.0
 11
100.0996362209
 21
160.979549621
 31
0.0
  0
LINE
  5
CE
330
1F
100
AcDbEntity
  8
0
  6
Continuous
 62
     7
370
    15
100
AcDbLine
 10
81.1874549627
 20
161.1720495734
 30
0.0
 11
81.1874549627
 21
161.297049361
 31
0.0
  0
SPLINE
  5
CF
330
1F
100
AcDbEntity
  8
0
  6
Continuous
 62
     7
370
    15
100
AcDbSpline
210
0.0
220
0.0
230
1.0
 70
     8
 71
     3
 72
    19
 73
    15
 74
     0
 42
0.00000001
 43
0.00000001
 12
1.0
 22
0.0
 32
0.0
 13
1.0
 23
0.0
 33
0.0
 40
0.0
 40
0.0
 40
0.0
 40
0.0
 40
0.0730757249678488
 40
0.0841650129619904
 40
0.1108928799414169
 40
0.1414499007582742
 40
0.1640996603878332
 40
0.1872478400716778
 40
0.2475235580527859
 40
0.448219115393004
 40
0.5704527973257602
 40
0.6920232155937704
 40
0.8356474575456094
 40
0.9891311222631363
 40
0.9891311222631363
 40
0.9891311222631363
 40
0.9891311222631363
 10
81.18745589411111
 20
161.2970495793529
 30
0.0
 10
82.07896921885943
 20
161.2970495793529
 30
0.0
 10
82.37949003136738
 20
161.2832104669734
 30
0.0
 10
82.84359947638761
 20
160.6704540613021
 30
0.0
 10
83.06424941522175
 20
160.1428047228325
 30
0.0
 10
83.35594436576424
 20
159.6121220885249
 30
0.0
 10
83.89740141612806
 20
159.2203890126171
 30
0.0
 10
84.74371964613894
 20
159.6094368847292
 30
0.0
 10
85.58897977614474
 20
161.7412540981506
 30
0.0
 10
87.77162692056473
 20
163.9118641158495
 30
0.0
 10
91.0819891954418
 20
165.2078462536068
 30
0.0
 10
94.16473518862412
 20
165.0191134752519
 30
0.0
 10
97.26138054781858
 20
163.8050359184587
 30
0.0
 10
98.99497705620253
 20
162.2032676707511
 30
0.0
 10
99.68767629999456
 20
161.1961921672908
 30
0.0
  0
LINE
  5
D0
330
1F
100
AcDbEntity
  8
0
  6
Continuous
 62
     7
370
    15
100
AcDbLine
 10
65.9338291525
 20
159.5097647391
 30
0.0
 11
65.9321453213
 21
159.6347533509
 31
0.0
  0
ARC
  5
D1
330
1F
100
AcDbEntity
  8
0
  6
Continuous
 62
     7
370
    15
100
AcDbCircle
 10
65.9254076579
 20
160.1347080048
 30
0.0
 40
0.5000000000000174
100
AcDbArc
 50
270.7719026033
 51
333.3862189559
  0
LINE
  5
D2
330
1F
100
AcDbEntity
  8
0
  6
Continuous
 62
     7
370
    15
100
AcDbLine
 10
66.48418864
 20
159.8547240596
 30
0.0
 11
66.3724299311
 21
159.9107209935
 31
0.0
  0
LINE
  5
D3
330
1F
100
AcDbEntity
  8
0
  6
Continuous
 62
     7
370
    15
100
AcDbLine
 10
81.2205876946
 20
152.8159938629
 30
0.0
 11
75.9726520418
 21
152.7749867986
 31
0.0
  0
LINE
  5
D4
330
1F
100
AcDbEntity
  8
0
  6
Continuous
 62
     7
370
    15
100
AcDbLine
 10
75.9726520418
 20
152.7749867986
 30
0.0
 11
75.9716760158
 21
152.899982861
 31
0.0
  0
ARC
  5
D5
330
1F
100
AcDbEntity
  8
0
  6
Continuous
 62
     7
370
    15
100
AcDbCircle
 10
156.213330995
 20
159.9385779713
 30
0.0
 40
0.5000000000000221
100
AcDbArc
 50
199.0607507668
 51
342.4906059722
  0
LINE
  5
D6
330
1F
100
AcDbEntity
  8
0
  6
Continuous
 62
     7
370
    15
100
AcDbLine
 10
156.6901649139
 20
159.7881468355
 30
0.0
 11
156.8093732721
 21
159.7505390986
 31
0.0
  0
LINE
  5
D7
330
1F
100
AcDbEntity
  8
0
  6
Continuous
 62
     7
370
    15
100
AcDbLine
 10
155.7407444134
 20
159.7752927213
 30
0.0
 11
155.6225977629
 21
159.7344714559
 31
0.0
  0
SPLINE
  5
D8
330
1F
100
AcDbEntity
  8
0
  6
Continuous
 62
     7
370
    15
100
AcDbSpline
210
0.0
220
0.0
230
1.0
 70
     8
 71
     3
 72
    14
 73
    10
 74
     0
 42
0.00000001
 43
0.00000001
 12
1.0
 22
0.0
 32
0.0
 13
1.0
 23
0.0
 33
0.0
 40
0.0351500306209689
 40
0.0351500306209689
 40
0.0351500306209689
 40
0.0351500306209689
 40
0.1632325156066949
 40
0.3080985715041804
 40
0.4374651137775349
 40
0.5626896836702744
 40
0.6920607246371646
 40
0.8381110829241416
 40
0.9616322215673998
 40
0.9616322215673998
 40
0.9616322215673998
 40
0.9616322215673998
 10
149.1009746031557
 20
159.7396212504763
 30
0.0
 10
149.2455706712286
 20
160.1393595048134
 30
0.0
 10
149.6387857418256
 20
160.9713021280094
 30
0.0
 10
150.5329663126879
 20
162.0047960702384
 30
0.0
 10
151.756641403955
 20
162.6276506642914
 30
0.0
 10
153.0880816864319
 20
162.6287543264851
 30
0.0
 10
154.3118459497864
 20
161.9993142019663
 30
0.0
 10
155.2123764970545
 20
160.9906723009294
 30
0.0
 10
155.6061646786189
 20
160.1647989946436
 30
0.0
 10
155.740744572978
 20
159.7752927185877
 30
0.0
  0
LINE
  5
D9
330
1F
100
AcDbEntity
  8
0
  6
Continuous
 62
     7
370
    15
100
AcDbLine
 10
149.1009741812
 20
159.7396212041
 30
0.0
 11
149.21852106
 21
159.6971016719
 31
0.0
  0
SPLINE
  5
DA
330
1F
100
AcDbEntity
  8
0
  6
Continuous
 62
     7
370
    15
100
AcDbSpline
210
0.0
220
0.0
230
1.0
 70
     8
 71
     3
 72
    12
 73
     8
 74
     0
 42
0.00000001
 43
0.00000001
 12
1.0
 22
0.0
 32
0.0
 13
1.0
 23
0.0
 33
0.0
 40
0.0497141026202725
 40
0.0497141026202725
 40
0.0497141026202725
 40
0.0497141026202725
 40
0.2318547171850752
 40
0.4158458139281246
 40
0.5838111514074686
 40
0.7693443097850033
 40
0.9493899228796757
 40
0.9493899228796757
 40
0.9493899228796757
 40
0.9493899228796757
 10
66.37243091487282
 20
159.9107209343195
 30
0.0
 10
66.53967934147329
 20
160.2445077739674
 30
0.0
 10
66.97200095567013
 20
160.9089341480971
 30
0.0
 10
67.9185367313288
 20
161.5865335389707
 30
0.0
 10
69.13159182355805
 20
161.6215257336796
 30
0.0
 10
70.0680825801045
 20
160.9099687529948
 30
0.0
 10
70.4934639150605
 20
160.2416810769829
 30
0.0
 10
70.66472681216234
 20
159.9210674626541
 30
0.0
  0
LINE
  5
DB
330
1F
100
AcDbEntity
  8
0
  6
Continuous
 62
     7
370
    15
100
AcDbLine
 10
70.5544706225
 20
159.8621718462
 30
0.0
 11
70.6647243141
 21
159.9210675217
 31
0.0
  0
LINE
  5
DC
330
1F
100
AcDbEntity
  8
0
  6
Continuous
 62
     7
370
    15
100
AcDbLine
 10
142.3650774895
 20
159.6539749175
 30
0.0
 11
142.2510202765
 21
159.7051198936
 31
0.0
  0
SPLINE
  5
DD
330
1F
100
AcDbEntity
  8
0
  6
Continuous
 62
     7
370
    15
100
AcDbSpline
210
0.0
220
0.0
230
1.0
 70
     8
 71
     3
 72
    12
 73
     8
 74
     0
 42
0.00000001
 43
0.00000001
 12
1.0
 22
0.0
 32
0.0
 13
1.0
 23
0.0
 33
0.0
 40
0.0540746270856868
 40
0.0540746270856868
 40
0.0540746270856868
 40
0.0540746270856868
 40
0.2110523871999732
 40
0.3858112103035561
 40
0.6141887896938518
 40
0.7889476127974346
 40
0.945925372911721
 40
0.945925372911721
 40
0.945925372911721
 40
0.945925372911721
 10
142.2510195556928
 20
159.7051197999402
 30
0.0
 10
142.3807739524717
 20
159.9944838495623
 30
0.0
 10
142.7219016679034
 20
160.6029882222561
 30
0.0
 10
143.6261704226717
 20
161.3908260241949
 30
0.0
 10
144.9725913655504
 20
161.390826024195
 30
0.0
 10
145.876860120319
 20
160.6029882222558
 30
0.0
 10
146.2179878357503
 20
159.9944838495629
 30
0.0
 10
146.3477422325294
 20
159.7051197999402
 30
0.0
  0
LINE
  5
DE
330
1F
100
AcDbEntity
  8
0
  6
Continuous
 62
     7
370
    15
100
AcDbLine
 10
146.2336852937
 20
159.6539749175
 30
0.0
 11
146.3477425068
 21
159.7051198936
 31
0.0
  0
ARC
  5
DF
330
1F
100
AcDbEntity
  8
0
  6
Continuous
 62
     7
370
    15
100
AcDbCircle
 10
146.8039736583
 20
159.9096995794
 30
0.0
 40
0.5000000000000093
100
AcDbArc
 50
204.1520505295
 51
270.0
  0
LINE
  5
E0
330
1F
100
AcDbEntity
  8
0
  6
Continuous
 62
     7
370
    15
100
AcDbLine
 10
146.8039732217
 20
159.2846995795
 30
0.0
 11
146.8039732217
 21
159.4096994835
 31
0.0
  0
ARC
  5
E1
330
1F
100
AcDbEntity
  8
0
  6
Continuous
 62
     7
370
    15
100
AcDbCircle
 10
71.1057495625
 20
160.1566495794
 30
0.0
 40
0.5000000000000197
100
AcDbArc
 50
208.1098960135
 51
270.0
  0
LINE
  5
E2
330
1F
100
AcDbEntity
  8
0
  6
Continuous
 62
     7
370
    15
100
AcDbLine
 10
71.1057465314
 20
159.5316496554
 30
0.0
 11
71.1057465314
 21
159.6566496759
 31
0.0
  0
ARC
  5
E3
330
1F
100
AcDbEntity
  8
0
  6
Continuous
 62
     7
370
    15
100
AcDbCircle
 10
71.1302815401
 20
153.8775830839
 30
0.0
 40
0.4999999999999991
100
AcDbArc
 50
90.4477008264
 51
152.3378048128
  0
LINE
  5
E4
330
1F
100
AcDbEntity
  8
0
  6
Continuous
 62
     7
370
    15
100
AcDbLine
 10
71.1263771891
 20
154.3775678023
 30
0.0
 11
71.125401163
 21
154.5025640975
 31
0.0
  0
ARC
  5
E5
330
1F
100
AcDbEntity
  8
0
  6
Continuous
 62
     7
370
    15
100
AcDbCircle
 10
146.8242651092
 20
154.716014358
 30
0.0
 40
0.5000000000000274
100
AcDbArc
 50
90.4477008264
 51
156.2956502969
  0
LINE
  5
E6
330
1F
100
AcDbEntity
  8
0
  6
Continuous
 62
     7
370
    15
100
AcDbLine
 10
146.366449052
 20
154.9170228995
 30
0.0
 11
146.2519950955
 21
154.967275203
 31
0.0
  0
LINE
  5
E7
330
1F
100
AcDbEntity
  8
0
  6
Continuous
 62
     7
370
    15
100
AcDbLine
 10
146.8203589111
 20
155.2159990992
 30
0.0
 11
146.8193810224
 21
155.3409953944
 31
0.0
  0
ARC
  5
E8
330
1F
100
AcDbEntity
  8
0
  6
Continuous
 62
     7
370
    15
100
AcDbCircle
 10
141.8152325013
 20
154.6768737145
 30
0.0
 40
0.5000000000000276
100
AcDbArc
 50
24.5997513558
 51
90.4477008264
  0
LINE
  5
E9
330
1F
100
AcDbEntity
  8
0
  6
Continuous
 62
     7
370
    15
100
AcDbLine
 10
141.8113261252
 20
155.1768584053
 30
0.0
 11
141.8103482365
 21
155.3018547005
 31
0.0
  0
LINE
  5
EA
330
1F
100
AcDbEntity
  8
0
  6
Continuous
 62
     7
370
    15
100
AcDbLine
 10
142.2698516189
 20
154.8850121784
 30
0.0
 11
142.3835065006
 21
154.9370468005
 31
0.0
  0
SPLINE
  5
EB
330
1F
100
AcDbEntity
  8
0
  6
Continuous
 62
     7
370
    15
100
AcDbSpline
210
0.0
220
0.0
230
1.0
 70
     8
 71
     3
 72
    12
 73
     8
 74
     0
 42
0.00000001
 43
0.00000001
 12
1.0
 22
0.0
 32
0.0
 13
1.0
 23
0.0
 33
0.0
 40
0.0540746270856878
 40
0.0540746270856878
 40
0.0540746270856878
 40
0.0540746270856878
 40
0.2110523871999747
 40
0.385811210303558
 40
0.6141887896938526
 40
0.7889476127974353
 40
0.945925372911721
 40
0.945925372911721
 40
0.945925372911721
 40
0.945925372911721
 10
146.3664490711302
 20
154.9170230027782
 30
0.0
 10
146.2389596607717
 20
154.6266539153325
 30
0.0
 10
145.9025970749145
 20
154.0155026241965
 30
0.0
 10
145.0045119121698
 20
153.2206231217101
 30
0.0
 10
143.6581320728267
 20
153.2101024927942
 30
0.0
 10
142.7477349370637
 20
153.9908504919645
 30
0.0
 10
142.4018629199501
 20
154.5966707933749
 30
0.0
 10
142.2698514590344
 20
154.8850121377639
 30
0.0
  0
LINE
  5
EC
330
1F
100
AcDbEntity
  8
0
  6
Continuous
 62
     7
370
    15
100
AcDbLine
 10
75.9393628477
 20
161.1720495734
 30
0.0
 11
75.9393628477
 21
161.297049361
 31
0.0
  0
LINE
  5
ED
330
1F
100
AcDbEntity
  8
0
  6
Continuous
 62
     7
370
    15
100
AcDbLine
 10
75.9393628477
 20
161.297049361
 30
0.0
 11
81.1874549627
 21
161.297049361
 31
0.0
  0
LINE
  5
EE
330
1F
100
AcDbEntity
  8
0
  6
Continuous
 62
     7
370
    15
100
AcDbLine
 10
65.9527536272
 20
154.3590379755
 30
0.0
 11
42.7006315231
 21
154.4906089424
 31
0.0
  0
LINE
  5
EF
330
1F
100
AcDbEntity
  8
0
  6
Continuous
 62
     7
370
    15
100
AcDbLine
 10
42.6817592024
 20
159.3214996268
 30
0.0
 11
65.9321453213
 21
159.6347533509
 31
0.0
  0
ARC
  5
F0
330
1F
100
AcDbEntity
  8
0
  6
Continuous
 62
     7
370
    15
100
AcDbCircle
 10
148.6307902116
 20
159.9096995794
 30
0.0
 40
0.5000000000000044
100
AcDbArc
 50
270.0
 51
340.1135812089
  0
LINE
  5
F1
330
1F
100
AcDbEntity
  8
0
  6
Continuous
 62
     7
370
    15
100
AcDbLine
 10
148.6307903915
 20
159.4096994835
 30
0.0
 11
148.6307903915
 21
159.2846995795
 31
0.0
  0
LINE
  5
F2
330
1F
100
AcDbEntity
  8
0
  6
Continuous
 62
     7
370
    15
100
AcDbLine
 10
141.7947876989
 20
159.2846995795
 30
0.0
 11
141.7947876989
 21
159.4096994835
 31
0.0
  0
ARC
  5
F3
330
1F
100
AcDbEntity
  8
0
  6
Continuous
 62
     7
370
    15
100
AcDbCircle
 10
141.7947881299
 20
159.9096995794
 30
0.0
 40
0.5000000000000093
100
AcDbArc
 50
270.0
 51
335.8479494705
  0
ARC
  5
F4
330
1F
100
AcDbEntity
  8
0
  6
Continuous
 62
     7
370
    15
100
AcDbCircle
 10
148.6510258935
 20
154.7302886896
 30
0.0
 40
0.4999999999999834
100
AcDbArc
 50
20.3341196175
 51
90.4477008264
  0
LINE
  5
F5
330
1F
100
AcDbEntity
  8
0
  6
Continuous
 62
     7
370
    15
100
AcDbLine
 10
148.6471183389
 20
155.2302734803
 30
0.0
 11
148.6461423128
 21
155.3552695426
 31
0.0
  0
SPLINE
  5
F6
330
1F
100
AcDbEntity
  8
0
  6
Continuous
 62
     7
370
    15
100
AcDbSpline
210
0.0
220
0.0
230
1.0
 70
    11
 71
     3
 72
    40
 73
    36
 74
     0
 42
0.00000001
 43
0.00000001
 12
1.0
 22
0.0
 32
0.0
 13
1.0
 23
0.0
 33
0.0
 40
-0.043817866413931
 40
0.0
 40
0.0
 40
0.0
 40
0.0178992361144139
 40
0.033733504943034
 40
0.0487079590301525
 40
0.0750321370805374
 40
0.1009518324775036
 40
0.1413815039282574
 40
0.1822143352133579
 40
0.2201208331622911
 40
0.2460460870072115
 40
0.2669643499881833
 40
0.2917245430810983
 40
0.3146068061204098
 40
0.3397208964268812
 40
0.3636173926379805
 40
0.3818926963923603
 40
0.3937310418005883
 40
0.4036316071091475
 40
0.4156571565953917
 40
0.4354944931138036
 40
0.4611676671290271
 40
0.4871222220476757
 40
0.5224349083428128
 40
0.5574970467740058
 40
0.5916652845652755
 40
0.644686618715494
 40
0.676045742337265
 40
0.7061718101621612
 40
0.7375865140328437
 40
0.7841900935746211
 40
0.8309478695189869
 40
0.8772624598948341
 40
0.956182133586069
 40
1.0
 40
1.0
 40
1.0
 40
1.017899236114414
 10
116.4828558941111
 20
157.3106495793529
 30
0.0
 10
116.1710107285691
 20
156.9746325057911
 30
0.0
 10
115.570732510349
 20
156.3354693448682
 30
0.0
 10
115.6805560017118
 20
154.9153994212768
 30
0.0
 10
117.0941937718438
 20
154.1431777965981
 30
0.0
 10
118.8147938120189
 20
154.7365370659862
 30
0.0
 10
120.7196145703386
 20
156.014626594633
 30
0.0
 10
122.8689883095038
 20
157.6461315518438
 30
0.0
 10
125.5105447589855
 20
159.0765132128608
 30
0.0
 10
128.0500229944562
 20
159.8007648365127
 30
0.0
 10
130.2884646757665
 20
159.5989545792646
 30
0.0
 10
131.6359495162216
 20
158.2794887621698
 30
0.0
 10
132.1718588123836
 20
156.5187826122282
 30
0.0
 10
131.3155690702883
 20
154.7130495827474
 30
0.0
 10
129.4932432426908
 20
153.9894957436867
 30
0.0
 10
127.8016851747488
 20
154.325115161364
 30
0.0
 10
126.5363619183913
 20
154.7823669865235
 30
0.0
 10
125.4453996218856
 20
154.6277086321345
 30
0.0
 10
124.9759751807085
 20
153.8070774950015
 30
0.0
 10
125.1906902486245
 20
152.7427575062385
 30
0.0
 10
125.8449719572256
 20
151.4287655230013
 30
0.0
 10
127.3861797888768
 20
150.3661769298048
 30
0.0
 10
129.5256563344739
 20
149.8500930650993
 30
0.0
 10
131.9920238620324
 20
150.0221482753836
 30
0.0
 10
134.3956219791903
 20
151.268534067847
 30
0.0
 10
136.2723551012719
 20
153.8117946975156
 30
0.0
 10
136.7621941076486
 20
156.8399071854459
 30
0.0
 10
136.5825007514806
 20
159.7235963991905
 30
0.0
 10
135.5764303695559
 20
161.9037134125075
 30
0.0
 10
133.4660579427294
 20
163.7070094710175
 30
0.0
 10
130.3992875455333
 20
164.6967863159213
 30
0.0
 10
126.841589874051
 20
164.4627503779104
 30
0.0
 10
122.767218591866
 20
162.956515245152
 30
0.0
 10
119.2727172636323
 20
160.3848467223319
 30
0.0
 10
117.2462622047607
 20
158.1332294452209
 30
0.0
 10
116.4828558941111
 20
157.3106495793529
 30
0.0
  0
ARC
  5
F7
330
1F
100
AcDbEntity
  8
0
  6
Continuous
 62
     7
370
    15
100
AcDbCircle
 10
122.6599849801
 20
149.0495495794
 30
0.0
 40
0.5
100
AcDbArc
 50
42.1087354813
 51
90.0
  0
LINE
  5
F8
330
1F
100
AcDbEntity
  8
0
  6
Continuous
 62
     7
370
    15
100
AcDbLine
 10
122.6599868178
 20
149.5495494332
 30
0.0
 11
122.6599868178
 21
149.6745496865
 31
0.0
  0
LINE
  5
F9
330
1F
100
AcDbEntity
  8
0
  6
Continuous
 62
     7
370
    15
100
AcDbLine
 10
116.2198055326
 20
166.6531497489
 30
0.0
 11
116.0948071419
 21
166.6531497489
 31
0.0
  0
ARC
  5
FA
330
1F
100
AcDbEntity
  8
0
  6
Continuous
 62
     7
370
    15
100
AcDbCircle
 10
116.5948058941
 20
166.6531495794
 30
0.0
 40
0.5
100
AcDbArc
 50
90.0
 51
180.0
  0
LINE
  5
FB
330
1F
100
AcDbEntity
  8
0
  6
Continuous
 62
     7
370
    15
100
AcDbLine
 10
116.5948044299
 20
167.0281495775
 30
0.0
 11
116.5948044299
 21
167.1531498309
 31
0.0
  0
LINE
  5
FC
330
1F
100
AcDbEntity
  8
0
  6
Continuous
 62
     7
370
    15
100
AcDbLine
 10
112.4469917058
 20
163.6591497685
 30
0.0
 11
112.4469917058
 21
163.7841495562
 31
0.0
  0
LINE
  5
FD
330
1F
100
AcDbEntity
  8
0
  6
Continuous
 62
     7
370
    15
100
AcDbLine
 10
112.4469917058
 20
163.7841495562
 30
0.0
 11
113.9166485309
 21
163.7841495562
 31
0.0
  0
LINE
  5
FE
330
1F
100
AcDbEntity
  8
0
  6
Continuous
 62
     7
370
    15
100
AcDbLine
 10
113.9166485309
 20
163.6591497685
 30
0.0
 11
113.9166485309
 21
163.7841495562
 31
0.0
  0
ARC
  5
FF
330
1F
100
AcDbEntity
  8
0
  6
Continuous
 62
     7
370
    15
100
AcDbCircle
 10
119.6336444756
 20
148.9382995794
 30
0.0
 40
0.5
100
AcDbArc
 50
270.0
 51
326.943975969
  0
LINE
  5
100
330
1F
100
AcDbEntity
  8
0
  6
Continuous
 62
     7
370
    15
100
AcDbLine
 10
119.6336429357
 20
148.4382999937
 30
0.0
 11
119.6336429357
 21
148.5632993157
 31
0.0
  0
LINE
  5
101
330
1F
100
AcDbEntity
  8
0
  6
Continuous
 62
     7
370
    15
100
AcDbLine
 10
120.0527120172
 20
148.6655697103
 30
0.0
 11
119.9479456782
 21
148.7337527673
 31
0.0
  0
LINE
  5
102
330
1F
100
AcDbEntity
  8
0
  6
Continuous
 62
     7
370
    15
100
AcDbLine
 10
101.2912075757
 20
160.8545496005
 30
0.0
 11
101.2912075757
 21
160.979549621
 31
0.0
  0
ARC
  5
103
330
1F
100
AcDbEntity
  8
0
  6
Continuous
 62
     7
370
    15
100
AcDbCircle
 10
101.291205623
 20
161.4795495794
 30
0.0
 40
0.5
100
AcDbArc
 50
270.0
 51
313.326005542
  0
LINE
  5
104
330
1F
100
AcDbEntity
  8
0
  6
Continuous
 62
     7
370
    15
100
AcDbLine
 10
101.7200480937
 20
161.0248861711
 30
0.0
 11
101.6342770099
 21
161.1158188775
 31
0.0
  0
ARC
  5
105
330
1F
100
AcDbEntity
  8
0
  6
Continuous
 62
     7
370
    15
100
AcDbCircle
 10
106.342755782
 20
153.0006495794
 30
0.0
 40
0.5000000000000083
100
AcDbArc
 50
28.4777653454
 51
90.0
  0
LINE
  5
106
330
1F
100
AcDbEntity
  8
0
  6
Continuous
 62
     7
370
    15
100
AcDbLine
 10
106.7822556733
 20
153.2390583183
 30
0.0
 11
106.8921331107
 21
153.2986606348
 31
0.0
  0
LINE
  5
107
330
1F
100
AcDbEntity
  8
0
  6
Continuous
 62
     7
370
    15
100
AcDbLine
 10
141.8113261252
 20
155.1768584053
 30
0.0
 11
140.7194677531
 21
155.1683265592
 31
0.0
  0
LINE
  5
108
330
1F
100
AcDbEntity
  8
0
  6
Continuous
 62
     7
370
    15
100
AcDbLine
 10
108.5269059777
 20
150.0228405807
 30
0.0
 11
106.7822556733
 21
153.2390583183
 31
0.0
  0
LINE
  5
109
330
1F
100
AcDbEntity
  8
0
  6
Continuous
 62
     7
370
    15
100
AcDbLine
 10
108.5269059777
 20
150.0228405807
 30
0.0
 11
108.6367796897
 21
150.0824428971
 31
0.0
  0
LINE
  5
10A
330
1F
100
AcDbEntity
  8
0
  6
Continuous
 62
     7
370
    15
100
AcDbLine
 10
106.468750143
 20
160.3077496278
 30
0.0
 11
106.468750143
 21
160.4327496483
 31
0.0
  0
LINE
  5
10B
330
1F
100
AcDbEntity
  8
0
  6
Continuous
 62
     7
370
    15
100
AcDbLine
 10
106.468750143
 20
160.4327496483
 30
0.0
 11
108.4713171958
 21
160.4327496483
 31
0.0
  0
LINE
  5
10C
330
1F
100
AcDbEntity
  8
0
  6
Continuous
 62
     7
370
    15
100
AcDbLine
 10
108.4713171958
 20
160.3077496278
 30
0.0
 11
108.4713171958
 21
160.4327496483
 31
0.0
  0
LINE
  5
10D
330
1F
100
AcDbEntity
  8
0
  6
Continuous
 62
     7
370
    15
100
AcDbLine
 10
115.5948061287
 20
162.8124997828
 30
0.0
 11
115.5948061287
 21
162.9374995704
 31
0.0
  0
ARC
  5
10E
330
1F
100
AcDbEntity
  8
0
  6
Continuous
 62
     7
370
    15
100
AcDbCircle
 10
115.5948058941
 20
163.4374995794
 30
0.0
 40
0.5
100
AcDbArc
 50
270.0
 51
0.0
  0
LINE
  5
10F
330
1F
100
AcDbEntity
  8
0
  6
Continuous
 62
     7
370
    15
100
AcDbLine
 10
116.2198055326
 20
163.4374996524
 30
0.0
 11
116.0948071419
 21
163.4374996524
 31
0.0
  0
LINE
  5
110
330
1F
100
AcDbEntity
  8
0
  6
Continuous
 62
     7
370
    15
100
AcDbLine
 10
116.5948044299
 20
167.1531498309
 30
0.0
 11
117.5850163936
 21
167.1531498309
 31
0.0
  0
LINE
  5
111
330
1F
100
AcDbEntity
  8
0
  6
Continuous
 62
     7
370
    15
100
AcDbLine
 10
117.5850163936
 20
167.0281495775
 30
0.0
 11
117.5850163936
 21
167.1531498309
 31
0.0
  0
ARC
  5
112
330
1F
100
AcDbEntity
  8
0
  6
Continuous
 62
     7
370
    15
100
AcDbCircle
 10
113.896664643
 20
151.4837495794
 30
0.0
 40
0.5000000000000024
100
AcDbArc
 50
45.4242687838
 51
90.0
  0
LINE
  5
113
330
1F
100
AcDbEntity
  8
0
  6
Continuous
 62
     7
370
    15
100
AcDbLine
 10
113.8966660737
 20
151.9837495747
 30
0.0
 11
113.8966660737
 21
152.1087493624
 31
0.0
  0
LINE
  5
114
330
1F
100
AcDbEntity
  8
0
  6
Continuous
 62
     7
370
    15
100
AcDbLine
 10
114.2475921451
 20
151.8399114597
 30
0.0
 11
114.3353227317
 21
151.9289514858
 31
0.0
  0
LINE
  5
115
330
1F
100
AcDbEntity
  8
0
  6
Continuous
 62
     7
370
    15
100
AcDbLine
 10
114.8676257371
 20
162.962955876
 30
0.0
 11
114.9489749014
 21
163.0578646313
 31
0.0
  0
ARC
  5
116
330
1F
100
AcDbEntity
  8
0
  6
Continuous
 62
     7
370
    15
100
AcDbCircle
 10
115.2743620085
 20
163.4374995794
 30
0.0
 40
0.5
100
AcDbArc
 50
229.3998995644
 51
270.0
  0
LINE
  5
117
330
1F
100
AcDbEntity
  8
0
  6
Continuous
 62
     7
370
    15
100
AcDbLine
 10
115.2743603825
 20
162.8124997828
 30
0.0
 11
115.2743603825
 21
162.9374995704
 31
0.0
  0
ARC
  5
118
330
1F
100
AcDbEntity
  8
0
  6
Continuous
 62
     7
370
    15
100
AcDbCircle
 10
120.8991673126
 20
149.0495495794
 30
0.0
 40
0.5
100
AcDbArc
 50
90.0
 51
146.943975969
  0
LINE
  5
119
330
1F
100
AcDbEntity
  8
0
  6
Continuous
 62
     7
370
    15
100
AcDbLine
 10
120.480099672
 20
149.3222787853
 30
0.0
 11
120.3753296077
 21
149.390460911
 31
0.0
  0
LINE
  5
11A
330
1F
100
AcDbEntity
  8
0
  6
Continuous
 62
     7
370
    15
100
AcDbLine
 10
120.8991687536
 20
149.5495494332
 30
0.0
 11
120.8991687536
 21
149.6745496865
 31
0.0
  0
LINE
  5
11B
330
1F
100
AcDbEntity
  8
0
  6
Continuous
 62
     7
370
    15
100
AcDbLine
 10
114.1606922983
 20
163.56887574
 30
0.0
 11
114.2420377373
 21
163.6637844953
 31
0.0
  0
LINE
  5
11C
330
1F
100
AcDbEntity
  8
0
  6
Continuous
 62
     7
370
    15
100
AcDbLine
 10
114.2420377373
 20
163.6637844953
 30
0.0
 11
114.9489749014
 21
163.0578646313
 31
0.0
  0
LINE
  5
11D
330
1F
100
AcDbEntity
  8
0
  6
Continuous
 62
     7
370
    15
100
AcDbLine
 10
115.2743603825
 20
162.9374995704
 30
0.0
 11
115.5948061287
 21
162.9374995704
 31
0.0
  0
LINE
  5
11E
330
1F
100
AcDbEntity
  8
0
  6
Continuous
 62
     7
370
    15
100
AcDbLine
 10
116.0948071419
 20
163.4374996524
 30
0.0
 11
116.0948071419
 21
166.6531497489
 31
0.0
  0
ARC
  5
11F
330
1F
100
AcDbEntity
  8
0
  6
Continuous
 62
     7
370
    15
100
AcDbCircle
 10
113.9166497798
 20
163.2841495794
 30
0.0
 40
0.5000000000000011
100
AcDbArc
 50
49.3998995644
 51
90.0
  0
CIRCLE
  5
120
330
1F
100
AcDbEntity
  8
0
  6
Continuous
 62
     7
370
    15
100
AcDbCircle
 10
164.3195058941
 20
157.3812495794
 30
0.0
 40
2.5
  0
LINE
  5
121
330
1F
100
AcDbEntity
  8
0
  6
Continuous
 62
     7
370
    15
100
AcDbLine
 10
100.0996362209
 20
160.979549621
 30
0.0
 11
101.2912075757
 21
160.979549621
 31
0.0
  0
LINE
  5
122
330
1F
100
AcDbEntity
  8
0
  6
Continuous
 62
     7
370
    15
100
AcDbLine
 10
119.6336429357
 20
148.4382999937
 30
0.0
 11
117.9048958956
 21
148.4382999937
 31
0.0
  0
LINE
  5
123
330
1F
100
AcDbEntity
  8
0
  6
Continuous
 62
     7
370
    15
100
AcDbLine
 10
117.9048958956
 20
148.4382999937
 30
0.0
 11
117.9048958956
 21
148.5632993157
 31
0.0
  0
LINE
  5
124
330
1F
100
AcDbEntity
  8
0
  6
Continuous
 62
     7
370
    15
100
AcDbLine
 10
112.1907401621
 20
163.5579359594
 30
0.0
 11
112.1053229808
 21
163.6491981211
 31
0.0
  0
ARC
  5
125
330
1F
100
AcDbEntity
  8
0
  6
Continuous
 62
     7
370
    15
100
AcDbCircle
 10
112.4469928863
 20
163.2841495794
 30
0.0
 40
0.5000000000000127
100
AcDbArc
 50
90.0
 51
133.1054610077
  0
ARC
  5
126
330
1F
100
AcDbEntity
  8
0
  6
Continuous
 62
     7
370
    15
100
AcDbCircle
 10
117.9048971452
 20
148.9382995794
 30
0.0
 40
0.5000000000000128
100
AcDbArc
 50
225.4242687839
 51
270.0
  0
LINE
  5
127
330
1F
100
AcDbEntity
  8
0
  6
Continuous
 62
     7
370
    15
100
AcDbLine
 10
117.5539698242
 20
148.5821381088
 30
0.0
 11
117.6417041361
 21
148.6711781348
 31
0.0
  0
LINE
  5
128
330
1F
100
AcDbEntity
  8
0
  6
Continuous
 62
     7
370
    15
100
AcDbLine
 10
108.8984068274
 20
160.4764389216
 30
0.0
 11
108.8129896461
 21
160.5677010834
 31
0.0
  0
LINE
  5
129
330
1F
100
AcDbEntity
  8
0
  6
Continuous
 62
     7
370
    15
100
AcDbLine
 10
108.8129896461
 20
160.5677010834
 30
0.0
 11
112.1053229808
 21
163.6491981211
 31
0.0
  0
LINE
  5
12A
330
1F
100
AcDbEntity
  8
0
  6
Continuous
 62
     7
370
    15
100
AcDbLine
 10
117.5539698242
 20
148.5821381088
 30
0.0
 11
114.2475921451
 21
151.8399114597
 31
0.0
  0
ARC
  5
12B
330
1F
100
AcDbEntity
  8
0
  6
Continuous
 62
     7
370
    15
100
AcDbCircle
 10
108.4713189019
 20
160.9327495794
 30
0.0
 40
0.5
100
AcDbArc
 50
270.0
 51
313.1054610077
  0
ARC
  5
12C
330
1F
100
AcDbEntity
  8
0
  6
Continuous
 62
     7
370
    15
100
AcDbCircle
 10
164.3195058941
 20
157.3812495794
 30
0.0
 40
8.00000000000026
100
AcDbArc
 50
197.9570948543
 51
162.4906059722
  0
LINE
  5
12D
330
1F
100
AcDbEntity
  8
0
  6
Continuous
 62
     7
370
    15
100
AcDbLine
 10
140.706460902
 20
159.4096994835
 30
0.0
 11
141.7947876989
 21
159.4096994835
 31
0.0
  0
LINE
  5
12E
330
1F
100
AcDbEntity
  8
0
  6
Continuous
 62
     7
370
    15
100
AcDbLine
 10
113.8966660737
 20
151.9837495747
 30
0.0
 11
112.4577801465
 21
151.9837495747
 31
0.0
  0
LINE
  5
12F
330
1F
100
AcDbEntity
  8
0
  6
Continuous
 62
     7
370
    15
100
AcDbLine
 10
112.4577801465
 20
151.9837495747
 30
0.0
 11
112.4577801465
 21
152.1087493624
 31
0.0
  0
LINE
  5
130
330
1F
100
AcDbEntity
  8
0
  6
Continuous
 62
     7
370
    15
100
AcDbLine
 10
106.0130353808
 20
160.5050237726
 30
0.0
 11
106.1041783332
 21
160.5905690107
 31
0.0
  0
ARC
  5
131
330
1F
100
AcDbEntity
  8
0
  6
Continuous
 62
     7
370
    15
100
AcDbCircle
 10
106.4687508389
 20
160.9327495794
 30
0.0
 40
0.5000000000000151
100
AcDbArc
 50
223.185402806
 51
270.0
  0
LINE
  5
132
330
1F
100
AcDbEntity
  8
0
  6
Continuous
 62
     7
370
    15
100
AcDbLine
 10
122.6599868178
 20
149.5495494332
 30
0.0
 11
120.8991687536
 21
149.5495494332
 31
0.0
  0
ARC
  5
133
330
1F
100
AcDbEntity
  8
0
  6
Continuous
 62
     7
370
    15
100
AcDbCircle
 10
75.9765613033
 20
152.275001895
 30
0.0
 40
0.4999999999999989
100
AcDbArc
 50
90.4477008264
 51
150.7700046722
  0
LINE
  5
134
330
1F
100
AcDbEntity
  8
0
  6
Continuous
 62
     7
370
    15
100
AcDbLine
 10
75.5402277946
 20
152.5191604036
 30
0.0
 11
75.4311438441
 21
152.5801997508
 31
0.0
  0
LINE
  5
135
330
1F
100
AcDbEntity
  8
0
  6
Continuous
 62
     7
370
    15
100
AcDbLine
 10
75.3963421821
 20
161.4875993568
 30
0.0
 11
75.5049492954
 21
161.5494894672
 31
0.0
  0
ARC
  5
136
330
1F
100
AcDbEntity
  8
0
  6
Continuous
 62
     7
370
    15
100
AcDbCircle
 10
75.9393591713
 20
161.7970495794
 30
0.0
 40
0.5
100
AcDbArc
 50
209.6776961541
 51
270.0
  0
LINE
  5
137
330
1F
100
AcDbEntity
  8
0
  6
Continuous
 62
     7
370
    15
100
AcDbLine
 10
75.5402277946
 20
152.5191604036
 30
0.0
 11
74.9019887089
 21
151.3785677838
 31
0.0
  0
LINE
  5
138
330
1F
100
AcDbEntity
  8
0
  6
Continuous
 62
     7
370
    15
100
AcDbLine
 10
74.9019887089
 20
151.3785677838
 30
0.0
 11
74.7929047584
 21
151.4396075967
 31
0.0
  0
LINE
  5
139
330
1F
100
AcDbEntity
  8
0
  6
Continuous
 62
     7
370
    15
100
AcDbLine
 10
120.480099672
 20
149.3222787853
 30
0.0
 11
120.0527120172
 21
148.6655697103
 31
0.0
  0
LINE
  5
13A
330
1F
100
AcDbEntity
  8
0
  6
Continuous
 62
     7
370
    15
100
AcDbLine
 10
103.2406072854
 20
162.318599398
 30
0.0
 11
103.2406072854
 21
162.4435996513
 31
0.0
  0
LINE
  5
13B
330
1F
100
AcDbEntity
  8
0
  6
Continuous
 62
     7
370
    15
100
AcDbLine
 10
103.2406072854
 20
162.4435996513
 30
0.0
 11
104.1485126852
 21
162.4435996513
 31
0.0
  0
LINE
  5
13C
330
1F
100
AcDbEntity
  8
0
  6
Continuous
 62
     7
370
    15
100
AcDbLine
 10
104.1485126852
 20
162.318599398
 30
0.0
 11
104.1485126852
 21
162.4435996513
 31
0.0
  0
LINE
  5
13D
330
1F
100
AcDbEntity
  8
0
  6
Continuous
 62
     7
370
    15
100
AcDbLine
 10
109.8363790452
 20
149.7612497646
 30
0.0
 11
108.9664045512
 21
149.7612497646
 31
0.0
  0
LINE
  5
13E
330
1F
100
AcDbEntity
  8
0
  6
Continuous
 62
     7
370
    15
100
AcDbLine
 10
108.9664045512
 20
149.7612497646
 30
0.0
 11
108.9664045512
 21
149.8862495522
 31
0.0
  0
LINE
  5
13F
330
1F
100
AcDbEntity
  8
0
  6
Continuous
 62
     7
370
    15
100
AcDbLine
 10
109.8363790452
 20
149.7612497646
 30
0.0
 11
109.8363790452
 21
149.8862495522
 31
0.0
  0
LINE
  5
140
330
1F
100
AcDbEntity
  8
0
  6
Continuous
 62
     7
370
    15
100
AcDbLine
 10
146.8039732217
 20
159.4096994835
 30
0.0
 11
148.6307903915
 21
159.4096994835
 31
0.0
  0
ARC
  5
141
330
1F
100
AcDbEntity
  8
0
  6
Continuous
 62
     7
370
    15
100
AcDbCircle
 10
108.9664060063
 20
150.2612495794
 30
0.0
 40
0.5000000000000219
100
AcDbArc
 50
208.4777653454
 51
270.0
  0
LINE
  5
142
330
1F
100
AcDbEntity
  8
0
  6
Continuous
 62
     7
370
    15
100
AcDbLine
 10
101.6342770099
 20
161.1158188775
 30
0.0
 11
102.8975304007
 21
162.3073303948
 31
0.0
  0
LINE
  5
143
330
1F
100
AcDbEntity
  8
0
  6
Continuous
 62
     7
370
    15
100
AcDbLine
 10
102.9833014845
 20
162.2163974556
 30
0.0
 11
102.8975304007
 21
162.3073303948
 31
0.0
  0
LINE
  5
144
330
1F
100
AcDbEntity
  8
0
  6
Continuous
 62
     7
370
    15
100
AcDbLine
 10
73.6842136621
 20
162.8124997828
 30
0.0
 11
73.6842136621
 21
162.9374995704
 31
0.0
  0
LINE
  5
145
330
1F
100
AcDbEntity
  8
0
  6
Continuous
 62
     7
370
    15
100
AcDbLine
 10
73.6842136621
 20
162.9374995704
 30
0.0
 11
74.4234006643
 21
162.9374995704
 31
0.0
  0
LINE
  5
146
330
1F
100
AcDbEntity
  8
0
  6
Continuous
 62
     7
370
    15
100
AcDbLine
 10
74.4234006643
 20
162.8124997828
 30
0.0
 11
74.4234006643
 21
162.9374995704
 31
0.0
  0
ARC
  5
147
330
1F
100
AcDbEntity
  8
0
  6
Continuous
 62
     7
370
    15
100
AcDbCircle
 10
73.7264880132
 20
151.6169502419
 30
0.0
 40
0.5000000000000193
100
AcDbArc
 50
195.7811821017
 51
270.4477008264
  0
LINE
  5
148
330
1F
100
AcDbEntity
  8
0
  6
Continuous
 62
     7
370
    15
100
AcDbLine
 10
73.245337212
 20
151.4809680979
 30
0.0
 11
73.3656193852
 21
151.5149637002
 31
0.0
  0
LINE
  5
149
330
1F
100
AcDbEntity
  8
0
  6
Continuous
 62
     7
370
    15
100
AcDbLine
 10
73.7303923606
 20
151.1169653262
 30
0.0
 11
73.7294163346
 21
151.2419618543
 31
0.0
  0
LINE
  5
14A
330
1F
100
AcDbEntity
  8
0
  6
Continuous
 62
     7
370
    15
100
AcDbLine
 10
73.3225624799
 20
162.5366634566
 30
0.0
 11
73.2020120858
 21
162.5697179574
 31
0.0
  0
ARC
  5
14B
330
1F
100
AcDbEntity
  8
0
  6
Continuous
 62
     7
370
    15
100
AcDbCircle
 10
73.6842127045
 20
162.4374995794
 30
0.0
 40
0.5000000000000056
100
AcDbArc
 50
90.0
 51
164.6665187247
  0
LINE
  5
14C
330
1F
100
AcDbEntity
  8
0
  6
Continuous
 62
     7
370
    15
100
AcDbLine
 10
73.245337212
 20
151.4809680979
 30
0.0
 11
72.5275557279
 21
154.0207238744
 31
0.0
  0
LINE
  5
14D
330
1F
100
AcDbEntity
  8
0
  6
Continuous
 62
     7
370
    15
100
AcDbLine
 10
72.5275557279
 20
154.0207238744
 30
0.0
 11
72.6478453516
 21
154.0547192439
 31
0.0
  0
LINE
  5
14E
330
1F
100
AcDbEntity
  8
0
  6
Continuous
 62
     7
370
    15
100
AcDbLine
 10
72.6246516942
 20
159.9913767881
 30
0.0
 11
72.5041013002
 21
160.0244312889
 31
0.0
  0
LINE
  5
14F
330
1F
100
AcDbEntity
  8
0
  6
Continuous
 62
     7
370
    15
100
AcDbLine
 10
72.5041013002
 20
160.0244312889
 30
0.0
 11
73.2020120858
 21
162.5697179574
 31
0.0
  0
ARC
  5
150
330
1F
100
AcDbEntity
  8
0
  6
Continuous
 62
     7
370
    15
100
AcDbCircle
 10
72.0464030931
 20
153.8847416692
 30
0.0
 40
0.5000000000000057
100
AcDbArc
 50
15.7811821017
 51
90.4477008264
  0
LINE
  5
151
330
1F
100
AcDbEntity
  8
0
  6
Continuous
 62
     7
370
    15
100
AcDbLine
 10
72.0424931287
 20
154.3847264133
 30
0.0
 11
72.0415171026
 21
154.5097224756
 31
0.0
  0
LINE
  5
152
330
1F
100
AcDbEntity
  8
0
  6
Continuous
 62
     7
370
    15
100
AcDbLine
 10
72.0218997239
 20
159.5316496554
 30
0.0
 11
72.0218997239
 21
159.6566496759
 31
0.0
  0
ARC
  5
153
330
1F
100
AcDbEntity
  8
0
  6
Continuous
 62
     7
370
    15
100
AcDbCircle
 10
72.0218990837
 20
160.1566495794
 30
0.0
 40
0.5
100
AcDbArc
 50
270.0
 51
344.6665187247
  0
LINE
  5
154
330
1F
100
AcDbEntity
  8
0
  6
Continuous
 62
     7
370
    15
100
AcDbLine
 10
72.0424931287
 20
154.3847264133
 30
0.0
 11
71.1263771891
 21
154.3775678023
 31
0.0
  0
LINE
  5
155
330
1F
100
AcDbEntity
  8
0
  6
Continuous
 62
     7
370
    15
100
AcDbLine
 10
71.1057465314
 20
159.6566496759
 30
0.0
 11
72.0218997239
 21
159.6566496759
 31
0.0
  0
ARC
  5
156
330
1F
100
AcDbEntity
  8
0
  6
Continuous
 62
     7
370
    15
100
AcDbCircle
 10
112.4577812788
 20
151.4837495794
 30
0.0
 40
0.5000000000000029
100
AcDbArc
 50
90.0
 51
135.2284131932
  0
LINE
  5
157
330
1F
100
AcDbEntity
  8
0
  6
Continuous
 62
     7
370
    15
100
AcDbLine
 10
112.1028195857
 20
151.8358904745
 30
0.0
 11
112.0140794455
 21
151.9239260692
 31
0.0
  0
LINE
  5
158
330
1F
100
AcDbEntity
  8
0
  6
Continuous
 62
     7
370
    15
100
AcDbLine
 10
104.4219378173
 20
162.2002352837
 30
0.0
 11
104.5130807697
 21
162.2857800561
 31
0.0
  0
LINE
  5
159
330
1F
100
AcDbEntity
  8
0
  6
Continuous
 62
     7
370
    15
100
AcDbLine
 10
104.5130807697
 20
162.2857800561
 30
0.0
 11
106.1041783332
 21
160.5905690107
 31
0.0
  0
LINE
  5
15A
330
1F
100
AcDbEntity
  8
0
  6
Continuous
 62
     7
370
    15
100
AcDbLine
 10
112.1028195857
 20
151.8358904745
 30
0.0
 11
110.191339606
 21
149.9091083992
 31
0.0
  0
LINE
  5
15B
330
1F
100
AcDbEntity
  8
0
  6
Continuous
 62
     7
370
    15
100
AcDbLine
 10
110.191339606
 20
149.9091083992
 30
0.0
 11
110.1025994658
 21
149.9971435282
 31
0.0
  0
ARC
  5
15C
330
1F
100
AcDbEntity
  8
0
  6
Continuous
 62
     7
370
    15
100
AcDbCircle
 10
104.1485109494
 20
161.9435995794
 30
0.0
 40
0.5000000000000345
100
AcDbArc
 50
43.185402806
 51
90.0
  0
ARC
  5
15D
330
1F
100
AcDbEntity
  8
0
  6
Continuous
 62
     7
370
    15
100
AcDbCircle
 10
109.8363805095
 20
150.2612495794
 30
0.0
 40
0.5000000000000231
100
AcDbArc
 50
270.0
 51
315.2284131933
  0
LINE
  5
15E
330
1F
100
AcDbEntity
  8
0
  6
Continuous
 62
     7
370
    15
100
AcDbLine
 10
74.7492145538
 20
162.6231698196
 30
0.0
 11
74.8578142165
 21
162.6850599299
 31
0.0
  0
LINE
  5
15F
330
1F
100
AcDbEntity
  8
0
  6
Continuous
 62
     7
370
    15
100
AcDbLine
 10
74.8578142165
 20
162.6850599299
 30
0.0
 11
75.5049492954
 21
161.5494894672
 31
0.0
  0
ARC
  5
160
330
1F
100
AcDbEntity
  8
0
  6
Continuous
 62
     7
370
    15
100
AcDbCircle
 10
74.4656553596
 20
151.6227261048
 30
0.0
 40
0.5000000000000129
100
AcDbArc
 50
270.4477008264
 51
330.7700046722
  0
LINE
  5
161
330
1F
100
AcDbEntity
  8
0
  6
Continuous
 62
     7
370
    15
100
AcDbLine
 10
74.4695644616
 20
151.1227413888
 30
0.0
 11
74.4685884356
 21
151.2477374512
 31
0.0
  0
ARC
  5
162
330
1F
100
AcDbEntity
  8
0
  6
Continuous
 62
     7
370
    15
100
AcDbCircle
 10
74.4234026169
 20
162.4374995794
 30
0.0
 40
0.5000000000000158
100
AcDbArc
 50
29.6776961541
 51
90.0
  0
LINE
  5
163
330
1F
100
AcDbEntity
  8
0
  6
Continuous
 62
     7
370
    15
100
AcDbLine
 10
74.4695644616
 20
151.1227413888
 30
0.0
 11
73.7303923606
 21
151.1169653262
 31
0.0
  0
ARC
  5
164
330
1F
100
AcDbEntity
  8
0
  6
Continuous
 62
     7
370
    15
100
AcDbCircle
 10
117.5850153754
 20
166.6531495794
 30
0.0
 40
0.5
100
AcDbArc
 50
64.1074185109
 51
90.0
  0
LINE
  5
165
330
1F
100
AcDbEntity
  8
0
  6
Continuous
 62
     7
370
    15
100
AcDbLine
 10
117.7487727045
 20
166.9905045878
 30
0.0
 11
117.8033593833
 21
167.102957132
 31
0.0
  0
LINE
  5
166
330
1F
100
AcDbEntity
  8
0
  6
Continuous
 62
     7
370
    15
100
AcDbLine
 10
148.6471183389
 20
155.2302734803
 30
0.0
 11
146.8203589111
 21
155.2159990992
 31
0.0
  0
LINE
  5
167
330
1F
100
AcDbEntity
  8
0
  6
Continuous
 62
     7
370
    15
100
AcDbLine
 10
119.3587686657
 20
166.2089908372
 30
0.0
 11
119.4133553445
 21
166.3214424501
 31
0.0
  0
ARC
  5
168
330
1F
100
AcDbEntity
  8
0
  6
Continuous
 62
     7
370
    15
100
AcDbCircle
 10
119.6316964128
 20
166.7712495794
 30
0.0
 40
0.4999999999999898
100
AcDbArc
 50
244.1074185109
 51
270.0
  0
ARC
  5
169
330
1F
100
AcDbEntity
  8
0
  6
Continuous
 62
     7
370
    15
100
AcDbCircle
 10
103.2406061652
 20
161.9435995794
 30
0.0
 40
0.5000000000000284
100
AcDbArc
 50
90.0
 51
133.326005542
  0
LINE
  5
16A
330
1F
100
AcDbEntity
  8
0
  6
Continuous
 62
     7
370
    15
100
AcDbLine
 10
117.8033593833
 20
167.102957132
 30
0.0
 11
119.4133553445
 21
166.3214424501
 31
0.0
  0
LINE
  5
16B
330
1F
100
AcDbEntity
  8
0
  6
Continuous
 62
     7
370
    15
100
AcDbLine
 10
172.3195062741
 20
118.9225152238
 30
0.0
 11
172.3195062741
 21
119.6725152448
 31
0.0
  0
LINE
  5
16C
330
1F
100
AcDbEntity
  8
0
  6
Continuous
 62
     7
370
    15
100
AcDbLine
 10
172.3195062741
 20
119.6725152448
 30
0.0
 11
172.1945060208
 21
119.7975152508
 31
0.0
  0
LINE
  5
16D
330
1F
100
AcDbEntity
  8
0
  6
Continuous
 62
     7
370
    15
100
AcDbLine
 10
172.1945060208
 20
118.7975152033
 30
0.0
 11
172.3195062741
 21
118.9225152238
 31
0.0
  0
LINE
  5
16E
330
1F
100
AcDbEntity
  8
0
  6
Continuous
 62
     7
370
    15
100
AcDbLine
 10
168.4445058718
 20
119.7975152508
 30
0.0
 11
168.3195060841
 21
119.9225152567
 31
0.0
  0
LINE
  5
16F
330
1F
100
AcDbEntity
  8
0
  6
Continuous
 62
     7
370
    15
100
AcDbLine
 10
160.3195057041
 20
119.9225152567
 30
0.0
 11
160.1945059165
 21
119.7975152508
 31
0.0
  0
LINE
  5
170
330
1F
100
AcDbEntity
  8
0
  6
Continuous
 62
     7
370
    15
100
AcDbLine
 10
168.3195060841
 20
119.9225152567
 30
0.0
 11
168.3195060841
 21
121.1725152433
 31
0.0
  0
LINE
  5
171
330
1F
100
AcDbEntity
  8
0
  6
Continuous
 62
     7
370
    15
100
AcDbLine
 10
160.3195057041
 20
121.1725152433
 30
0.0
 11
160.3195057041
 21
119.9225152567
 31
0.0
  0
LINE
  5
172
330
1F
100
AcDbEntity
  8
0
  6
Continuous
 62
     7
370
    15
100
AcDbLine
 10
168.3195060841
 20
121.1725152433
 30
0.0
 11
168.1945058308
 21
121.2975152638
 31
0.0
  0
LINE
  5
173
330
1F
100
AcDbEntity
  8
0
  6
Continuous
 62
     7
370
    15
100
AcDbLine
 10
160.4445059574
 20
121.2975152638
 30
0.0
 11
160.3195057041
 21
121.1725152433
 31
0.0
  0
SPLINE
  5
174
330
1F
100
AcDbEntity
  8
0
  6
Continuous
 62
     7
370
    15
100
AcDbSpline
210
0.0
220
0.0
230
1.0
 70
    24
 71
     3
 72
    15
 73
    11
 74
     0
 42
0.00000001
 43
0.00000001
 12
1.0
 22
0.0
 32
0.0
 13
1.0
 23
0.0
 33
0.0
 40
0.0
 40
0.0
 40
0.0
 40
0.0
 40
0.2193828634092545
 40
0.3274629411265684
 40
0.4355267643739351
 40
0.5444875673170434
 40
0.6555736120685016
 40
0.7685725860818
 40
0.8828712320678107
 40
0.981188681219622
 40
0.981188681219622
 40
0.981188681219622
 40
0.981188681219622
 10
123.9794058941111
 20
118.9225152507842
 30
0.0
 10
125.2023155044483
 20
118.9225152507842
 30
0.0
 10
127.374024689952
 20
118.9225152507842
 30
0.0
 10
130.5079998556859
 20
118.9225152507842
 30
0.0
 10
132.833194743857
 20
118.9225152507842
 30
0.0
 10
135.0093135321422
 20
118.9225152507842
 30
0.0
 10
136.9437080187161
 20
118.9225152507842
 30
0.0
 10
138.5453898430726
 20
118.9225152507842
 30
0.0
 10
139.6325974079435
 20
118.9225152507842
 30
0.0
 10
140.0708716160445
 20
118.9225152507842
 30
0.0
 10
140.2174329787175
 20
118.9225152507842
 30
0.0
  0
LINE
  5
175
330
1F
100
AcDbEntity
  8
0
  6
Continuous
 62
     7
370
    15
100
AcDbLine
 10
123.9794064104
 20
118.9225152238
 30
0.0
 11
123.9794064104
 21
119.6725152448
 31
0.0
  0
SPLINE
  5
176
330
1F
100
AcDbEntity
  8
0
  6
Continuous
 62
     7
370
    15
100
AcDbSpline
210
0.0
220
0.0
230
1.0
 70
    24
 71
     3
 72
    15
 73
    11
 74
     0
 42
0.00000001
 43
0.00000001
 12
1.0
 22
0.0
 32
0.0
 13
1.0
 23
0.0
 33
0.0
 40
0.0
 40
0.0
 40
0.0
 40
0.0
 40
0.0983174491518113
 40
0.212616095137822
 40
0.3256150691511204
 40
0.4367011139025786
 40
0.5456619168456869
 40
0.6537257400930536
 40
0.7618058178103675
 40
0.981188681219622
 40
0.981188681219622
 40
0.981188681219622
 40
0.981188681219622
 10
140.2174329787175
 20
119.6725152507842
 30
0.0
 10
140.0708716160445
 20
119.6725152507842
 30
0.0
 10
139.6325974079435
 20
119.6725152507842
 30
0.0
 10
138.5453898430726
 20
119.6725152507842
 30
0.0
 10
136.9437080187161
 20
119.6725152507842
 30
0.0
 10
135.0093135321422
 20
119.6725152507842
 30
0.0
 10
132.833194743857
 20
119.6725152507842
 30
0.0
 10
130.5079998556859
 20
119.6725152507842
 30
0.0
 10
127.374024689952
 20
119.6725152507842
 30
0.0
 10
125.2023155044483
 20
119.6725152507842
 30
0.0
 10
123.9794058941111
 20
119.6725152507842
 30
0.0
  0
LINE
  5
177
330
1F
100
AcDbEntity
  8
0
  6
Continuous
 62
     7
370
    15
100
AcDbLine
 10
140.2174327313
 20
118.9225152238
 30
0.0
 11
140.2174327313
 21
119.6725152448
 31
0.0
  0
LINE
  5
178
330
1F
100
AcDbEntity
  8
0
  6
Continuous
 62
     7
370
    15
100
AcDbLine
 10
123.9787880122
 20
119.6726231327
 30
0.0
 11
124.0222994029
 21
119.7973632928
 31
0.0
  0
LINE
  5
179
330
1F
100
AcDbEntity
  8
0
  6
Continuous
 62
     7
370
    15
100
AcDbLine
 10
140.2174327313
 20
119.6725152448
 30
0.0
 11
140.0951761543
 21
119.7975152508
 31
0.0
  0
LINE
  5
17A
330
1F
100
AcDbEntity
  8
0
  6
Continuous
 62
     7
370
    15
100
AcDbLine
 10
124.0224223375
 20
118.7973209061
 30
0.0
 11
123.9787544846
 21
118.9225035822
 31
0.0
  0
LINE
  5
17B
330
1F
100
AcDbEntity
  8
0
  6
Continuous
 62
     7
370
    15
100
AcDbLine
 10
140.0951761543
 20
118.7975152033
 30
0.0
 11
140.2174327313
 21
118.9225152238
 31
0.0
  0
LINE
  5
17C
330
1F
100
AcDbEntity
  8
0
  6
Continuous
 62
     7
370
    15
100
AcDbLine
 10
117.8033593833
 20
119.6725152448
 30
0.0
 11
117.5850163936
 21
119.6725152448
 31
0.0
  0
LINE
  5
17D
330
1F
100
AcDbEntity
  8
0
  6
Continuous
 62
     7
370
    15
100
AcDbLine
 10
117.5850163936
 20
119.6725152448
 30
0.0
 11
117.5850163936
 21
119.7975152508
 31
0.0
  0
LINE
  5
17E
330
1F
100
AcDbEntity
  8
0
  6
Continuous
 62
     7
370
    15
100
AcDbLine
 10
117.8033593833
 20
119.6725152448
 30
0.0
 11
117.7487727045
 21
119.7975152508
 31
0.0
  0
LINE
  5
17F
330
1F
100
AcDbEntity
  8
0
  6
Continuous
 62
     7
370
    15
100
AcDbLine
 10
117.5850163936
 20
119.7975152508
 30
0.0
 11
117.7487727045
 21
119.7975152508
 31
0.0
  0
LINE
  5
180
330
1F
100
AcDbEntity
  8
0
  6
Continuous
 62
     7
370
    15
100
AcDbLine
 10
116.0948071419
 20
118.9225152238
 30
0.0
 11
116.5948044299
 21
118.9225152238
 31
0.0
  0
LINE
  5
181
330
1F
100
AcDbEntity
  8
0
  6
Continuous
 62
     7
370
    15
100
AcDbLine
 10
116.0948071419
 20
118.9225152238
 30
0.0
 11
116.0948071419
 21
119.6725152448
 31
0.0
  0
LINE
  5
182
330
1F
100
AcDbEntity
  8
0
  6
Continuous
 62
     7
370
    15
100
AcDbLine
 10
116.5948044299
 20
119.6725152448
 30
0.0
 11
116.0948071419
 21
119.6725152448
 31
0.0
  0
LINE
  5
183
330
1F
100
AcDbEntity
  8
0
  6
Continuous
 62
     7
370
    15
100
AcDbLine
 10
116.5948044299
 20
118.9225152238
 30
0.0
 11
116.5948044299
 21
119.6725152448
 31
0.0
  0
LINE
  5
184
330
1F
100
AcDbEntity
  8
0
  6
Continuous
 62
     7
370
    15
100
AcDbLine
 10
116.0948071419
 20
119.6725152448
 30
0.0
 11
116.2198055326
 21
119.7975152508
 31
0.0
  0
LINE
  5
185
330
1F
100
AcDbEntity
  8
0
  6
Continuous
 62
     7
370
    15
100
AcDbLine
 10
116.5948044299
 20
119.6725152448
 30
0.0
 11
116.5948044299
 21
119.7975152508
 31
0.0
  0
LINE
  5
186
330
1F
100
AcDbEntity
  8
0
  6
Continuous
 62
     7
370
    15
100
AcDbLine
 10
116.2198055326
 20
119.7975152508
 30
0.0
 11
116.5948044299
 21
119.7975152508
 31
0.0
  0
LINE
  5
187
330
1F
100
AcDbEntity
  8
0
  6
Continuous
 62
     7
370
    15
100
AcDbLine
 10
117.5850163936
 20
119.6725152448
 30
0.0
 11
116.5948044299
 21
119.6725152448
 31
0.0
  0
LINE
  5
188
330
1F
100
AcDbEntity
  8
0
  6
Continuous
 62
     7
370
    15
100
AcDbLine
 10
116.5948044299
 20
119.7975152508
 30
0.0
 11
117.5850163936
 21
119.7975152508
 31
0.0
  0
LINE
  5
189
330
1F
100
AcDbEntity
  8
0
  6
Continuous
 62
     7
370
    15
100
AcDbLine
 10
116.5948044299
 20
118.9225152238
 30
0.0
 11
117.5850163936
 21
118.9225152238
 31
0.0
  0
LINE
  5
18A
330
1F
100
AcDbEntity
  8
0
  6
Continuous
 62
     7
370
    15
100
AcDbLine
 10
117.5850163936
 20
118.9225152238
 30
0.0
 11
117.5850163936
 21
119.6725152448
 31
0.0
  0
LINE
  5
18B
330
1F
100
AcDbEntity
  8
0
  6
Continuous
 62
     7
370
    15
100
AcDbLine
 10
117.5850163936
 20
118.9225152238
 30
0.0
 11
117.8033593833
 21
118.9225152238
 31
0.0
  0
LINE
  5
18C
330
1F
100
AcDbEntity
  8
0
  6
Continuous
 62
     7
370
    15
100
AcDbLine
 10
117.8033593833
 20
118.9225152238
 30
0.0
 11
117.8033593833
 21
119.6725152448
 31
0.0
  0
LINE
  5
18D
330
1F
100
AcDbEntity
  8
0
  6
Continuous
 62
     7
370
    15
100
AcDbLine
 10
116.2198055326
 20
118.7975152033
 30
0.0
 11
116.0948071419
 21
118.9225152238
 31
0.0
  0
LINE
  5
18E
330
1F
100
AcDbEntity
  8
0
  6
Continuous
 62
     7
370
    15
100
AcDbLine
 10
116.5948044299
 20
118.7975152033
 30
0.0
 11
116.5948044299
 21
118.9225152238
 31
0.0
  0
LINE
  5
18F
330
1F
100
AcDbEntity
  8
0
  6
Continuous
 62
     7
370
    15
100
AcDbLine
 10
116.5948044299
 20
118.7975152033
 30
0.0
 11
116.2198055326
 21
118.7975152033
 31
0.0
  0
LINE
  5
190
330
1F
100
AcDbEntity
  8
0
  6
Continuous
 62
     7
370
    15
100
AcDbLine
 10
117.5850163936
 20
118.7975152033
 30
0.0
 11
117.5850163936
 21
118.9225152238
 31
0.0
  0
LINE
  5
191
330
1F
100
AcDbEntity
  8
0
  6
Continuous
 62
     7
370
    15
100
AcDbLine
 10
117.7487727045
 20
118.7975152033
 30
0.0
 11
117.8033593833
 21
118.9225152238
 31
0.0
  0
LINE
  5
192
330
1F
100
AcDbEntity
  8
0
  6
Continuous
 62
     7
370
    15
100
AcDbLine
 10
117.7487727045
 20
118.7975152033
 30
0.0
 11
117.5850163936
 21
118.7975152033
 31
0.0
  0
LINE
  5
193
330
1F
100
AcDbEntity
  8
0
  6
Continuous
 62
     7
370
    15
100
AcDbLine
 10
117.5850163936
 20
118.7975152033
 30
0.0
 11
116.5948044299
 21
118.7975152033
 31
0.0
  0
LINE
  5
194
330
1F
100
AcDbEntity
  8
0
  6
Continuous
 62
     7
370
    15
100
AcDbLine
 10
117.8033593833
 20
118.9225152238
 30
0.0
 11
119.4133553445
 21
118.9225152238
 31
0.0
  0
LINE
  5
195
330
1F
100
AcDbEntity
  8
0
  6
Continuous
 62
     7
370
    15
100
AcDbLine
 10
119.4133553445
 20
119.6725152448
 30
0.0
 11
117.8033593833
 21
119.6725152448
 31
0.0
  0
LINE
  5
196
330
1F
100
AcDbEntity
  8
0
  6
Continuous
 62
     7
370
    15
100
AcDbLine
 10
119.4133553445
 20
118.9225152238
 30
0.0
 11
119.4133553445
 21
119.6725152448
 31
0.0
  0
LINE
  5
197
330
1F
100
AcDbEntity
  8
0
  6
Continuous
 62
     7
370
    15
100
AcDbLine
 10
119.4133553445
 20
119.6725152448
 30
0.0
 11
119.3587686657
 21
119.7975152508
 31
0.0
  0
LINE
  5
198
330
1F
100
AcDbEntity
  8
0
  6
Continuous
 62
     7
370
    15
100
AcDbLine
 10
117.7487727045
 20
119.7975152508
 30
0.0
 11
119.3587686657
 21
119.7975152508
 31
0.0
  0
LINE
  5
199
330
1F
100
AcDbEntity
  8
0
  6
Continuous
 62
     7
370
    15
100
AcDbLine
 10
119.3587686657
 20
118.7975152033
 30
0.0
 11
119.4133553445
 21
118.9225152238
 31
0.0
  0
LINE
  5
19A
330
1F
100
AcDbEntity
  8
0
  6
Continuous
 62
     7
370
    15
100
AcDbLine
 10
119.3587686657
 20
118.7975152033
 30
0.0
 11
117.7487727045
 21
118.7975152033
 31
0.0
  0
LINE
  5
19B
330
1F
100
AcDbEntity
  8
0
  6
Continuous
 62
     7
370
    15
100
AcDbLine
 10
119.6316946089
 20
118.9225152238
 30
0.0
 11
123.9794064104
 21
118.9225152238
 31
0.0
  0
LINE
  5
19C
330
1F
100
AcDbEntity
  8
0
  6
Continuous
 62
     7
370
    15
100
AcDbLine
 10
119.6316946089
 20
118.9225152238
 30
0.0
 11
119.6316946089
 21
119.6725152448
 31
0.0
  0
LINE
  5
19D
330
1F
100
AcDbEntity
  8
0
  6
Continuous
 62
     7
370
    15
100
AcDbLine
 10
123.9794064104
 20
119.6725152448
 30
0.0
 11
119.6316946089
 21
119.6725152448
 31
0.0
  0
LINE
  5
19E
330
1F
100
AcDbEntity
  8
0
  6
Continuous
 62
     7
370
    15
100
AcDbLine
 10
119.6316946089
 20
118.7975152033
 30
0.0
 11
119.6316946089
 21
118.9225152238
 31
0.0
  0
LINE
  5
19F
330
1F
100
AcDbEntity
  8
0
  6
Continuous
 62
     7
370
    15
100
AcDbLine
 10
124.0235361993
 20
118.7975152033
 30
0.0
 11
119.6316946089
 21
118.7975152033
 31
0.0
  0
LINE
  5
1A0
330
1F
100
AcDbEntity
  8
0
  6
Continuous
 62
     7
370
    15
100
AcDbLine
 10
119.6316946089
 20
119.6725152448
 30
0.0
 11
119.4133553445
 21
119.6725152448
 31
0.0
  0
LINE
  5
1A1
330
1F
100
AcDbEntity
  8
0
  6
Continuous
 62
     7
370
    15
100
AcDbLine
 10
119.6316946089
 20
119.6725152448
 30
0.0
 11
119.6316946089
 21
119.7975152508
 31
0.0
  0
LINE
  5
1A2
330
1F
100
AcDbEntity
  8
0
  6
Continuous
 62
     7
370
    15
100
AcDbLine
 10
119.3587686657
 20
119.7975152508
 30
0.0
 11
119.6316946089
 21
119.7975152508
 31
0.0
  0
LINE
  5
1A3
330
1F
100
AcDbEntity
  8
0
  6
Continuous
 62
     7
370
    15
100
AcDbLine
 10
119.4133553445
 20
118.9225152238
 30
0.0
 11
119.6316946089
 21
118.9225152238
 31
0.0
  0
LINE
  5
1A4
330
1F
100
AcDbEntity
  8
0
  6
Continuous
 62
     7
370
    15
100
AcDbLine
 10
119.6316946089
 20
118.7975152033
 30
0.0
 11
119.3587686657
 21
118.7975152033
 31
0.0
  0
LINE
  5
1A5
330
1F
100
AcDbEntity
  8
0
  6
Continuous
 62
     7
370
    15
100
AcDbLine
 10
119.6316946089
 20
119.7975152508
 30
0.0
 11
124.0230779886
 21
119.7975152508
 31
0.0
  0
LINE
  5
1A6
330
1F
100
AcDbEntity
  8
0
  6
Continuous
 62
     7
370
    15
100
AcDbLine
 10
156.6901649139
 20
118.9225152238
 30
0.0
 11
172.3195062741
 21
118.9225152238
 31
0.0
  0
LINE
  5
1A7
330
1F
100
AcDbEntity
  8
0
  6
Continuous
 62
     7
370
    15
100
AcDbLine
 10
156.6901649139
 20
118.9225152238
 30
0.0
 11
156.6901649139
 21
119.6725152448
 31
0.0
  0
LINE
  5
1A8
330
1F
100
AcDbEntity
  8
0
  6
Continuous
 62
     7
370
    15
100
AcDbLine
 10
172.3195062741
 20
119.6725152448
 30
0.0
 11
156.6901649139
 21
119.6725152448
 31
0.0
  0
LINE
  5
1A9
330
1F
100
AcDbEntity
  8
0
  6
Continuous
 62
     7
370
    15
100
AcDbLine
 10
156.8093732721
 20
119.7975152508
 30
0.0
 11
156.6901649139
 21
119.6725152448
 31
0.0
  0
LINE
  5
1AA
330
1F
100
AcDbEntity
  8
0
  6
Continuous
 62
     7
370
    15
100
AcDbLine
 10
156.8093732721
 20
119.7975152508
 30
0.0
 11
172.1945060208
 21
119.7975152508
 31
0.0
  0
LINE
  5
1AB
330
1F
100
AcDbEntity
  8
0
  6
Continuous
 62
     7
370
    15
100
AcDbLine
 10
156.6901649139
 20
118.9225152238
 30
0.0
 11
156.8093732721
 21
118.7975152033
 31
0.0
  0
LINE
  5
1AC
330
1F
100
AcDbEntity
  8
0
  6
Continuous
 62
     7
370
    15
100
AcDbLine
 10
172.1945060208
 20
118.7975152033
 30
0.0
 11
156.8093732721
 21
118.7975152033
 31
0.0
  0
SPLINE
  5
1AD
330
1F
100
AcDbEntity
  8
0
  6
Continuous
 62
     7
370
    15
100
AcDbSpline
210
0.0
220
0.0
230
1.0
 70
    24
 71
     3
 72
    19
 73
    15
 74
     0
 42
0.00000001
 43
0.00000001
 12
1.0
 22
0.0
 32
0.0
 13
1.0
 23
0.0
 33
0.0
 40
0.0
 40
0.0
 40
0.0
 40
0.0
 40
0.0730757249678488
 40
0.0841650129619904
 40
0.1108928799414169
 40
0.1414499007582742
 40
0.1640996603878332
 40
0.1872478400716778
 40
0.2475235580527859
 40
0.448219115393004
 40
0.5704527973257602
 40
0.6920232155937704
 40
0.8356474575456094
 40
0.9891311222631363
 40
0.9891311222631363
 40
0.9891311222631363
 40
0.9891311222631363
 10
81.18745589411111
 20
118.9225152507842
 30
0.0
 10
82.07896921885943
 20
118.9225152507842
 30
0.0
 10
82.37949003136738
 20
118.9225152507842
 30
0.0
 10
82.84359947638761
 20
118.9225152507842
 30
0.0
 10
83.06424941522175
 20
118.9225152507842
 30
0.0
 10
83.35594436576424
 20
118.9225152507842
 30
0.0
 10
83.89740141612806
 20
118.9225152507842
 30
0.0
 10
84.74371964613894
 20
118.9225152507842
 30
0.0
 10
85.58897977614474
 20
118.9225152507842
 30
0.0
 10
87.77162692056473
 20
118.9225152507842
 30
0.0
 10
91.0819891954418
 20
118.9225152507842
 30
0.0
 10
94.16473518862412
 20
118.9225152507842
 30
0.0
 10
97.26138054781858
 20
118.9225152507842
 30
0.0
 10
98.99497705620253
 20
118.9225152507842
 30
0.0
 10
99.68767629999456
 20
118.9225152507842
 30
0.0
  0
LINE
  5
1AE
330
1F
100
AcDbEntity
  8
0
  6
Continuous
 62
     7
370
    15
100
AcDbLine
 10
81.1874549627
 20
118.9225152238
 30
0.0
 11
81.1874549627
 21
119.6725152448
 31
0.0
  0
SPLINE
  5
1AF
330
1F
100
AcDbEntity
  8
0
  6
Continuous
 62
     7
370
    15
100
AcDbSpline
210
0.0
220
0.0
230
1.0
 70
    24
 71
     3
 72
    19
 73
    15
 74
     0
 42
0.00000001
 43
0.00000001
 12
1.0
 22
0.0
 32
0.0
 13
1.0
 23
0.0
 33
0.0
 40
0.0
 40
0.0
 40
0.0
 40
0.0
 40
0.1534836647175268
 40
0.2971079066693658
 40
0.4186783249373761
 40
0.5409120068701323
 40
0.7416075642103503
 40
0.8018832821914584
 40
0.8250314618753031
 40
0.847681221504862
 40
0.8782382423217193
 40
0.9049661093011458
 40
0.9160553972952875
 40
0.9891311222631363
 40
0.9891311222631363
 40
0.9891311222631363
 40
0.9891311222631363
 10
99.68767629999456
 20
119.6725152507842
 30
0.0
 10
98.99497705620253
 20
119.6725152507842
 30
0.0
 10
97.26138054781858
 20
119.6725152507842
 30
0.0
 10
94.16473518862412
 20
119.6725152507842
 30
0.0
 10
91.0819891954418
 20
119.6725152507842
 30
0.0
 10
87.77162692056473
 20
119.6725152507842
 30
0.0
 10
85.58897977614474
 20
119.6725152507842
 30
0.0
 10
84.74371964613894
 20
119.6725152507842
 30
0.0
 10
83.89740141612806
 20
119.6725152507842
 30
0.0
 10
83.35594436576424
 20
119.6725152507842
 30
0.0
 10
83.06424941522175
 20
119.6725152507842
 30
0.0
 10
82.84359947638761
 20
119.6725152507842
 30
0.0
 10
82.37949003136738
 20
119.6725152507842
 30
0.0
 10
82.07896921885943
 20
119.6725152507842
 30
0.0
 10
81.18745589411111
 20
119.6725152507842
 30
0.0
  0
LINE
  5
1B0
330
1F
100
AcDbEntity
  8
0
  6
Continuous
 62
     7
370
    15
100
AcDbLine
 10
99.6876787185
 20
118.9225152238
 30
0.0
 11
99.6876787185
 21
119.6725152448
 31
0.0
  0
LINE
  5
1B1
330
1F
100
AcDbEntity
  8
0
  6
Continuous
 62
     7
370
    15
100
AcDbLine
 10
81.1874549627
 20
119.6725152448
 30
0.0
 11
81.1874549627
 21
119.7975152508
 31
0.0
  0
LINE
  5
1B2
330
1F
100
AcDbEntity
  8
0
  6
Continuous
 62
     7
370
    15
100
AcDbLine
 10
99.6876787185
 20
119.6725152448
 30
0.0
 11
99.5846893429
 21
119.7975152508
 31
0.0
  0
LINE
  5
1B3
330
1F
100
AcDbEntity
  8
0
  6
Continuous
 62
     7
370
    15
100
AcDbLine
 10
81.1874549627
 20
118.7975152033
 30
0.0
 11
81.1874549627
 21
118.9225152238
 31
0.0
  0
LINE
  5
1B4
330
1F
100
AcDbEntity
  8
0
  6
Continuous
 62
     7
370
    15
100
AcDbLine
 10
99.5846893429
 20
118.7975152033
 30
0.0
 11
99.6876787185
 21
118.9225152238
 31
0.0
  0
LINE
  5
1B5
330
1F
100
AcDbEntity
  8
0
  6
Continuous
 62
     7
370
    15
100
AcDbLine
 10
113.9166485309
 20
119.6725152448
 30
0.0
 11
112.4469917058
 21
119.6725152448
 31
0.0
  0
LINE
  5
1B6
330
1F
100
AcDbEntity
  8
0
  6
Continuous
 62
     7
370
    15
100
AcDbLine
 10
112.4469917058
 20
119.6725152448
 30
0.0
 11
112.4469917058
 21
119.7975152508
 31
0.0
  0
LINE
  5
1B7
330
1F
100
AcDbEntity
  8
0
  6
Continuous
 62
     7
370
    15
100
AcDbLine
 10
113.9166485309
 20
119.6725152448
 30
0.0
 11
113.9166485309
 21
119.7975152508
 31
0.0
  0
LINE
  5
1B8
330
1F
100
AcDbEntity
  8
0
  6
Continuous
 62
     7
370
    15
100
AcDbLine
 10
112.4469917058
 20
119.7975152508
 30
0.0
 11
113.9166485309
 21
119.7975152508
 31
0.0
  0
LINE
  5
1B9
330
1F
100
AcDbEntity
  8
0
  6
Continuous
 62
     7
370
    15
100
AcDbLine
 10
114.2420377373
 20
119.6725152448
 30
0.0
 11
113.9166485309
 21
119.6725152448
 31
0.0
  0
LINE
  5
1BA
330
1F
100
AcDbEntity
  8
0
  6
Continuous
 62
     7
370
    15
100
AcDbLine
 10
114.2420377373
 20
119.6725152448
 30
0.0
 11
114.1606922983
 21
119.7975152508
 31
0.0
  0
LINE
  5
1BB
330
1F
100
AcDbEntity
  8
0
  6
Continuous
 62
     7
370
    15
100
AcDbLine
 10
113.9166485309
 20
119.7975152508
 30
0.0
 11
114.1606922983
 21
119.7975152508
 31
0.0
  0
LINE
  5
1BC
330
1F
100
AcDbEntity
  8
0
  6
Continuous
 62
     7
370
    15
100
AcDbLine
 10
113.9166485309
 20
118.9225152238
 30
0.0
 11
114.2420377373
 21
118.9225152238
 31
0.0
  0
LINE
  5
1BD
330
1F
100
AcDbEntity
  8
0
  6
Continuous
 62
     7
370
    15
100
AcDbLine
 10
113.9166485309
 20
118.9225152238
 30
0.0
 11
113.9166485309
 21
119.6725152448
 31
0.0
  0
LINE
  5
1BE
330
1F
100
AcDbEntity
  8
0
  6
Continuous
 62
     7
370
    15
100
AcDbLine
 10
114.2420377373
 20
118.9225152238
 30
0.0
 11
114.2420377373
 21
119.6725152448
 31
0.0
  0
LINE
  5
1BF
330
1F
100
AcDbEntity
  8
0
  6
Continuous
 62
     7
370
    15
100
AcDbLine
 10
112.4469917058
 20
119.6725152448
 30
0.0
 11
112.1053229808
 21
119.6725152448
 31
0.0
  0
LINE
  5
1C0
330
1F
100
AcDbEntity
  8
0
  6
Continuous
 62
     7
370
    15
100
AcDbLine
 10
112.1053229808
 20
119.6725152448
 30
0.0
 11
112.1907401621
 21
119.7975152508
 31
0.0
  0
LINE
  5
1C1
330
1F
100
AcDbEntity
  8
0
  6
Continuous
 62
     7
370
    15
100
AcDbLine
 10
112.1907401621
 20
119.7975152508
 30
0.0
 11
112.4469917058
 21
119.7975152508
 31
0.0
  0
LINE
  5
1C2
330
1F
100
AcDbEntity
  8
0
  6
Continuous
 62
     7
370
    15
100
AcDbLine
 10
112.4469917058
 20
118.9225152238
 30
0.0
 11
113.9166485309
 21
118.9225152238
 31
0.0
  0
LINE
  5
1C3
330
1F
100
AcDbEntity
  8
0
  6
Continuous
 62
     7
370
    15
100
AcDbLine
 10
112.4469917058
 20
118.9225152238
 30
0.0
 11
112.4469917058
 21
119.6725152448
 31
0.0
  0
LINE
  5
1C4
330
1F
100
AcDbEntity
  8
0
  6
Continuous
 62
     7
370
    15
100
AcDbLine
 10
112.1053229808
 20
118.9225152238
 30
0.0
 11
112.4469917058
 21
118.9225152238
 31
0.0
  0
LINE
  5
1C5
330
1F
100
AcDbEntity
  8
0
  6
Continuous
 62
     7
370
    15
100
AcDbLine
 10
112.1053229808
 20
118.9225152238
 30
0.0
 11
112.1053229808
 21
119.6725152448
 31
0.0
  0
LINE
  5
1C6
330
1F
100
AcDbEntity
  8
0
  6
Continuous
 62
     7
370
    15
100
AcDbLine
 10
112.4469917058
 20
118.7975152033
 30
0.0
 11
112.4469917058
 21
118.9225152238
 31
0.0
  0
LINE
  5
1C7
330
1F
100
AcDbEntity
  8
0
  6
Continuous
 62
     7
370
    15
100
AcDbLine
 10
113.9166485309
 20
118.7975152033
 30
0.0
 11
113.9166485309
 21
118.9225152238
 31
0.0
  0
LINE
  5
1C8
330
1F
100
AcDbEntity
  8
0
  6
Continuous
 62
     7
370
    15
100
AcDbLine
 10
113.9166485309
 20
118.7975152033
 30
0.0
 11
112.4469917058
 21
118.7975152033
 31
0.0
  0
LINE
  5
1C9
330
1F
100
AcDbEntity
  8
0
  6
Continuous
 62
     7
370
    15
100
AcDbLine
 10
114.1606922983
 20
118.7975152033
 30
0.0
 11
114.2420377373
 21
118.9225152238
 31
0.0
  0
LINE
  5
1CA
330
1F
100
AcDbEntity
  8
0
  6
Continuous
 62
     7
370
    15
100
AcDbLine
 10
114.1606922983
 20
118.7975152033
 30
0.0
 11
113.9166485309
 21
118.7975152033
 31
0.0
  0
LINE
  5
1CB
330
1F
100
AcDbEntity
  8
0
  6
Continuous
 62
     7
370
    15
100
AcDbLine
 10
112.1907401621
 20
118.7975152033
 30
0.0
 11
112.1053229808
 21
118.9225152238
 31
0.0
  0
LINE
  5
1CC
330
1F
100
AcDbEntity
  8
0
  6
Continuous
 62
     7
370
    15
100
AcDbLine
 10
112.4469917058
 20
118.7975152033
 30
0.0
 11
112.1907401621
 21
118.7975152033
 31
0.0
  0
LINE
  5
1CD
330
1F
100
AcDbEntity
  8
0
  6
Continuous
 62
     7
370
    15
100
AcDbLine
 10
114.9489749014
 20
119.6725152448
 30
0.0
 11
114.2420377373
 21
119.6725152448
 31
0.0
  0
LINE
  5
1CE
330
1F
100
AcDbEntity
  8
0
  6
Continuous
 62
     7
370
    15
100
AcDbLine
 10
114.9489749014
 20
119.6725152448
 30
0.0
 11
114.8676257371
 21
119.7975152508
 31
0.0
  0
LINE
  5
1CF
330
1F
100
AcDbEntity
  8
0
  6
Continuous
 62
     7
370
    15
100
AcDbLine
 10
114.1606922983
 20
119.7975152508
 30
0.0
 11
114.8676257371
 21
119.7975152508
 31
0.0
  0
LINE
  5
1D0
330
1F
100
AcDbEntity
  8
0
  6
Continuous
 62
     7
370
    15
100
AcDbLine
 10
114.2420377373
 20
118.9225152238
 30
0.0
 11
114.9489749014
 21
118.9225152238
 31
0.0
  0
LINE
  5
1D1
330
1F
100
AcDbEntity
  8
0
  6
Continuous
 62
     7
370
    15
100
AcDbLine
 10
114.9489749014
 20
118.9225152238
 30
0.0
 11
114.9489749014
 21
119.6725152448
 31
0.0
  0
LINE
  5
1D2
330
1F
100
AcDbEntity
  8
0
  6
Continuous
 62
     7
370
    15
100
AcDbLine
 10
114.8676257371
 20
118.7975152033
 30
0.0
 11
114.9489749014
 21
118.9225152238
 31
0.0
  0
LINE
  5
1D3
330
1F
100
AcDbEntity
  8
0
  6
Continuous
 62
     7
370
    15
100
AcDbLine
 10
114.8676257371
 20
118.7975152033
 30
0.0
 11
114.1606922983
 21
118.7975152033
 31
0.0
  0
LINE
  5
1D4
330
1F
100
AcDbEntity
  8
0
  6
Continuous
 62
     7
370
    15
100
AcDbLine
 10
112.1053229808
 20
119.6725152448
 30
0.0
 11
108.8129896461
 21
119.6725152448
 31
0.0
  0
LINE
  5
1D5
330
1F
100
AcDbEntity
  8
0
  6
Continuous
 62
     7
370
    15
100
AcDbLine
 10
108.8129896461
 20
119.6725152448
 30
0.0
 11
108.8984068274
 21
119.7975152508
 31
0.0
  0
LINE
  5
1D6
330
1F
100
AcDbEntity
  8
0
  6
Continuous
 62
     7
370
    15
100
AcDbLine
 10
108.8984068274
 20
119.7975152508
 30
0.0
 11
112.1907401621
 21
119.7975152508
 31
0.0
  0
LINE
  5
1D7
330
1F
100
AcDbEntity
  8
0
  6
Continuous
 62
     7
370
    15
100
AcDbLine
 10
108.8129896461
 20
118.9225152238
 30
0.0
 11
112.1053229808
 21
118.9225152238
 31
0.0
  0
LINE
  5
1D8
330
1F
100
AcDbEntity
  8
0
  6
Continuous
 62
     7
370
    15
100
AcDbLine
 10
108.8129896461
 20
118.9225152238
 30
0.0
 11
108.8129896461
 21
119.6725152448
 31
0.0
  0
LINE
  5
1D9
330
1F
100
AcDbEntity
  8
0
  6
Continuous
 62
     7
370
    15
100
AcDbLine
 10
108.8984068274
 20
118.7975152033
 30
0.0
 11
108.8129896461
 21
118.9225152238
 31
0.0
  0
LINE
  5
1DA
330
1F
100
AcDbEntity
  8
0
  6
Continuous
 62
     7
370
    15
100
AcDbLine
 10
112.1907401621
 20
118.7975152033
 30
0.0
 11
108.8984068274
 21
118.7975152033
 31
0.0
  0
LINE
  5
1DB
330
1F
100
AcDbEntity
  8
0
  6
Continuous
 62
     7
370
    15
100
AcDbLine
 10
116.0948071419
 20
119.6725152448
 30
0.0
 11
115.5948061287
 21
119.6725152448
 31
0.0
  0
LINE
  5
1DC
330
1F
100
AcDbEntity
  8
0
  6
Continuous
 62
     7
370
    15
100
AcDbLine
 10
115.5948061287
 20
119.6725152448
 30
0.0
 11
115.5948061287
 21
119.7975152508
 31
0.0
  0
LINE
  5
1DD
330
1F
100
AcDbEntity
  8
0
  6
Continuous
 62
     7
370
    15
100
AcDbLine
 10
115.5948061287
 20
119.7975152508
 30
0.0
 11
116.2198055326
 21
119.7975152508
 31
0.0
  0
LINE
  5
1DE
330
1F
100
AcDbEntity
  8
0
  6
Continuous
 62
     7
370
    15
100
AcDbLine
 10
115.5948061287
 20
118.9225152238
 30
0.0
 11
116.0948071419
 21
118.9225152238
 31
0.0
  0
LINE
  5
1DF
330
1F
100
AcDbEntity
  8
0
  6
Continuous
 62
     7
370
    15
100
AcDbLine
 10
115.5948061287
 20
118.9225152238
 30
0.0
 11
115.5948061287
 21
119.6725152448
 31
0.0
  0
LINE
  5
1E0
330
1F
100
AcDbEntity
  8
0
  6
Continuous
 62
     7
370
    15
100
AcDbLine
 10
115.5948061287
 20
118.7975152033
 30
0.0
 11
115.5948061287
 21
118.9225152238
 31
0.0
  0
LINE
  5
1E1
330
1F
100
AcDbEntity
  8
0
  6
Continuous
 62
     7
370
    15
100
AcDbLine
 10
116.2198055326
 20
118.7975152033
 30
0.0
 11
115.5948061287
 21
118.7975152033
 31
0.0
  0
LINE
  5
1E2
330
1F
100
AcDbEntity
  8
0
  6
Continuous
 62
     7
370
    15
100
AcDbLine
 10
115.2743603825
 20
119.6725152448
 30
0.0
 11
114.9489749014
 21
119.6725152448
 31
0.0
  0
LINE
  5
1E3
330
1F
100
AcDbEntity
  8
0
  6
Continuous
 62
     7
370
    15
100
AcDbLine
 10
115.2743603825
 20
119.6725152448
 30
0.0
 11
115.2743603825
 21
119.7975152508
 31
0.0
  0
LINE
  5
1E4
330
1F
100
AcDbEntity
  8
0
  6
Continuous
 62
     7
370
    15
100
AcDbLine
 10
114.8676257371
 20
119.7975152508
 30
0.0
 11
115.2743603825
 21
119.7975152508
 31
0.0
  0
LINE
  5
1E5
330
1F
100
AcDbEntity
  8
0
  6
Continuous
 62
     7
370
    15
100
AcDbLine
 10
114.9489749014
 20
118.9225152238
 30
0.0
 11
115.2743603825
 21
118.9225152238
 31
0.0
  0
LINE
  5
1E6
330
1F
100
AcDbEntity
  8
0
  6
Continuous
 62
     7
370
    15
100
AcDbLine
 10
115.2743603825
 20
118.9225152238
 30
0.0
 11
115.2743603825
 21
119.6725152448
 31
0.0
  0
LINE
  5
1E7
330
1F
100
AcDbEntity
  8
0
  6
Continuous
 62
     7
370
    15
100
AcDbLine
 10
115.2743603825
 20
118.7975152033
 30
0.0
 11
115.2743603825
 21
118.9225152238
 31
0.0
  0
LINE
  5
1E8
330
1F
100
AcDbEntity
  8
0
  6
Continuous
 62
     7
370
    15
100
AcDbLine
 10
115.2743603825
 20
118.7975152033
 30
0.0
 11
114.8676257371
 21
118.7975152033
 31
0.0
  0
LINE
  5
1E9
330
1F
100
AcDbEntity
  8
0
  6
Continuous
 62
     7
370
    15
100
AcDbLine
 10
115.5948061287
 20
119.6725152448
 30
0.0
 11
115.2743603825
 21
119.6725152448
 31
0.0
  0
LINE
  5
1EA
330
1F
100
AcDbEntity
  8
0
  6
Continuous
 62
     7
370
    15
100
AcDbLine
 10
115.2743603825
 20
119.7975152508
 30
0.0
 11
115.5948061287
 21
119.7975152508
 31
0.0
  0
LINE
  5
1EB
330
1F
100
AcDbEntity
  8
0
  6
Continuous
 62
     7
370
    15
100
AcDbLine
 10
115.2743603825
 20
118.9225152238
 30
0.0
 11
115.5948061287
 21
118.9225152238
 31
0.0
  0
LINE
  5
1EC
330
1F
100
AcDbEntity
  8
0
  6
Continuous
 62
     7
370
    15
100
AcDbLine
 10
115.5948061287
 20
118.7975152033
 30
0.0
 11
115.2743603825
 21
118.7975152033
 31
0.0
  0
LINE
  5
1ED
330
1F
100
AcDbEntity
  8
0
  6
Continuous
 62
     7
370
    15
100
AcDbLine
 10
74.4234006643
 20
119.6725152448
 30
0.0
 11
73.6842136621
 21
119.6725152448
 31
0.0
  0
LINE
  5
1EE
330
1F
100
AcDbEntity
  8
0
  6
Continuous
 62
     7
370
    15
100
AcDbLine
 10
73.6842136621
 20
119.6725152448
 30
0.0
 11
73.6842136621
 21
119.7975152508
 31
0.0
  0
LINE
  5
1EF
330
1F
100
AcDbEntity
  8
0
  6
Continuous
 62
     7
370
    15
100
AcDbLine
 10
74.4234006643
 20
119.6725152448
 30
0.0
 11
74.4234006643
 21
119.7975152508
 31
0.0
  0
LINE
  5
1F0
330
1F
100
AcDbEntity
  8
0
  6
Continuous
 62
     7
370
    15
100
AcDbLine
 10
73.6842136621
 20
119.7975152508
 30
0.0
 11
74.4234006643
 21
119.7975152508
 31
0.0
  0
LINE
  5
1F1
330
1F
100
AcDbEntity
  8
0
  6
Continuous
 62
     7
370
    15
100
AcDbLine
 10
73.6842136621
 20
119.6725152448
 30
0.0
 11
73.2020120858
 21
119.6725152448
 31
0.0
  0
LINE
  5
1F2
330
1F
100
AcDbEntity
  8
0
  6
Continuous
 62
     7
370
    15
100
AcDbLine
 10
73.2020120858
 20
119.6725152448
 30
0.0
 11
73.3225624799
 21
119.7975152508
 31
0.0
  0
LINE
  5
1F3
330
1F
100
AcDbEntity
  8
0
  6
Continuous
 62
     7
370
    15
100
AcDbLine
 10
73.3225624799
 20
119.7975152508
 30
0.0
 11
73.6842136621
 21
119.7975152508
 31
0.0
  0
LINE
  5
1F4
330
1F
100
AcDbEntity
  8
0
  6
Continuous
 62
     7
370
    15
100
AcDbLine
 10
73.2020120858
 20
118.9225152238
 30
0.0
 11
73.6842136621
 21
118.9225152238
 31
0.0
  0
LINE
  5
1F5
330
1F
100
AcDbEntity
  8
0
  6
Continuous
 62
     7
370
    15
100
AcDbLine
 10
73.2020120858
 20
118.9225152238
 30
0.0
 11
73.2020120858
 21
119.6725152448
 31
0.0
  0
LINE
  5
1F6
330
1F
100
AcDbEntity
  8
0
  6
Continuous
 62
     7
370
    15
100
AcDbLine
 10
73.6842136621
 20
118.9225152238
 30
0.0
 11
73.6842136621
 21
119.6725152448
 31
0.0
  0
LINE
  5
1F7
330
1F
100
AcDbEntity
  8
0
  6
Continuous
 62
     7
370
    15
100
AcDbLine
 10
73.6842136621
 20
118.9225152238
 30
0.0
 11
74.4234006643
 21
118.9225152238
 31
0.0
  0
LINE
  5
1F8
330
1F
100
AcDbEntity
  8
0
  6
Continuous
 62
     7
370
    15
100
AcDbLine
 10
74.4234006643
 20
118.9225152238
 30
0.0
 11
74.4234006643
 21
119.6725152448
 31
0.0
  0
LINE
  5
1F9
330
1F
100
AcDbEntity
  8
0
  6
Continuous
 62
     7
370
    15
100
AcDbLine
 10
74.8578142165
 20
119.6725152448
 30
0.0
 11
74.4234006643
 21
119.6725152448
 31
0.0
  0
LINE
  5
1FA
330
1F
100
AcDbEntity
  8
0
  6
Continuous
 62
     7
370
    15
100
AcDbLine
 10
74.8578142165
 20
119.6725152448
 30
0.0
 11
74.7492145538
 21
119.7975152508
 31
0.0
  0
LINE
  5
1FB
330
1F
100
AcDbEntity
  8
0
  6
Continuous
 62
     7
370
    15
100
AcDbLine
 10
74.4234006643
 20
119.7975152508
 30
0.0
 11
74.7492145538
 21
119.7975152508
 31
0.0
  0
LINE
  5
1FC
330
1F
100
AcDbEntity
  8
0
  6
Continuous
 62
     7
370
    15
100
AcDbLine
 10
74.4234006643
 20
118.9225152238
 30
0.0
 11
74.8578142165
 21
118.9225152238
 31
0.0
  0
LINE
  5
1FD
330
1F
100
AcDbEntity
  8
0
  6
Continuous
 62
     7
370
    15
100
AcDbLine
 10
74.8578142165
 20
118.9225152238
 30
0.0
 11
74.8578142165
 21
119.6725152448
 31
0.0
  0
LINE
  5
1FE
330
1F
100
AcDbEntity
  8
0
  6
Continuous
 62
     7
370
    15
100
AcDbLine
 10
73.3225624799
 20
118.7975152033
 30
0.0
 11
73.2020120858
 21
118.9225152238
 31
0.0
  0
LINE
  5
1FF
330
1F
100
AcDbEntity
  8
0
  6
Continuous
 62
     7
370
    15
100
AcDbLine
 10
73.6842136621
 20
118.7975152033
 30
0.0
 11
73.6842136621
 21
118.9225152238
 31
0.0
  0
LINE
  5
200
330
1F
100
AcDbEntity
  8
0
  6
Continuous
 62
     7
370
    15
100
AcDbLine
 10
73.6842136621
 20
118.7975152033
 30
0.0
 11
73.3225624799
 21
118.7975152033
 31
0.0
  0
LINE
  5
201
330
1F
100
AcDbEntity
  8
0
  6
Continuous
 62
     7
370
    15
100
AcDbLine
 10
74.4234006643
 20
118.7975152033
 30
0.0
 11
74.4234006643
 21
118.9225152238
 31
0.0
  0
LINE
  5
202
330
1F
100
AcDbEntity
  8
0
  6
Continuous
 62
     7
370
    15
100
AcDbLine
 10
74.4234006643
 20
118.7975152033
 30
0.0
 11
73.6842136621
 21
118.7975152033
 31
0.0
  0
LINE
  5
203
330
1F
100
AcDbEntity
  8
0
  6
Continuous
 62
     7
370
    15
100
AcDbLine
 10
74.7492145538
 20
118.7975152033
 30
0.0
 11
74.8578142165
 21
118.9225152238
 31
0.0
  0
LINE
  5
204
330
1F
100
AcDbEntity
  8
0
  6
Continuous
 62
     7
370
    15
100
AcDbLine
 10
74.7492145538
 20
118.7975152033
 30
0.0
 11
74.4234006643
 21
118.7975152033
 31
0.0
  0
LINE
  5
205
330
1F
100
AcDbEntity
  8
0
  6
Continuous
 62
     7
370
    15
100
AcDbLine
 10
75.5049492954
 20
119.6725152448
 30
0.0
 11
74.8578142165
 21
119.6725152448
 31
0.0
  0
LINE
  5
206
330
1F
100
AcDbEntity
  8
0
  6
Continuous
 62
     7
370
    15
100
AcDbLine
 10
75.5049492954
 20
119.6725152448
 30
0.0
 11
75.3963421821
 21
119.7975152508
 31
0.0
  0
LINE
  5
207
330
1F
100
AcDbEntity
  8
0
  6
Continuous
 62
     7
370
    15
100
AcDbLine
 10
74.7492145538
 20
119.7975152508
 30
0.0
 11
75.3963421821
 21
119.7975152508
 31
0.0
  0
LINE
  5
208
330
1F
100
AcDbEntity
  8
0
  6
Continuous
 62
     7
370
    15
100
AcDbLine
 10
74.8578142165
 20
118.9225152238
 30
0.0
 11
75.5049492954
 21
118.9225152238
 31
0.0
  0
LINE
  5
209
330
1F
100
AcDbEntity
  8
0
  6
Continuous
 62
     7
370
    15
100
AcDbLine
 10
75.5049492954
 20
118.9225152238
 30
0.0
 11
75.5049492954
 21
119.6725152448
 31
0.0
  0
LINE
  5
20A
330
1F
100
AcDbEntity
  8
0
  6
Continuous
 62
     7
370
    15
100
AcDbLine
 10
75.3963421821
 20
118.7975152033
 30
0.0
 11
75.5049492954
 21
118.9225152238
 31
0.0
  0
LINE
  5
20B
330
1F
100
AcDbEntity
  8
0
  6
Continuous
 62
     7
370
    15
100
AcDbLine
 10
75.3963421821
 20
118.7975152033
 30
0.0
 11
74.7492145538
 21
118.7975152033
 31
0.0
  0
LINE
  5
20C
330
1F
100
AcDbEntity
  8
0
  6
Continuous
 62
     7
370
    15
100
AcDbLine
 10
155.6225977629
 20
119.7975152508
 30
0.0
 11
155.7407444134
 21
119.6725152448
 31
0.0
  0
SPLINE
  5
20D
330
1F
100
AcDbEntity
  8
0
  6
Continuous
 62
     7
370
    15
100
AcDbSpline
210
0.0
220
0.0
230
1.0
 70
    24
 71
     3
 72
    14
 73
    10
 74
     0
 42
0.00000001
 43
0.00000001
 12
1.0
 22
0.0
 32
0.0
 13
1.0
 23
0.0
 33
0.0
 40
0.0351500306209689
 40
0.0351500306209689
 40
0.0351500306209689
 40
0.0351500306209689
 40
0.1586711692642271
 40
0.3047215275512041
 40
0.4340925685180943
 40
0.5593171384108337
 40
0.6886836806841883
 40
0.8335497365816738
 40
0.9616322215673998
 40
0.9616322215673998
 40
0.9616322215673998
 40
0.9616322215673998
 10
155.740744572978
 20
119.6725152507842
 30
0.0
 10
155.6061646786189
 20
119.6725152507842
 30
0.0
 10
155.2123764970545
 20
119.6725152507842
 30
0.0
 10
154.3118459497864
 20
119.6725152507842
 30
0.0
 10
153.0880816864319
 20
119.6725152507842
 30
0.0
 10
151.756641403955
 20
119.6725152507842
 30
0.0
 10
150.5329663126879
 20
119.6725152507842
 30
0.0
 10
149.6387857418256
 20
119.6725152507842
 30
0.0
 10
149.2455706712286
 20
119.6725152507842
 30
0.0
 10
149.1009746031557
 20
119.6725152507842
 30
0.0
  0
LINE
  5
20E
330
1F
100
AcDbEntity
  8
0
  6
Continuous
 62
     7
370
    15
100
AcDbLine
 10
149.21852106
 20
119.7975152508
 30
0.0
 11
149.1009741812
 21
119.6725152448
 31
0.0
  0
SPLINE
  5
20F
330
1F
100
AcDbEntity
  8
0
  6
Continuous
 62
     7
370
    15
100
AcDbSpline
210
0.0
220
0.0
230
1.0
 70
    24
 71
     3
 72
    14
 73
    10
 74
     0
 42
0.00000001
 43
0.00000001
 12
1.0
 22
0.0
 32
0.0
 13
1.0
 23
0.0
 33
0.0
 40
0.0351500306209689
 40
0.0351500306209689
 40
0.0351500306209689
 40
0.0351500306209689
 40
0.1632325156066949
 40
0.3080985715041804
 40
0.4374651137775349
 40
0.5626896836702744
 40
0.6920607246371646
 40
0.8381110829241416
 40
0.9616322215673998
 40
0.9616322215673998
 40
0.9616322215673998
 40
0.9616322215673998
 10
149.1009746031557
 20
118.9225152507842
 30
0.0
 10
149.2455706712286
 20
118.9225152507842
 30
0.0
 10
149.6387857418256
 20
118.9225152507842
 30
0.0
 10
150.5329663126879
 20
118.9225152507842
 30
0.0
 10
151.756641403955
 20
118.9225152507842
 30
0.0
 10
153.0880816864319
 20
118.9225152507842
 30
0.0
 10
154.3118459497864
 20
118.9225152507842
 30
0.0
 10
155.2123764970545
 20
118.9225152507842
 30
0.0
 10
155.6061646786189
 20
118.9225152507842
 30
0.0
 10
155.740744572978
 20
118.9225152507842
 30
0.0
  0
LINE
  5
210
330
1F
100
AcDbEntity
  8
0
  6
Continuous
 62
     7
370
    15
100
AcDbLine
 10
149.1009741812
 20
118.9225152238
 30
0.0
 11
149.1009741812
 21
119.6725152448
 31
0.0
  0
LINE
  5
211
330
1F
100
AcDbEntity
  8
0
  6
Continuous
 62
     7
370
    15
100
AcDbLine
 10
155.7407444134
 20
118.9225152238
 30
0.0
 11
155.7407444134
 21
119.6725152448
 31
0.0
  0
LINE
  5
212
330
1F
100
AcDbEntity
  8
0
  6
Continuous
 62
     7
370
    15
100
AcDbLine
 10
155.7407444134
 20
118.9225152238
 30
0.0
 11
155.6225977629
 21
118.7975152033
 31
0.0
  0
LINE
  5
213
330
1F
100
AcDbEntity
  8
0
  6
Continuous
 62
     7
370
    15
100
AcDbLine
 10
149.1009741812
 20
118.9225152238
 30
0.0
 11
149.21852106
 21
118.7975152033
 31
0.0
  0
LINE
  5
214
330
1F
100
AcDbEntity
  8
0
  6
Continuous
 62
     7
370
    15
100
AcDbLine
 10
73.2020120858
 20
119.6725152448
 30
0.0
 11
72.5041013002
 21
119.6725152448
 31
0.0
  0
LINE
  5
215
330
1F
100
AcDbEntity
  8
0
  6
Continuous
 62
     7
370
    15
100
AcDbLine
 10
72.5041013002
 20
119.6725152448
 30
0.0
 11
72.6246516942
 21
119.7975152508
 31
0.0
  0
LINE
  5
216
330
1F
100
AcDbEntity
  8
0
  6
Continuous
 62
     7
370
    15
100
AcDbLine
 10
72.6246516942
 20
119.7975152508
 30
0.0
 11
73.3225624799
 21
119.7975152508
 31
0.0
  0
LINE
  5
217
330
1F
100
AcDbEntity
  8
0
  6
Continuous
 62
     7
370
    15
100
AcDbLine
 10
72.5041013002
 20
118.9225152238
 30
0.0
 11
73.2020120858
 21
118.9225152238
 31
0.0
  0
LINE
  5
218
330
1F
100
AcDbEntity
  8
0
  6
Continuous
 62
     7
370
    15
100
AcDbLine
 10
72.5041013002
 20
118.9225152238
 30
0.0
 11
72.5041013002
 21
119.6725152448
 31
0.0
  0
LINE
  5
219
330
1F
100
AcDbEntity
  8
0
  6
Continuous
 62
     7
370
    15
100
AcDbLine
 10
72.6246516942
 20
118.7975152033
 30
0.0
 11
72.5041013002
 21
118.9225152238
 31
0.0
  0
LINE
  5
21A
330
1F
100
AcDbEntity
  8
0
  6
Continuous
 62
     7
370
    15
100
AcDbLine
 10
73.3225624799
 20
118.7975152033
 30
0.0
 11
72.6246516942
 21
118.7975152033
 31
0.0
  0
LINE
  5
21B
330
1F
100
AcDbEntity
  8
0
  6
Continuous
 62
     7
370
    15
100
AcDbLine
 10
104.5130807697
 20
119.6725152448
 30
0.0
 11
104.1485126852
 21
119.6725152448
 31
0.0
  0
LINE
  5
21C
330
1F
100
AcDbEntity
  8
0
  6
Continuous
 62
     7
370
    15
100
AcDbLine
 10
104.1485126852
 20
119.6725152448
 30
0.0
 11
104.1485126852
 21
119.7975152508
 31
0.0
  0
LINE
  5
21D
330
1F
100
AcDbEntity
  8
0
  6
Continuous
 62
     7
370
    15
100
AcDbLine
 10
104.5130807697
 20
119.6725152448
 30
0.0
 11
104.4219378173
 21
119.7975152508
 31
0.0
  0
LINE
  5
21E
330
1F
100
AcDbEntity
  8
0
  6
Continuous
 62
     7
370
    15
100
AcDbLine
 10
104.1485126852
 20
119.7975152508
 30
0.0
 11
104.4219378173
 21
119.7975152508
 31
0.0
  0
LINE
  5
21F
330
1F
100
AcDbEntity
  8
0
  6
Continuous
 62
     7
370
    15
100
AcDbLine
 10
103.2406072854
 20
119.6725152448
 30
0.0
 11
102.8975304007
 21
119.6725152448
 31
0.0
  0
LINE
  5
220
330
1F
100
AcDbEntity
  8
0
  6
Continuous
 62
     7
370
    15
100
AcDbLine
 10
102.8975304007
 20
119.6725152448
 30
0.0
 11
102.9833014845
 21
119.7975152508
 31
0.0
  0
LINE
  5
221
330
1F
100
AcDbEntity
  8
0
  6
Continuous
 62
     7
370
    15
100
AcDbLine
 10
103.2406072854
 20
119.6725152448
 30
0.0
 11
103.2406072854
 21
119.7975152508
 31
0.0
  0
LINE
  5
222
330
1F
100
AcDbEntity
  8
0
  6
Continuous
 62
     7
370
    15
100
AcDbLine
 10
102.9833014845
 20
119.7975152508
 30
0.0
 11
103.2406072854
 21
119.7975152508
 31
0.0
  0
LINE
  5
223
330
1F
100
AcDbEntity
  8
0
  6
Continuous
 62
     7
370
    15
100
AcDbLine
 10
104.1485126852
 20
118.9225152238
 30
0.0
 11
104.5130807697
 21
118.9225152238
 31
0.0
  0
LINE
  5
224
330
1F
100
AcDbEntity
  8
0
  6
Continuous
 62
     7
370
    15
100
AcDbLine
 10
104.1485126852
 20
118.9225152238
 30
0.0
 11
104.1485126852
 21
119.6725152448
 31
0.0
  0
LINE
  5
225
330
1F
100
AcDbEntity
  8
0
  6
Continuous
 62
     7
370
    15
100
AcDbLine
 10
104.5130807697
 20
118.9225152238
 30
0.0
 11
104.5130807697
 21
119.6725152448
 31
0.0
  0
LINE
  5
226
330
1F
100
AcDbEntity
  8
0
  6
Continuous
 62
     7
370
    15
100
AcDbLine
 10
104.1485126852
 20
119.6725152448
 30
0.0
 11
103.2406072854
 21
119.6725152448
 31
0.0
  0
LINE
  5
227
330
1F
100
AcDbEntity
  8
0
  6
Continuous
 62
     7
370
    15
100
AcDbLine
 10
103.2406072854
 20
119.7975152508
 30
0.0
 11
104.1485126852
 21
119.7975152508
 31
0.0
  0
LINE
  5
228
330
1F
100
AcDbEntity
  8
0
  6
Continuous
 62
     7
370
    15
100
AcDbLine
 10
103.2406072854
 20
118.9225152238
 30
0.0
 11
104.1485126852
 21
118.9225152238
 31
0.0
  0
LINE
  5
229
330
1F
100
AcDbEntity
  8
0
  6
Continuous
 62
     7
370
    15
100
AcDbLine
 10
103.2406072854
 20
118.9225152238
 30
0.0
 11
103.2406072854
 21
119.6725152448
 31
0.0
  0
LINE
  5
22A
330
1F
100
AcDbEntity
  8
0
  6
Continuous
 62
     7
370
    15
100
AcDbLine
 10
102.8975304007
 20
118.9225152238
 30
0.0
 11
103.2406072854
 21
118.9225152238
 31
0.0
  0
LINE
  5
22B
330
1F
100
AcDbEntity
  8
0
  6
Continuous
 62
     7
370
    15
100
AcDbLine
 10
102.8975304007
 20
118.9225152238
 30
0.0
 11
102.8975304007
 21
119.6725152448
 31
0.0
  0
LINE
  5
22C
330
1F
100
AcDbEntity
  8
0
  6
Continuous
 62
     7
370
    15
100
AcDbLine
 10
104.1485126852
 20
118.7975152033
 30
0.0
 11
104.1485126852
 21
118.9225152238
 31
0.0
  0
LINE
  5
22D
330
1F
100
AcDbEntity
  8
0
  6
Continuous
 62
     7
370
    15
100
AcDbLine
 10
104.4219378173
 20
118.7975152033
 30
0.0
 11
104.5130807697
 21
118.9225152238
 31
0.0
  0
LINE
  5
22E
330
1F
100
AcDbEntity
  8
0
  6
Continuous
 62
     7
370
    15
100
AcDbLine
 10
104.4219378173
 20
118.7975152033
 30
0.0
 11
104.1485126852
 21
118.7975152033
 31
0.0
  0
LINE
  5
22F
330
1F
100
AcDbEntity
  8
0
  6
Continuous
 62
     7
370
    15
100
AcDbLine
 10
102.9833014845
 20
118.7975152033
 30
0.0
 11
102.8975304007
 21
118.9225152238
 31
0.0
  0
LINE
  5
230
330
1F
100
AcDbEntity
  8
0
  6
Continuous
 62
     7
370
    15
100
AcDbLine
 10
103.2406072854
 20
118.7975152033
 30
0.0
 11
103.2406072854
 21
118.9225152238
 31
0.0
  0
LINE
  5
231
330
1F
100
AcDbEntity
  8
0
  6
Continuous
 62
     7
370
    15
100
AcDbLine
 10
103.2406072854
 20
118.7975152033
 30
0.0
 11
102.9833014845
 21
118.7975152033
 31
0.0
  0
LINE
  5
232
330
1F
100
AcDbEntity
  8
0
  6
Continuous
 62
     7
370
    15
100
AcDbLine
 10
104.1485126852
 20
118.7975152033
 30
0.0
 11
103.2406072854
 21
118.7975152033
 31
0.0
  0
LINE
  5
233
330
1F
100
AcDbEntity
  8
0
  6
Continuous
 62
     7
370
    15
100
AcDbLine
 10
102.8975304007
 20
119.6725152448
 30
0.0
 11
101.6342770099
 21
119.6725152448
 31
0.0
  0
LINE
  5
234
330
1F
100
AcDbEntity
  8
0
  6
Continuous
 62
     7
370
    15
100
AcDbLine
 10
101.6342770099
 20
119.6725152448
 30
0.0
 11
101.7200480937
 21
119.7975152508
 31
0.0
  0
LINE
  5
235
330
1F
100
AcDbEntity
  8
0
  6
Continuous
 62
     7
370
    15
100
AcDbLine
 10
101.7200480937
 20
119.7975152508
 30
0.0
 11
102.9833014845
 21
119.7975152508
 31
0.0
  0
LINE
  5
236
330
1F
100
AcDbEntity
  8
0
  6
Continuous
 62
     7
370
    15
100
AcDbLine
 10
101.6342770099
 20
118.9225152238
 30
0.0
 11
102.8975304007
 21
118.9225152238
 31
0.0
  0
LINE
  5
237
330
1F
100
AcDbEntity
  8
0
  6
Continuous
 62
     7
370
    15
100
AcDbLine
 10
101.6342770099
 20
118.9225152238
 30
0.0
 11
101.6342770099
 21
119.6725152448
 31
0.0
  0
LINE
  5
238
330
1F
100
AcDbEntity
  8
0
  6
Continuous
 62
     7
370
    15
100
AcDbLine
 10
101.7200480937
 20
118.7975152033
 30
0.0
 11
101.6342770099
 21
118.9225152238
 31
0.0
  0
LINE
  5
239
330
1F
100
AcDbEntity
  8
0
  6
Continuous
 62
     7
370
    15
100
AcDbLine
 10
102.9833014845
 20
118.7975152033
 30
0.0
 11
101.7200480937
 21
118.7975152033
 31
0.0
  0
LINE
  5
23A
330
1F
100
AcDbEntity
  8
0
  6
Continuous
 62
     7
370
    15
100
AcDbLine
 10
106.1041783332
 20
119.6725152448
 30
0.0
 11
104.5130807697
 21
119.6725152448
 31
0.0
  0
LINE
  5
23B
330
1F
100
AcDbEntity
  8
0
  6
Continuous
 62
     7
370
    15
100
AcDbLine
 10
106.1041783332
 20
119.6725152448
 30
0.0
 11
106.0130353808
 21
119.7975152508
 31
0.0
  0
LINE
  5
23C
330
1F
100
AcDbEntity
  8
0
  6
Continuous
 62
     7
370
    15
100
AcDbLine
 10
104.4219378173
 20
119.7975152508
 30
0.0
 11
106.0130353808
 21
119.7975152508
 31
0.0
  0
LINE
  5
23D
330
1F
100
AcDbEntity
  8
0
  6
Continuous
 62
     7
370
    15
100
AcDbLine
 10
104.5130807697
 20
118.9225152238
 30
0.0
 11
106.1041783332
 21
118.9225152238
 31
0.0
  0
LINE
  5
23E
330
1F
100
AcDbEntity
  8
0
  6
Continuous
 62
     7
370
    15
100
AcDbLine
 10
106.1041783332
 20
118.9225152238
 30
0.0
 11
106.1041783332
 21
119.6725152448
 31
0.0
  0
LINE
  5
23F
330
1F
100
AcDbEntity
  8
0
  6
Continuous
 62
     7
370
    15
100
AcDbLine
 10
106.0130353808
 20
118.7975152033
 30
0.0
 11
106.1041783332
 21
118.9225152238
 31
0.0
  0
LINE
  5
240
330
1F
100
AcDbEntity
  8
0
  6
Continuous
 62
     7
370
    15
100
AcDbLine
 10
106.0130353808
 20
118.7975152033
 30
0.0
 11
104.4219378173
 21
118.7975152033
 31
0.0
  0
SPLINE
  5
241
330
1F
100
AcDbEntity
  8
0
  6
Continuous
 62
     7
370
    15
100
AcDbSpline
210
0.0
220
0.0
230
1.0
 70
    24
 71
     3
 72
    12
 73
     8
 74
     0
 42
0.00000001
 43
0.00000001
 12
1.0
 22
0.0
 32
0.0
 13
1.0
 23
0.0
 33
0.0
 40
0.0497141026202725
 40
0.0497141026202725
 40
0.0497141026202725
 40
0.0497141026202725
 40
0.2297597157149449
 40
0.4152928740924796
 40
0.5832582115718237
 40
0.767249308314873
 40
0.9493899228796757
 40
0.9493899228796757
 40
0.9493899228796757
 40
0.9493899228796757
 10
70.66472681216234
 20
119.6725152507842
 30
0.0
 10
70.4934639150605
 20
119.6725152507842
 30
0.0
 10
70.0680825801045
 20
119.6725152507842
 30
0.0
 10
69.13159182355805
 20
119.6725152507842
 30
0.0
 10
67.9185367313288
 20
119.6725152507842
 30
0.0
 10
66.97200095567013
 20
119.6725152507842
 30
0.0
 10
66.53967934147329
 20
119.6725152507842
 30
0.0
 10
66.37243091487282
 20
119.6725152507842
 30
0.0
  0
LINE
  5
242
330
1F
100
AcDbEntity
  8
0
  6
Continuous
 62
     7
370
    15
100
AcDbLine
 10
66.3724299311
 20
119.6725152448
 30
0.0
 11
66.48418864
 21
119.7975152508
 31
0.0
  0
LINE
  5
243
330
1F
100
AcDbEntity
  8
0
  6
Continuous
 62
     7
370
    15
100
AcDbLine
 10
70.6647243141
 20
119.6725152448
 30
0.0
 11
70.5544706225
 21
119.7975152508
 31
0.0
  0
SPLINE
  5
244
330
1F
100
AcDbEntity
  8
0
  6
Continuous
 62
     7
370
    15
100
AcDbSpline
210
0.0
220
0.0
230
1.0
 70
    24
 71
     3
 72
    12
 73
     8
 74
     0
 42
0.00000001
 43
0.00000001
 12
1.0
 22
0.0
 32
0.0
 13
1.0
 23
0.0
 33
0.0
 40
0.0497141026202725
 40
0.0497141026202725
 40
0.0497141026202725
 40
0.0497141026202725
 40
0.2318547171850752
 40
0.4158458139281246
 40
0.5838111514074686
 40
0.7693443097850033
 40
0.9493899228796757
 40
0.9493899228796757
 40
0.9493899228796757
 40
0.9493899228796757
 10
66.37243091487282
 20
118.9225152507842
 30
0.0
 10
66.53967934147329
 20
118.9225152507842
 30
0.0
 10
66.97200095567013
 20
118.9225152507842
 30
0.0
 10
67.9185367313288
 20
118.9225152507842
 30
0.0
 10
69.13159182355805
 20
118.9225152507842
 30
0.0
 10
70.0680825801045
 20
118.9225152507842
 30
0.0
 10
70.4934639150605
 20
118.9225152507842
 30
0.0
 10
70.66472681216234
 20
118.9225152507842
 30
0.0
  0
LINE
  5
245
330
1F
100
AcDbEntity
  8
0
  6
Continuous
 62
     7
370
    15
100
AcDbLine
 10
66.3724299311
 20
118.9225152238
 30
0.0
 11
66.3724299311
 21
119.6725152448
 31
0.0
  0
LINE
  5
246
330
1F
100
AcDbEntity
  8
0
  6
Continuous
 62
     7
370
    15
100
AcDbLine
 10
70.6647243141
 20
118.9225152238
 30
0.0
 11
70.6647243141
 21
119.6725152448
 31
0.0
  0
LINE
  5
247
330
1F
100
AcDbEntity
  8
0
  6
Continuous
 62
     7
370
    15
100
AcDbLine
 10
66.48418864
 20
118.7975152033
 30
0.0
 11
66.3724299311
 21
118.9225152238
 31
0.0
  0
LINE
  5
248
330
1F
100
AcDbEntity
  8
0
  6
Continuous
 62
     7
370
    15
100
AcDbLine
 10
70.5544706225
 20
118.7975152033
 30
0.0
 11
70.6647243141
 21
118.9225152238
 31
0.0
  0
LINE
  5
249
330
1F
100
AcDbEntity
  8
0
  6
Continuous
 62
     7
370
    15
100
AcDbLine
 10
75.9393628477
 20
119.6725152448
 30
0.0
 11
75.5049492954
 21
119.6725152448
 31
0.0
  0
LINE
  5
24A
330
1F
100
AcDbEntity
  8
0
  6
Continuous
 62
     7
370
    15
100
AcDbLine
 10
75.9393628477
 20
119.6725152448
 30
0.0
 11
75.9393628477
 21
119.7975152508
 31
0.0
  0
LINE
  5
24B
330
1F
100
AcDbEntity
  8
0
  6
Continuous
 62
     7
370
    15
100
AcDbLine
 10
75.3963421821
 20
119.7975152508
 30
0.0
 11
75.9393628477
 21
119.7975152508
 31
0.0
  0
LINE
  5
24C
330
1F
100
AcDbEntity
  8
0
  6
Continuous
 62
     7
370
    15
100
AcDbLine
 10
75.5049492954
 20
118.9225152238
 30
0.0
 11
75.9393628477
 21
118.9225152238
 31
0.0
  0
LINE
  5
24D
330
1F
100
AcDbEntity
  8
0
  6
Continuous
 62
     7
370
    15
100
AcDbLine
 10
75.9393628477
 20
118.9225152238
 30
0.0
 11
75.9393628477
 21
119.6725152448
 31
0.0
  0
LINE
  5
24E
330
1F
100
AcDbEntity
  8
0
  6
Continuous
 62
     7
370
    15
100
AcDbLine
 10
75.9393628477
 20
118.7975152033
 30
0.0
 11
75.9393628477
 21
118.9225152238
 31
0.0
  0
LINE
  5
24F
330
1F
100
AcDbEntity
  8
0
  6
Continuous
 62
     7
370
    15
100
AcDbLine
 10
75.9393628477
 20
118.7975152033
 30
0.0
 11
75.3963421821
 21
118.7975152033
 31
0.0
  0
LINE
  5
250
330
1F
100
AcDbEntity
  8
0
  6
Continuous
 62
     7
370
    15
100
AcDbLine
 10
160.3195057041
 20
119.9225152567
 30
0.0
 11
168.3195060841
 21
119.9225152567
 31
0.0
  0
LINE
  5
251
330
1F
100
AcDbEntity
  8
0
  6
Continuous
 62
     7
370
    15
100
AcDbLine
 10
146.2336852937
 20
119.7975152508
 30
0.0
 11
146.3477425068
 21
119.6725152448
 31
0.0
  0
SPLINE
  5
252
330
1F
100
AcDbEntity
  8
0
  6
Continuous
 62
     7
370
    15
100
AcDbSpline
210
0.0
220
0.0
230
1.0
 70
    24
 71
     3
 72
    12
 73
     8
 74
     0
 42
0.00000001
 43
0.00000001
 12
1.0
 22
0.0
 32
0.0
 13
1.0
 23
0.0
 33
0.0
 40
0.0540746270856868
 40
0.0540746270856868
 40
0.0540746270856868
 40
0.0540746270856868
 40
0.2110523871999732
 40
0.3858112103035561
 40
0.6141887896938517
 40
0.7889476127974346
 40
0.945925372911721
 40
0.945925372911721
 40
0.945925372911721
 40
0.945925372911721
 10
146.3477422325294
 20
119.6725152507842
 30
0.0
 10
146.2179878357503
 20
119.6725152507842
 30
0.0
 10
145.876860120319
 20
119.6725152507842
 30
0.0
 10
144.9725913655504
 20
119.6725152507842
 30
0.0
 10
143.6261704226717
 20
119.6725152507842
 30
0.0
 10
142.7219016679034
 20
119.6725152507842
 30
0.0
 10
142.3807739524717
 20
119.6725152507842
 30
0.0
 10
142.2510195556928
 20
119.6725152507842
 30
0.0
  0
LINE
  5
253
330
1F
100
AcDbEntity
  8
0
  6
Continuous
 62
     7
370
    15
100
AcDbLine
 10
142.2510202765
 20
119.6725152448
 30
0.0
 11
142.3650774895
 21
119.7975152508
 31
0.0
  0
SPLINE
  5
254
330
1F
100
AcDbEntity
  8
0
  6
Continuous
 62
     7
370
    15
100
AcDbSpline
210
0.0
220
0.0
230
1.0
 70
    24
 71
     3
 72
    12
 73
     8
 74
     0
 42
0.00000001
 43
0.00000001
 12
1.0
 22
0.0
 32
0.0
 13
1.0
 23
0.0
 33
0.0
 40
0.0540746270856868
 40
0.0540746270856868
 40
0.0540746270856868
 40
0.0540746270856868
 40
0.2110523871999732
 40
0.3858112103035561
 40
0.6141887896938518
 40
0.7889476127974346
 40
0.945925372911721
 40
0.945925372911721
 40
0.945925372911721
 40
0.945925372911721
 10
142.2510195556928
 20
118.9225152507842
 30
0.0
 10
142.3807739524717
 20
118.9225152507842
 30
0.0
 10
142.7219016679034
 20
118.9225152507842
 30
0.0
 10
143.6261704226717
 20
118.9225152507842
 30
0.0
 10
144.9725913655504
 20
118.9225152507842
 30
0.0
 10
145.876860120319
 20
118.9225152507842
 30
0.0
 10
146.2179878357503
 20
118.9225152507842
 30
0.0
 10
146.3477422325294
 20
118.9225152507842
 30
0.0
  0
LINE
  5
255
330
1F
100
AcDbEntity
  8
0
  6
Continuous
 62
     7
370
    15
100
AcDbLine
 10
142.2510202765
 20
118.9225152238
 30
0.0
 11
142.2510202765
 21
119.6725152448
 31
0.0
  0
LINE
  5
256
330
1F
100
AcDbEntity
  8
0
  6
Continuous
 62
     7
370
    15
100
AcDbLine
 10
146.3477425068
 20
118.9225152238
 30
0.0
 11
146.3477425068
 21
119.6725152448
 31
0.0
  0
LINE
  5
257
330
1F
100
AcDbEntity
  8
0
  6
Continuous
 62
     7
370
    15
100
AcDbLine
 10
142.3650774895
 20
118.7975152033
 30
0.0
 11
142.2510202765
 21
118.9225152238
 31
0.0
  0
LINE
  5
258
330
1F
100
AcDbEntity
  8
0
  6
Continuous
 62
     7
370
    15
100
AcDbLine
 10
146.2336852937
 20
118.7975152033
 30
0.0
 11
146.3477425068
 21
118.9225152238
 31
0.0
  0
LINE
  5
259
330
1F
100
AcDbEntity
  8
0
  6
Continuous
 62
     7
370
    15
100
AcDbLine
 10
168.3195060841
 20
121.1725152433
 30
0.0
 11
160.3195057041
 21
121.1725152433
 31
0.0
  0
LINE
  5
25A
330
1F
100
AcDbEntity
  8
0
  6
Continuous
 62
     7
370
    15
100
AcDbLine
 10
160.4445059574
 20
121.2975152638
 30
0.0
 11
168.1945058308
 21
121.2975152638
 31
0.0
  0
LINE
  5
25B
330
1F
100
AcDbEntity
  8
0
  6
Continuous
 62
     7
370
    15
100
AcDbLine
 10
75.9393628477
 20
118.9225152238
 30
0.0
 11
81.1874549627
 21
118.9225152238
 31
0.0
  0
LINE
  5
25C
330
1F
100
AcDbEntity
  8
0
  6
Continuous
 62
     7
370
    15
100
AcDbLine
 10
81.1874549627
 20
119.6725152448
 30
0.0
 11
75.9393628477
 21
119.6725152448
 31
0.0
  0
LINE
  5
25D
330
1F
100
AcDbEntity
  8
0
  6
Continuous
 62
     7
370
    15
100
AcDbLine
 10
75.9393628477
 20
119.7975152508
 30
0.0
 11
81.1874549627
 21
119.7975152508
 31
0.0
  0
LINE
  5
25E
330
1F
100
AcDbEntity
  8
0
  6
Continuous
 62
     7
370
    15
100
AcDbLine
 10
81.1874549627
 20
118.7975152033
 30
0.0
 11
75.9393628477
 21
118.7975152033
 31
0.0
  0
LINE
  5
25F
330
1F
100
AcDbEntity
  8
0
  6
Continuous
 62
     7
370
    15
100
AcDbLine
 10
100.0996362209
 20
119.6725152448
 30
0.0
 11
99.6876787185
 21
119.6725152448
 31
0.0
  0
LINE
  5
260
330
1F
100
AcDbEntity
  8
0
  6
Continuous
 62
     7
370
    15
100
AcDbLine
 10
100.0996362209
 20
119.6725152448
 30
0.0
 11
100.0996362209
 21
119.7975152508
 31
0.0
  0
LINE
  5
261
330
1F
100
AcDbEntity
  8
0
  6
Continuous
 62
     7
370
    15
100
AcDbLine
 10
99.5846893429
 20
119.7975152508
 30
0.0
 11
100.0996362209
 21
119.7975152508
 31
0.0
  0
LINE
  5
262
330
1F
100
AcDbEntity
  8
0
  6
Continuous
 62
     7
370
    15
100
AcDbLine
 10
99.6876787185
 20
118.9225152238
 30
0.0
 11
100.0996362209
 21
118.9225152238
 31
0.0
  0
LINE
  5
263
330
1F
100
AcDbEntity
  8
0
  6
Continuous
 62
     7
370
    15
100
AcDbLine
 10
100.0996362209
 20
118.9225152238
 30
0.0
 11
100.0996362209
 21
119.6725152448
 31
0.0
  0
LINE
  5
264
330
1F
100
AcDbEntity
  8
0
  6
Continuous
 62
     7
370
    15
100
AcDbLine
 10
100.0996362209
 20
118.7975152033
 30
0.0
 11
100.0996362209
 21
118.9225152238
 31
0.0
  0
LINE
  5
265
330
1F
100
AcDbEntity
  8
0
  6
Continuous
 62
     7
370
    15
100
AcDbLine
 10
100.0996362209
 20
118.7975152033
 30
0.0
 11
99.5846893429
 21
118.7975152033
 31
0.0
  0
LINE
  5
266
330
1F
100
AcDbEntity
  8
0
  6
Continuous
 62
     7
370
    15
100
AcDbLine
 10
101.6342770099
 20
119.6725152448
 30
0.0
 11
101.2912075757
 21
119.6725152448
 31
0.0
  0
LINE
  5
267
330
1F
100
AcDbEntity
  8
0
  6
Continuous
 62
     7
370
    15
100
AcDbLine
 10
101.2912075757
 20
119.6725152448
 30
0.0
 11
101.2912075757
 21
119.7975152508
 31
0.0
  0
LINE
  5
268
330
1F
100
AcDbEntity
  8
0
  6
Continuous
 62
     7
370
    15
100
AcDbLine
 10
101.2912075757
 20
119.7975152508
 30
0.0
 11
101.7200480937
 21
119.7975152508
 31
0.0
  0
LINE
  5
269
330
1F
100
AcDbEntity
  8
0
  6
Continuous
 62
     7
370
    15
100
AcDbLine
 10
101.2912075757
 20
118.9225152238
 30
0.0
 11
101.6342770099
 21
118.9225152238
 31
0.0
  0
LINE
  5
26A
330
1F
100
AcDbEntity
  8
0
  6
Continuous
 62
     7
370
    15
100
AcDbLine
 10
101.2912075757
 20
118.9225152238
 30
0.0
 11
101.2912075757
 21
119.6725152448
 31
0.0
  0
LINE
  5
26B
330
1F
100
AcDbEntity
  8
0
  6
Continuous
 62
     7
370
    15
100
AcDbLine
 10
101.2912075757
 20
118.7975152033
 30
0.0
 11
101.2912075757
 21
118.9225152238
 31
0.0
  0
LINE
  5
26C
330
1F
100
AcDbEntity
  8
0
  6
Continuous
 62
     7
370
    15
100
AcDbLine
 10
101.7200480937
 20
118.7975152033
 30
0.0
 11
101.2912075757
 21
118.7975152033
 31
0.0
  0
LINE
  5
26D
330
1F
100
AcDbEntity
  8
0
  6
Continuous
 62
     7
370
    15
100
AcDbLine
 10
101.2912075757
 20
119.6725152448
 30
0.0
 11
100.0996362209
 21
119.6725152448
 31
0.0
  0
LINE
  5
26E
330
1F
100
AcDbEntity
  8
0
  6
Continuous
 62
     7
370
    15
100
AcDbLine
 10
100.0996362209
 20
119.7975152508
 30
0.0
 11
101.2912075757
 21
119.7975152508
 31
0.0
  0
LINE
  5
26F
330
1F
100
AcDbEntity
  8
0
  6
Continuous
 62
     7
370
    15
100
AcDbLine
 10
100.0996362209
 20
118.9225152238
 30
0.0
 11
101.2912075757
 21
118.9225152238
 31
0.0
  0
LINE
  5
270
330
1F
100
AcDbEntity
  8
0
  6
Continuous
 62
     7
370
    15
100
AcDbLine
 10
101.2912075757
 20
118.7975152033
 30
0.0
 11
100.0996362209
 21
118.7975152033
 31
0.0
  0
LINE
  5
271
330
1F
100
AcDbEntity
  8
0
  6
Continuous
 62
     7
370
    15
100
AcDbLine
 10
106.468750143
 20
119.6725152448
 30
0.0
 11
106.1041783332
 21
119.6725152448
 31
0.0
  0
LINE
  5
272
330
1F
100
AcDbEntity
  8
0
  6
Continuous
 62
     7
370
    15
100
AcDbLine
 10
106.468750143
 20
119.6725152448
 30
0.0
 11
106.468750143
 21
119.7975152508
 31
0.0
  0
LINE
  5
273
330
1F
100
AcDbEntity
  8
0
  6
Continuous
 62
     7
370
    15
100
AcDbLine
 10
106.0130353808
 20
119.7975152508
 30
0.0
 11
106.468750143
 21
119.7975152508
 31
0.0
  0
LINE
  5
274
330
1F
100
AcDbEntity
  8
0
  6
Continuous
 62
     7
370
    15
100
AcDbLine
 10
106.1041783332
 20
118.9225152238
 30
0.0
 11
106.468750143
 21
118.9225152238
 31
0.0
  0
LINE
  5
275
330
1F
100
AcDbEntity
  8
0
  6
Continuous
 62
     7
370
    15
100
AcDbLine
 10
106.468750143
 20
118.9225152238
 30
0.0
 11
106.468750143
 21
119.6725152448
 31
0.0
  0
LINE
  5
276
330
1F
100
AcDbEntity
  8
0
  6
Continuous
 62
     7
370
    15
100
AcDbLine
 10
106.468750143
 20
118.7975152033
 30
0.0
 11
106.468750143
 21
118.9225152238
 31
0.0
  0
LINE
  5
277
330
1F
100
AcDbEntity
  8
0
  6
Continuous
 62
     7
370
    15
100
AcDbLine
 10
106.468750143
 20
118.7975152033
 30
0.0
 11
106.0130353808
 21
118.7975152033
 31
0.0
  0
LINE
  5
278
330
1F
100
AcDbEntity
  8
0
  6
Continuous
 62
     7
370
    15
100
AcDbLine
 10
108.8129896461
 20
119.6725152448
 30
0.0
 11
108.4713171958
 21
119.6725152448
 31
0.0
  0
LINE
  5
279
330
1F
100
AcDbEntity
  8
0
  6
Continuous
 62
     7
370
    15
100
AcDbLine
 10
108.4713171958
 20
119.6725152448
 30
0.0
 11
108.4713171958
 21
119.7975152508
 31
0.0
  0
LINE
  5
27A
330
1F
100
AcDbEntity
  8
0
  6
Continuous
 62
     7
370
    15
100
AcDbLine
 10
108.4713171958
 20
119.7975152508
 30
0.0
 11
108.8984068274
 21
119.7975152508
 31
0.0
  0
LINE
  5
27B
330
1F
100
AcDbEntity
  8
0
  6
Continuous
 62
     7
370
    15
100
AcDbLine
 10
108.4713171958
 20
118.9225152238
 30
0.0
 11
108.8129896461
 21
118.9225152238
 31
0.0
  0
LINE
  5
27C
330
1F
100
AcDbEntity
  8
0
  6
Continuous
 62
     7
370
    15
100
AcDbLine
 10
108.4713171958
 20
118.9225152238
 30
0.0
 11
108.4713171958
 21
119.6725152448
 31
0.0
  0
LINE
  5
27D
330
1F
100
AcDbEntity
  8
0
  6
Continuous
 62
     7
370
    15
100
AcDbLine
 10
108.4713171958
 20
118.7975152033
 30
0.0
 11
108.4713171958
 21
118.9225152238
 31
0.0
  0
LINE
  5
27E
330
1F
100
AcDbEntity
  8
0
  6
Continuous
 62
     7
370
    15
100
AcDbLine
 10
108.8984068274
 20
118.7975152033
 30
0.0
 11
108.4713171958
 21
118.7975152033
 31
0.0
  0
LINE
  5
27F
330
1F
100
AcDbEntity
  8
0
  6
Continuous
 62
     7
370
    15
100
AcDbLine
 10
108.4713171958
 20
119.6725152448
 30
0.0
 11
106.468750143
 21
119.6725152448
 31
0.0
  0
LINE
  5
280
330
1F
100
AcDbEntity
  8
0
  6
Continuous
 62
     7
370
    15
100
AcDbLine
 10
106.468750143
 20
119.7975152508
 30
0.0
 11
108.4713171958
 21
119.7975152508
 31
0.0
  0
LINE
  5
281
330
1F
100
AcDbEntity
  8
0
  6
Continuous
 62
     7
370
    15
100
AcDbLine
 10
106.468750143
 20
118.9225152238
 30
0.0
 11
108.4713171958
 21
118.9225152238
 31
0.0
  0
LINE
  5
282
330
1F
100
AcDbEntity
  8
0
  6
Continuous
 62
     7
370
    15
100
AcDbLine
 10
108.4713171958
 20
118.7975152033
 30
0.0
 11
106.468750143
 21
118.7975152033
 31
0.0
  0
LINE
  5
283
330
1F
100
AcDbEntity
  8
0
  6
Continuous
 62
     7
370
    15
100
AcDbLine
 10
72.5041013002
 20
119.6725152448
 30
0.0
 11
72.0218997239
 21
119.6725152448
 31
0.0
  0
LINE
  5
284
330
1F
100
AcDbEntity
  8
0
  6
Continuous
 62
     7
370
    15
100
AcDbLine
 10
72.0218997239
 20
119.6725152448
 30
0.0
 11
72.0218997239
 21
119.7975152508
 31
0.0
  0
LINE
  5
285
330
1F
100
AcDbEntity
  8
0
  6
Continuous
 62
     7
370
    15
100
AcDbLine
 10
72.0218997239
 20
119.7975152508
 30
0.0
 11
72.6246516942
 21
119.7975152508
 31
0.0
  0
LINE
  5
286
330
1F
100
AcDbEntity
  8
0
  6
Continuous
 62
     7
370
    15
100
AcDbLine
 10
72.0218997239
 20
118.9225152238
 30
0.0
 11
72.5041013002
 21
118.9225152238
 31
0.0
  0
LINE
  5
287
330
1F
100
AcDbEntity
  8
0
  6
Continuous
 62
     7
370
    15
100
AcDbLine
 10
72.0218997239
 20
118.9225152238
 30
0.0
 11
72.0218997239
 21
119.6725152448
 31
0.0
  0
LINE
  5
288
330
1F
100
AcDbEntity
  8
0
  6
Continuous
 62
     7
370
    15
100
AcDbLine
 10
72.0218997239
 20
118.7975152033
 30
0.0
 11
72.0218997239
 21
118.9225152238
 31
0.0
  0
LINE
  5
289
330
1F
100
AcDbEntity
  8
0
  6
Continuous
 62
     7
370
    15
100
AcDbLine
 10
72.6246516942
 20
118.7975152033
 30
0.0
 11
72.0218997239
 21
118.7975152033
 31
0.0
  0
LINE
  5
28A
330
1F
100
AcDbEntity
  8
0
  6
Continuous
 62
     7
370
    15
100
AcDbLine
 10
71.1057465314
 20
119.6725152448
 30
0.0
 11
70.6647243141
 21
119.6725152448
 31
0.0
  0
LINE
  5
28B
330
1F
100
AcDbEntity
  8
0
  6
Continuous
 62
     7
370
    15
100
AcDbLine
 10
71.1057465314
 20
119.6725152448
 30
0.0
 11
71.1057465314
 21
119.7975152508
 31
0.0
  0
LINE
  5
28C
330
1F
100
AcDbEntity
  8
0
  6
Continuous
 62
     7
370
    15
100
AcDbLine
 10
70.5544706225
 20
119.7975152508
 30
0.0
 11
71.1057465314
 21
119.7975152508
 31
0.0
  0
LINE
  5
28D
330
1F
100
AcDbEntity
  8
0
  6
Continuous
 62
     7
370
    15
100
AcDbLine
 10
70.6647243141
 20
118.9225152238
 30
0.0
 11
71.1057465314
 21
118.9225152238
 31
0.0
  0
LINE
  5
28E
330
1F
100
AcDbEntity
  8
0
  6
Continuous
 62
     7
370
    15
100
AcDbLine
 10
71.1057465314
 20
118.9225152238
 30
0.0
 11
71.1057465314
 21
119.6725152448
 31
0.0
  0
LINE
  5
28F
330
1F
100
AcDbEntity
  8
0
  6
Continuous
 62
     7
370
    15
100
AcDbLine
 10
71.1057465314
 20
118.7975152033
 30
0.0
 11
71.1057465314
 21
118.9225152238
 31
0.0
  0
LINE
  5
290
330
1F
100
AcDbEntity
  8
0
  6
Continuous
 62
     7
370
    15
100
AcDbLine
 10
71.1057465314
 20
118.7975152033
 30
0.0
 11
70.5544706225
 21
118.7975152033
 31
0.0
  0
LINE
  5
291
330
1F
100
AcDbEntity
  8
0
  6
Continuous
 62
     7
370
    15
100
AcDbLine
 10
66.3724299311
 20
119.6725152448
 30
0.0
 11
65.9321453213
 21
119.6725152448
 31
0.0
  0
LINE
  5
292
330
1F
100
AcDbEntity
  8
0
  6
Continuous
 62
     7
370
    15
100
AcDbLine
 10
65.9321453213
 20
119.6725152448
 30
0.0
 11
65.9338291525
 21
119.7975152508
 31
0.0
  0
LINE
  5
293
330
1F
100
AcDbEntity
  8
0
  6
Continuous
 62
     7
370
    15
100
AcDbLine
 10
65.9338291525
 20
119.7975152508
 30
0.0
 11
66.48418864
 21
119.7975152508
 31
0.0
  0
LINE
  5
294
330
1F
100
AcDbEntity
  8
0
  6
Continuous
 62
     7
370
    15
100
AcDbLine
 10
65.9321453213
 20
118.9225152238
 30
0.0
 11
66.3724299311
 21
118.9225152238
 31
0.0
  0
LINE
  5
295
330
1F
100
AcDbEntity
  8
0
  6
Continuous
 62
     7
370
    15
100
AcDbLine
 10
65.9321453213
 20
118.9225152238
 30
0.0
 11
65.9321453213
 21
119.6725152448
 31
0.0
  0
LINE
  5
296
330
1F
100
AcDbEntity
  8
0
  6
Continuous
 62
     7
370
    15
100
AcDbLine
 10
65.9338291525
 20
118.7975152033
 30
0.0
 11
65.9321453213
 21
118.9225152238
 31
0.0
  0
LINE
  5
297
330
1F
100
AcDbEntity
  8
0
  6
Continuous
 62
     7
370
    15
100
AcDbLine
 10
66.48418864
 20
118.7975152033
 30
0.0
 11
65.9338291525
 21
118.7975152033
 31
0.0
  0
LINE
  5
298
330
1F
100
AcDbEntity
  8
0
  6
Continuous
 62
     7
370
    15
100
AcDbLine
 10
140.706460902
 20
119.6725152448
 30
0.0
 11
140.2174327313
 21
119.6725152448
 31
0.0
  0
LINE
  5
299
330
1F
100
AcDbEntity
  8
0
  6
Continuous
 62
     7
370
    15
100
AcDbLine
 10
140.706460902
 20
119.6725152448
 30
0.0
 11
140.706460902
 21
119.7975152508
 31
0.0
  0
LINE
  5
29A
330
1F
100
AcDbEntity
  8
0
  6
Continuous
 62
     7
370
    15
100
AcDbLine
 10
140.0951761543
 20
119.7975152508
 30
0.0
 11
140.706460902
 21
119.7975152508
 31
0.0
  0
LINE
  5
29B
330
1F
100
AcDbEntity
  8
0
  6
Continuous
 62
     7
370
    15
100
AcDbLine
 10
140.2174327313
 20
118.9225152238
 30
0.0
 11
140.706460902
 21
118.9225152238
 31
0.0
  0
LINE
  5
29C
330
1F
100
AcDbEntity
  8
0
  6
Continuous
 62
     7
370
    15
100
AcDbLine
 10
140.706460902
 20
118.9225152238
 30
0.0
 11
140.706460902
 21
119.6725152448
 31
0.0
  0
LINE
  5
29D
330
1F
100
AcDbEntity
  8
0
  6
Continuous
 62
     7
370
    15
100
AcDbLine
 10
140.706460902
 20
118.7975152033
 30
0.0
 11
140.706460902
 21
118.9225152238
 31
0.0
  0
LINE
  5
29E
330
1F
100
AcDbEntity
  8
0
  6
Continuous
 62
     7
370
    15
100
AcDbLine
 10
140.706460902
 20
118.7975152033
 30
0.0
 11
140.0951761543
 21
118.7975152033
 31
0.0
  0
LINE
  5
29F
330
1F
100
AcDbEntity
  8
0
  6
Continuous
 62
     7
370
    15
100
AcDbLine
 10
156.6901649139
 20
119.6725152448
 30
0.0
 11
155.7407444134
 21
119.6725152448
 31
0.0
  0
LINE
  5
2A0
330
1F
100
AcDbEntity
  8
0
  6
Continuous
 62
     7
370
    15
100
AcDbLine
 10
155.6225977629
 20
119.7975152508
 30
0.0
 11
156.8093732721
 21
119.7975152508
 31
0.0
  0
LINE
  5
2A1
330
1F
100
AcDbEntity
  8
0
  6
Continuous
 62
     7
370
    15
100
AcDbLine
 10
155.7407444134
 20
118.9225152238
 30
0.0
 11
156.6901649139
 21
118.9225152238
 31
0.0
  0
LINE
  5
2A2
330
1F
100
AcDbEntity
  8
0
  6
Continuous
 62
     7
370
    15
100
AcDbLine
 10
156.8093732721
 20
118.7975152033
 30
0.0
 11
155.6225977629
 21
118.7975152033
 31
0.0
  0
LINE
  5
2A3
330
1F
100
AcDbEntity
  8
0
  6
Continuous
 62
     7
370
    15
100
AcDbLine
 10
149.1009741812
 20
119.6725152448
 30
0.0
 11
148.6307903915
 21
119.6725152448
 31
0.0
  0
LINE
  5
2A4
330
1F
100
AcDbEntity
  8
0
  6
Continuous
 62
     7
370
    15
100
AcDbLine
 10
148.6307903915
 20
119.7975152508
 30
0.0
 11
148.6307903915
 21
119.6725152448
 31
0.0
  0
LINE
  5
2A5
330
1F
100
AcDbEntity
  8
0
  6
Continuous
 62
     7
370
    15
100
AcDbLine
 10
148.6307903915
 20
119.7975152508
 30
0.0
 11
149.21852106
 21
119.7975152508
 31
0.0
  0
LINE
  5
2A6
330
1F
100
AcDbEntity
  8
0
  6
Continuous
 62
     7
370
    15
100
AcDbLine
 10
148.6307903915
 20
118.9225152238
 30
0.0
 11
149.1009741812
 21
118.9225152238
 31
0.0
  0
LINE
  5
2A7
330
1F
100
AcDbEntity
  8
0
  6
Continuous
 62
     7
370
    15
100
AcDbLine
 10
148.6307903915
 20
118.9225152238
 30
0.0
 11
148.6307903915
 21
119.6725152448
 31
0.0
  0
LINE
  5
2A8
330
1F
100
AcDbEntity
  8
0
  6
Continuous
 62
     7
370
    15
100
AcDbLine
 10
148.6307903915
 20
118.9225152238
 30
0.0
 11
148.6307903915
 21
118.7975152033
 31
0.0
  0
LINE
  5
2A9
330
1F
100
AcDbEntity
  8
0
  6
Continuous
 62
     7
370
    15
100
AcDbLine
 10
149.21852106
 20
118.7975152033
 30
0.0
 11
148.6307903915
 21
118.7975152033
 31
0.0
  0
LINE
  5
2AA
330
1F
100
AcDbEntity
  8
0
  6
Continuous
 62
     7
370
    15
100
AcDbLine
 10
142.2510202765
 20
119.6725152448
 30
0.0
 11
141.7947876989
 21
119.6725152448
 31
0.0
  0
LINE
  5
2AB
330
1F
100
AcDbEntity
  8
0
  6
Continuous
 62
     7
370
    15
100
AcDbLine
 10
141.7947876989
 20
119.6725152448
 30
0.0
 11
141.7947876989
 21
119.7975152508
 31
0.0
  0
LINE
  5
2AC
330
1F
100
AcDbEntity
  8
0
  6
Continuous
 62
     7
370
    15
100
AcDbLine
 10
141.7947876989
 20
119.7975152508
 30
0.0
 11
142.3650774895
 21
119.7975152508
 31
0.0
  0
LINE
  5
2AD
330
1F
100
AcDbEntity
  8
0
  6
Continuous
 62
     7
370
    15
100
AcDbLine
 10
146.8039732217
 20
119.7975152508
 30
0.0
 11
146.8039732217
 21
119.6725152448
 31
0.0
  0
LINE
  5
2AE
330
1F
100
AcDbEntity
  8
0
  6
Continuous
 62
     7
370
    15
100
AcDbLine
 10
146.8039732217
 20
119.6725152448
 30
0.0
 11
146.3477425068
 21
119.6725152448
 31
0.0
  0
LINE
  5
2AF
330
1F
100
AcDbEntity
  8
0
  6
Continuous
 62
     7
370
    15
100
AcDbLine
 10
146.2336852937
 20
119.7975152508
 30
0.0
 11
146.8039732217
 21
119.7975152508
 31
0.0
  0
LINE
  5
2B0
330
1F
100
AcDbEntity
  8
0
  6
Continuous
 62
     7
370
    15
100
AcDbLine
 10
146.3477425068
 20
118.9225152238
 30
0.0
 11
146.8039732217
 21
118.9225152238
 31
0.0
  0
LINE
  5
2B1
330
1F
100
AcDbEntity
  8
0
  6
Continuous
 62
     7
370
    15
100
AcDbLine
 10
146.8039732217
 20
118.9225152238
 30
0.0
 11
146.8039732217
 21
119.6725152448
 31
0.0
  0
LINE
  5
2B2
330
1F
100
AcDbEntity
  8
0
  6
Continuous
 62
     7
370
    15
100
AcDbLine
 10
141.7947876989
 20
118.9225152238
 30
0.0
 11
142.2510202765
 21
118.9225152238
 31
0.0
  0
LINE
  5
2B3
330
1F
100
AcDbEntity
  8
0
  6
Continuous
 62
     7
370
    15
100
AcDbLine
 10
141.7947876989
 20
118.9225152238
 30
0.0
 11
141.7947876989
 21
119.6725152448
 31
0.0
  0
LINE
  5
2B4
330
1F
100
AcDbEntity
  8
0
  6
Continuous
 62
     7
370
    15
100
AcDbLine
 10
146.8039732217
 20
118.7975152033
 30
0.0
 11
146.8039732217
 21
118.9225152238
 31
0.0
  0
LINE
  5
2B5
330
1F
100
AcDbEntity
  8
0
  6
Continuous
 62
     7
370
    15
100
AcDbLine
 10
146.8039732217
 20
118.7975152033
 30
0.0
 11
146.2336852937
 21
118.7975152033
 31
0.0
  0
LINE
  5
2B6
330
1F
100
AcDbEntity
  8
0
  6
Continuous
 62
     7
370
    15
100
AcDbLine
 10
141.7947876989
 20
118.7975152033
 30
0.0
 11
141.7947876989
 21
118.9225152238
 31
0.0
  0
LINE
  5
2B7
330
1F
100
AcDbEntity
  8
0
  6
Continuous
 62
     7
370
    15
100
AcDbLine
 10
142.3650774895
 20
118.7975152033
 30
0.0
 11
141.7947876989
 21
118.7975152033
 31
0.0
  0
LINE
  5
2B8
330
1F
100
AcDbEntity
  8
0
  6
Continuous
 62
     7
370
    15
100
AcDbLine
 10
72.0218997239
 20
119.6725152448
 30
0.0
 11
71.1057465314
 21
119.6725152448
 31
0.0
  0
LINE
  5
2B9
330
1F
100
AcDbEntity
  8
0
  6
Continuous
 62
     7
370
    15
100
AcDbLine
 10
71.1057465314
 20
119.7975152508
 30
0.0
 11
72.0218997239
 21
119.7975152508
 31
0.0
  0
LINE
  5
2BA
330
1F
100
AcDbEntity
  8
0
  6
Continuous
 62
     7
370
    15
100
AcDbLine
 10
71.1057465314
 20
118.9225152238
 30
0.0
 11
72.0218997239
 21
118.9225152238
 31
0.0
  0
LINE
  5
2BB
330
1F
100
AcDbEntity
  8
0
  6
Continuous
 62
     7
370
    15
100
AcDbLine
 10
72.0218997239
 20
118.7975152033
 30
0.0
 11
71.1057465314
 21
118.7975152033
 31
0.0
  0
LINE
  5
2BC
330
1F
100
AcDbEntity
  8
0
  6
Continuous
 62
     7
370
    15
100
AcDbLine
 10
65.9321453213
 20
119.6725152448
 30
0.0
 11
42.6817592024
 21
119.6725152448
 31
0.0
  0
LINE
  5
2BD
330
1F
100
AcDbEntity
  8
0
  6
Continuous
 62
     7
370
    15
100
AcDbLine
 10
42.6817592024
 20
119.6725152448
 30
0.0
 11
42.6834430336
 21
119.7975152508
 31
0.0
  0
LINE
  5
2BE
330
1F
100
AcDbEntity
  8
0
  6
Continuous
 62
     7
370
    15
100
AcDbLine
 10
42.6834430336
 20
119.7975152508
 30
0.0
 11
65.9338291525
 21
119.7975152508
 31
0.0
  0
LINE
  5
2BF
330
1F
100
AcDbEntity
  8
0
  6
Continuous
 62
     7
370
    15
100
AcDbLine
 10
42.6817592024
 20
118.9225152238
 30
0.0
 11
65.9321453213
 21
118.9225152238
 31
0.0
  0
LINE
  5
2C0
330
1F
100
AcDbEntity
  8
0
  6
Continuous
 62
     7
370
    15
100
AcDbLine
 10
42.6817592024
 20
118.9225152238
 30
0.0
 11
42.6817592024
 21
119.6725152448
 31
0.0
  0
LINE
  5
2C1
330
1F
100
AcDbEntity
  8
0
  6
Continuous
 62
     7
370
    15
100
AcDbLine
 10
42.6834430336
 20
118.7975152033
 30
0.0
 11
42.6817592024
 21
118.9225152238
 31
0.0
  0
LINE
  5
2C2
330
1F
100
AcDbEntity
  8
0
  6
Continuous
 62
     7
370
    15
100
AcDbLine
 10
65.9338291525
 20
118.7975152033
 30
0.0
 11
42.6834430336
 21
118.7975152033
 31
0.0
  0
LINE
  5
2C3
330
1F
100
AcDbEntity
  8
0
  6
Continuous
 62
     7
370
    15
100
AcDbLine
 10
148.6307903915
 20
119.6725152448
 30
0.0
 11
146.8039732217
 21
119.6725152448
 31
0.0
  0
LINE
  5
2C4
330
1F
100
AcDbEntity
  8
0
  6
Continuous
 62
     7
370
    15
100
AcDbLine
 10
146.8039732217
 20
119.7975152508
 30
0.0
 11
148.6307903915
 21
119.7975152508
 31
0.0
  0
LINE
  5
2C5
330
1F
100
AcDbEntity
  8
0
  6
Continuous
 62
     7
370
    15
100
AcDbLine
 10
146.8039732217
 20
118.9225152238
 30
0.0
 11
148.6307903915
 21
118.9225152238
 31
0.0
  0
LINE
  5
2C6
330
1F
100
AcDbEntity
  8
0
  6
Continuous
 62
     7
370
    15
100
AcDbLine
 10
141.7947876989
 20
119.6725152448
 30
0.0
 11
140.706460902
 21
119.6725152448
 31
0.0
  0
LINE
  5
2C7
330
1F
100
AcDbEntity
  8
0
  6
Continuous
 62
     7
370
    15
100
AcDbLine
 10
140.706460902
 20
119.7975152508
 30
0.0
 11
141.7947876989
 21
119.7975152508
 31
0.0
  0
LINE
  5
2C8
330
1F
100
AcDbEntity
  8
0
  6
Continuous
 62
     7
370
    15
100
AcDbLine
 10
140.706460902
 20
118.9225152238
 30
0.0
 11
141.7947876989
 21
118.9225152238
 31
0.0
  0
LINE
  5
2C9
330
1F
100
AcDbEntity
  8
0
  6
Continuous
 62
     7
370
    15
100
AcDbLine
 10
148.6307903915
 20
118.7975152033
 30
0.0
 11
146.8039732217
 21
118.7975152033
 31
0.0
  0
LINE
  5
2CA
330
1F
100
AcDbEntity
  8
0
  6
Continuous
 62
     7
370
    15
100
AcDbLine
 10
141.7947876989
 20
118.7975152033
 30
0.0
 11
140.706460902
 21
118.7975152033
 31
0.0
  0
SPLINE
  5
2CB
330
1F
100
AcDbEntity
  8
0
  6
Continuous
 62
     7
370
    15
100
AcDbSpline
210
0.0
220
0.0
230
1.0
 70
    24
 71
     3
 72
     8
 73
     4
 74
     0
 42
0.00000001
 43
0.00000001
 12
1.0
 22
0.0
 32
0.0
 13
1.0
 23
0.0
 33
0.0
 40
0.0
 40
0.0
 40
0.0
 40
0.0
 40
1.0
 40
1.0
 40
1.0
 40
1.0
 10
42.68175589411111
 20
119.6725152507842
 30
0.0
 10
39.44481357991309
 20
119.6725152507842
 30
0.0
 10
36.22389862080396
 20
119.6725152507842
 30
0.0
 10
33.39050515561248
 20
119.6725152507842
 30
0.0
  0
SPLINE
  5
2CC
330
1F
100
AcDbEntity
  8
0
  6
Continuous
 62
     7
370
    15
100
AcDbSpline
210
0.0
220
0.0
230
1.0
 70
     8
 71
     3
 72
     8
 73
     4
 74
     0
 42
0.00000001
 43
0.00000001
 12
1.0
 22
0.0
 32
0.0
 13
1.0
 23
0.0
 33
0.0
 40
0.0
 40
0.0
 40
0.0
 40
0.0
 40
1.0
 40
1.0
 40
1.0
 40
1.0
 10
33.39050515561248
 20
119.6725152507842
 30
0.0
 10
33.47810352354966
 20
119.7142144066146
 30
0.0
 10
33.56551801114016
 20
119.7559135624449
 30
0.0
 10
33.65273041673014
 20
119.7976127182752
 30
0.0
  0
SPLINE
  5
2CD
330
1F
100
AcDbEntity
  8
0
  6
Continuous
 62
     7
370
    15
100
AcDbSpline
210
0.0
220
0.0
230
1.0
 70
     8
 71
     3
 72
     8
 73
     4
 74
     0
 42
0.00000001
 43
0.00000001
 12
1.0
 22
0.0
 32
0.0
 13
1.0
 23
0.0
 33
0.0
 40
0.0
 40
0.0
 40
0.0
 40
0.0
 40
1.0
 40
1.0
 40
1.0
 40
1.0
 10
33.39050515561248
 20
118.9225152507842
 30
0.0
 10
33.47812264313943
 20
118.8808485841176
 30
0.0
 10
33.56551802585852
 20
118.8391819174509
 30
0.0
 10
33.65268415764883
 20
118.7975152507842
 30
0.0
  0
SPLINE
  5
2CE
330
1F
100
AcDbEntity
  8
0
  6
Continuous
 62
     7
370
    15
100
AcDbSpline
210
0.0
220
0.0
230
1.0
 70
    24
 71
     3
 72
     8
 73
     4
 74
     0
 42
0.00000001
 43
0.00000001
 12
1.0
 22
0.0
 32
0.0
 13
1.0
 23
0.0
 33
0.0
 40
0.0
 40
0.0
 40
0.0
 40
0.0
 40
1.0
 40
1.0
 40
1.0
 40
1.0
 10
33.39050515561248
 20
118.9225152507842
 30
0.0
 10
36.22389862080396
 20
118.9225152507842
 30
0.0
 10
39.44481357991309
 20
118.9225152507842
 30
0.0
 10
42.68175589411111
 20
118.9225152507842
 30
0.0
  0
LINE
  5
2CF
330
1F
100
AcDbEntity
  8
0
  6
Continuous
 62
     7
370
    15
100
AcDbLine
 10
33.3904977679
 20
118.9225152238
 30
0.0
 11
33.3904977679
 21
119.6725152448
 31
0.0
  0
ENDSEC
  0
SECTION
  2
OBJECTS
  0
DICTIONARY
  5
C
330
0
100
AcDbDictionary
281
     1
  3
ACAD_GROUP
350
D
  3
ACAD_LAYOUT
350
1A
  3
ACAD_MLINESTYLE
350
17
  3
ACAD_PLOTSETTINGS
350
19
  3
ACAD_PLOTSTYLENAME
350
E
  0
DICTIONARY
  5
D
102
{ACAD_REACTORS
330
C
102
}
330
C
100
AcDbDictionary
281
     1
  0
DICTIONARY
  5
1A
102
{ACAD_REACTORS
330
C
102
}
330
C
100
AcDbDictionary
281
     1
  3
Layout1
350
1E
  3
Layout2
350
26
  3
Model
350
22
  0
DICTIONARY
  5
17
102
{ACAD_REACTORS
330
C
102
}
330
C
100
AcDbDictionary
281
     1
  3
Standard
350
18
  0
DICTIONARY
  5
19
102
{ACAD_REACTORS
330
C
102
}
330
C
100
AcDbDictionary
281
     1
  0
ACDBDICTIONARYWDFLT
  5
E
102
{ACAD_REACTORS
330
C
102
}
330
C
100
AcDbDictionary
281
     1
  3
Normal
350
F
100
AcDbDictionaryWithDefault
340
F
  0
LAYOUT
  5
1E
102
{ACAD_REACTORS
330
1A
102
}
330
1A
100
AcDbPlotSettings
  1

  2
none_device
  4

  6

 40
0.0
 41
0.0
 42
0.0
 43
0.0
 44
0.0
 45
0.0
 46
0.0
 47
0.0
 48
0.0
 49
0.0
140
0.0
141
0.0
142
1.0
143
1.0
 70
   688
 72
     0
 73
     0
 74
     5
  7

 75
    16
147
1.0
148
0.0
149
0.0
100
AcDbLayout
  1
Layout1
 70
     1
 71
     1
 10
0.0
 20
0.0
 11
420.0
 21
297.0
 12
0.0
 22
0.0
 32
0.0
 14
1.0000000000E+20
 24
1.0000000000E+20
 34
1.0000000000E+20
 15
-1.0000000000E+20
 25
-1.0000000000E+20
 35
-1.0000000000E+20
146
0.0
 13
0.0
 23
0.0
 33
0.0
 16
1.0
 26
0.0
 36
0.0
 17
0.0
 27
1.0
 37
0.0
 76
     0
330
1B
  0
LAYOUT
  5
26
102
{ACAD_REACTORS
330
1A
102
}
330
1A
100
AcDbPlotSettings
  1

  2
none_device
  4

  6

 40
0.0
 41
0.0
 42
0.0
 43
0.0
 44
0.0
 45
0.0
 46
0.0
 47
0.0
 48
0.0
 49
0.0
140
0.0
141
0.0
142
1.0
143
1.0
 70
   688
 72
     0
 73
     0
 74
     5
  7

 75
    16
147
1.0
148
0.0
149
0.0
100
AcDbLayout
  1
Layout2
 70
     1
 71
     2
 10
0.0
 20
0.0
 11
0.0
 21
0.0
 12
0.0
 22
0.0
 32
0.0
 14
0.0
 24
0.0
 34
0.0
 15
0.0
 25
0.0
 35
0.0
146
0.0
 13
0.0
 23
0.0
 33
0.0
 16
1.0
 26
0.0
 36
0.0
 17
0.0
 27
1.0
 37
0.0
 76
     0
330
23
  0
LAYOUT
  5
22
102
{ACAD_REACTORS
330
1A
102
}
330
1A
100
AcDbPlotSettings
  1

  2
none_device
  4

  6

 40
0.0
 41
0.0
 42
0.0
 43
0.0
 44
0.0
 45
0.0
 46
0.0
 47
0.0
 48
0.0
 49
0.0
140
0.0
141
0.0
142
1.0
143
1.0
 70
  1712
 72
     0
 73
     0
 74
     0
  7

 75
     0
147
1.0
148
0.0
149
0.0
100
AcDbLayout
  1
Model
 70
     1
 71
     0
 10
0.0
 20
0.0
 11
279.4
 21
215.9
 12
0.0
 22
0.0
 32
0.0
 14
0.0
 24
0.0
 34
0.0
 15
279.4
 25
215.9
 35
0.0
146
0.0
 13
0.0
 23
0.0
 33
0.0
 16
1.0
 26
0.0
 36
0.0
 17
0.0
 27
1.0
 37
0.0
 76
     0
330
1F
331
29
  0
MLINESTYLE
  5
18
102
{ACAD_REACTORS
330
17
102
}
330
17
100
AcDbMlineStyle
  2
Standard
 70
     0
  3

 62
   256
 51
90.0
 52
90.0
 71
     2
 49
0.5
 62
   256
  6
BYLAYER
 49
-0.5
 62
   256
  6
BYLAYER
  0
ACDBPLACEHOLDER
  5
F
102
{ACAD_REACTORS
330
E
102
}
330
E
  0
ENDSEC
  0
EOF
