  0
SECTION
  2
HEADER
  9
$ACADVER
  1
AC1015
  9
$ACADMAINTVER
 70
     6
  9
$DWGCODEPAGE
  3
ANSI_1251
  9
$INSBASE
 10
0.0
 20
0.0
 30
0.0
  9
$EXTMIN
 10
0.0
 20
0.0
 30
0.0
  9
$EXTMAX
 10
279.4
 20
215.9
 30
0.0
  9
$LIMMIN
 10
0.0
 20
0.0
  9
$LIMMAX
 10
279.4
 20
215.9
  9
$ORTHOMODE
 70
     0
  9
$REGENMODE
 70
     1
  9
$FILLMODE
 70
     1
  9
$QTEXTMODE
 70
     0
  9
$MIRRTEXT
 70
     1
  9
$LTSCALE
 40
1.0
  9
$ATTMODE
 70
     1
  9
$TEXTSIZE
 40
3.5
  9
$TRACEWID
 40
1.0
  9
$TEXTSTYLE
  7
Standard
  9
$CLAYER
  8
0
  9
$CELTYPE
  6
ByLayer
  9
$CECOLOR
 62
   256
  9
$CELTSCALE
 40
1.0
  9
$DISPSILH
 70
     0
  9
$DIMSCALE
 40
1.0
  9
$DIMASZ
 40
3.5
  9
$DIMEXO
 40
0.01
  9
$DIMDLI
 40
3.75
  9
$DIMRND
 40
0.0
  9
$DIMDLE
 40
0.0
  9
$DIMEXE
 40
1.0
  9
$DIMTP
 40
0.0
  9
$DIMTM
 40
0.0
  9
$DIMTXT
 40
3.5
  9
$DIMCEN
 40
2.5
  9
$DIMTSZ
 40
0.0
  9
$DIMTOL
 70
     0
  9
$DIMLIM
 70
     0
  9
$DIMTIH
 70
     1
  9
$DIMTOH
 70
     1
  9
$DIMSE1
 70
     0
  9
$DIMSE2
 70
     0
  9
$DIMTAD
 70
     1
  9
$DIMZIN
 70
     0
  9
$DIMBLK
  1

  9
$DIMASO
 70
     1
  9
$DIMSHO
 70
     1
  9
$DIMPOST
  1

  9
$DIMAPOST
  1

  9
$DIMALT
 70
     0
  9
$DIMALTD
 70
     3
  9
$DIMALTF
 40
0.0393700787
  9
$DIMLFAC
 40
2.0
  9
$DIMTOFL
 70
     1
  9
$DIMTVP
 40
0.0
  9
$DIMTIX
 70
     0
  9
$DIMSOXD
 70
     0
  9
$DIMSAH
 70
     0
  9
$DIMBLK1
  1

  9
$DIMBLK2
  1

  9
$DIMSTYLE
  2
ISO-25
  9
$DIMCLRD
 70
     0
  9
$DIMCLRE
 70
     0
  9
$DIMCLRT
 70
     0
  9
$DIMTFAC
 40
1.0
  9
$DIMGAP
 40
3.0
  9
$DIMJUST
 70
     0
  9
$DIMSD1
 70
     0
  9
$DIMSD2
 70
     0
  9
$DIMTOLJ
 70
     0
  9
$DIMTZIN
 70
     0
  9
$DIMALTZ
 70
     0
  9
$DIMALTTZ
 70
     0
  9
$DIMUPT
 70
     0
  9
$DIMDEC
 70
     2
  9
$DIMTDEC
 70
     3
  9
$DIMALTU
 70
     2
  9
$DIMALTTD
 70
     3
  9
$DIMTXSTY
  7
Standard
  9
$DIMAUNIT
 70
     0
  9
$DIMADEC
 70
     2
  9
$DIMALTRND
 40
0.0
  9
$DIMAZIN
 70
     0
  9
$DIMDSEP
 70
    44
  9
$DIMATFIT
 70
     3
  9
$DIMFRAC
 70
     0
  9
$DIMLDRBLK
  1

  9
$DIMLUNIT
 70
     2
  9
$DIMLWD
 70
    -2
  9
$DIMLWE
 70
    -2
  9
$DIMTMOVE
 70
     0
  9
$LUNITS
 70
     2
  9
$LUPREC
 70
     2
  9
$SKETCHINC
 40
1.0
  9
$FILLETRAD
 40
10.0
  9
$AUNITS
 70
     0
  9
$AUPREC
 70
     2
  9
$MENU
  1
.
  9
$ELEVATION
 40
0.0
  9
$PELEVATION
 40
0.0
  9
$THICKNESS
 40
0.0
  9
$LIMCHECK
 70
     0
  9
$CHAMFERA
 40
10.0
  9
$CHAMFERB
 40
10.0
  9
$CHAMFERC
 40
20.0
  9
$CHAMFERD
 40
0.0
  9
$SKPOLY
 70
     0
  9
$TDCREATE
 40
2457408.669538843
  9
$TDUCREATE
 40
2457408.586205509
  9
$TDUPDATE
 40
2457408.669539202
  9
$TDUUPDATE
 40
2457408.586205868
  9
$TDINDWG
 40
0.0000000116
  9
$TDUSRTIMER
 40
0.0000000116
  9
$USRTIMER
 70
     1
  9
$ANGBASE
 50
0.0
  9
$ANGDIR
 70
     0
  9
$PDMODE
 70
     0
  9
$PDSIZE
 40
-1.0
  9
$PLINEWID
 40
0.0
  9
$SPLFRAME
 70
     0
  9
$SPLINETYPE
 70
     6
  9
$SPLINESEGS
 70
     8
  9
$HANDSEED
  5
E8
  9
$SURFTAB1
 70
     6
  9
$SURFTAB2
 70
     6
  9
$SURFTYPE
 70
     6
  9
$SURFU
 70
     6
  9
$SURFV
 70
     6
  9
$UCSBASE
  2

  9
$UCSNAME
  2

  9
$UCSORG
 10
0.0
 20
0.0
 30
0.0
  9
$UCSXDIR
 10
1.0
 20
0.0
 30
0.0
  9
$UCSYDIR
 10
0.0
 20
1.0
 30
0.0
  9
$UCSORTHOREF
  2

  9
$UCSORTHOVIEW
 70
     0
  9
$UCSORGTOP
 10
0.0
 20
0.0
 30
0.0
  9
$UCSORGBOTTOM
 10
0.0
 20
0.0
 30
0.0
  9
$UCSORGLEFT
 10
0.0
 20
0.0
 30
0.0
  9
$UCSORGRIGHT
 10
0.0
 20
0.0
 30
0.0
  9
$UCSORGFRONT
 10
0.0
 20
0.0
 30
0.0
  9
$UCSORGBACK
 10
0.0
 20
0.0
 30
0.0
  9
$PUCSBASE
  2

  9
$PUCSNAME
  2

  9
$PUCSORG
 10
0.0
 20
0.0
 30
0.0
  9
$PUCSXDIR
 10
1.0
 20
0.0
 30
0.0
  9
$PUCSYDIR
 10
0.0
 20
1.0
 30
0.0
  9
$PUCSORTHOREF
  2

  9
$PUCSORTHOVIEW
 70
     0
  9
$PUCSORGTOP
 10
0.0
 20
0.0
 30
0.0
  9
$PUCSORGBOTTOM
 10
0.0
 20
0.0
 30
0.0
  9
$PUCSORGLEFT
 10
0.0
 20
0.0
 30
0.0
  9
$PUCSORGRIGHT
 10
0.0
 20
0.0
 30
0.0
  9
$PUCSORGFRONT
 10
0.0
 20
0.0
 30
0.0
  9
$PUCSORGBACK
 10
0.0
 20
0.0
 30
0.0
  9
$USERI1
 70
     0
  9
$USERI2
 70
     0
  9
$USERI3
 70
     0
  9
$USERI4
 70
     0
  9
$USERI5
 70
     0
  9
$USERR1
 40
0.0
  9
$USERR2
 40
0.0
  9
$USERR3
 40
0.0
  9
$USERR4
 40
0.0
  9
$USERR5
 40
0.0
  9
$WORLDVIEW
 70
     1
  9
$SHADEDGE
 70
     3
  9
$SHADEDIF
 70
    70
  9
$TILEMODE
 70
     1
  9
$MAXACTVP
 70
    64
  9
$PINSBASE
 10
0.0
 20
0.0
 30
0.0
  9
$PLIMCHECK
 70
     0
  9
$PEXTMIN
 10
1.0000000000E+20
 20
1.0000000000E+20
 30
1.0000000000E+20
  9
$PEXTMAX
 10
-1.0000000000E+20
 20
-1.0000000000E+20
 30
-1.0000000000E+20
  9
$PLIMMIN
 10
0.0
 20
0.0
  9
$PLIMMAX
 10
420.0
 20
297.0
  9
$UNITMODE
 70
     0
  9
$VISRETAIN
 70
     1
  9
$PLINEGEN
 70
     0
  9
$PSLTSCALE
 70
     1
  9
$TREEDEPTH
 70
  3020
  9
$CMLSTYLE
  2
Standard
  9
$CMLJUST
 70
     0
  9
$CMLSCALE
 40
20.0
  9
$PROXYGRAPHICS
 70
     1
  9
$MEASUREMENT
 70
     1
  9
$CELWEIGHT
370
    -1
  9
$ENDCAPS
280
     0
  9
$JOINSTYLE
280
     0
  9
$LWDISPLAY
290
     1
  9
$INSUNITS
 70
     4
  9
$HYPERLINKBASE
  1

  9
$STYLESHEET
  1

  9
$XEDIT
290
     1
  9
$CEPSNTYPE
380
     0
  9
$PSTYLEMODE
290
     1
  9
$FINGERPRINTGUID
  2
{19BDF554-978B-4A65-BF72-DC807215321D}
  9
$VERSIONGUID
  2
{FAEB1C32-E019-11D5-929B-00C0DF256EC4}
  9
$EXTNAMES
290
     1
  9
$PSVPSCALE
 40
0.0
  9
$OLESTARTUP
290
     0
  0
ENDSEC
  0
SECTION
  2
CLASSES
  0
CLASS
  1
ACDBDICTIONARYWDFLT
  2
AcDbDictionaryWithDefault
  3
ObjectDBX Classes
 90
        0
280
     0
281
     0
  0
CLASS
  1
VISUALSTYLE
  2
AcDbVisualStyle
  3
ObjectDBX Classes
 90
     4095
280
     0
281
     0
  0
CLASS
  1
MATERIAL
  2
AcDbMaterial
  3
ObjectDBX Classes
 90
     1153
280
     0
281
     0
  0
CLASS
  1
ACDBPLACEHOLDER
  2
AcDbPlaceHolder
  3
ObjectDBX Classes
 90
        0
280
     0
281
     0
  0
CLASS
  1
LAYOUT
  2
AcDbLayout
  3
ObjectDBX Classes
 90
        0
280
     0
281
     0
  0
ENDSEC
  0
SECTION
  2
TABLES
  0
TABLE
  2
VPORT
  5
8
330
0
100
AcDbSymbolTable
 70
     1
  0
VPORT
  5
29
330
8
100
AcDbSymbolTableRecord
100
AcDbViewportTableRecord
  2
*Active
 70
     0
 10
0.0
 20
0.0
 11
1.0
 21
1.0
 12
139.7
 22
107.95
 13
0.0
 23
0.0
 14
10.0
 24
10.0
 15
10.0
 25
10.0
 16
0.0
 26
0.0
 36
1.0
 17
0.0
 27
0.0
 37
0.0
 40
215.9
 41
1.2941176471
 42
50.0
 43
0.0
 44
0.0
 50
0.0
 51
0.0
 71
     0
 72
  2000
 73
     1
 74
     3
 75
     0
 76
     0
 77
     0
 78
     0
281
     0
 65
     1
110
0.0
120
0.0
130
0.0
111
1.0
121
0.0
131
0.0
112
0.0
122
1.0
132
0.0
 79
     0
146
0.0
  0
ENDTAB
  0
TABLE
  2
LTYPE
  5
5
330
0
100
AcDbSymbolTable
 70
     6
  0
LTYPE
  5
14
330
5
100
AcDbSymbolTableRecord
100
AcDbLinetypeTableRecord
  2
ByBlock
 70
     0
  3

 72
    65
 73
     0
 40
0.0
  0
LTYPE
  5
15
330
5
100
AcDbSymbolTableRecord
100
AcDbLinetypeTableRecord
  2
ByLayer
 70
     0
  3

 72
    65
 73
     0
 40
0.0
  0
LTYPE
  5
16
330
5
100
AcDbSymbolTableRecord
100
AcDbLinetypeTableRecord
  2
Continuous
 70
     0
  3
Solid line
 72
    65
 73
     0
 40
0.0
  0
LTYPE
  5
3F
330
5
100
AcDbSymbolTableRecord
100
AcDbLinetypeTableRecord
  2
HIDDEN
 70
     0
  3
Hidden __ __ __ __ __ __ __ __ __ __ __ __ __ __
 72
    65
 73
     2
 40
1.905
 49
1.27
 74
     0
 49
-0.635
 74
     0
  0
LTYPE
  5
40
330
5
100
AcDbSymbolTableRecord
100
AcDbLinetypeTableRecord
  2
PHANTOM
 70
     0
  3
Phantom ______  __  __  ______  __  __  ______
 72
    65
 73
     6
 40
12.7
 49
6.35
 74
     0
 49
-1.27
 74
     0
 49
1.27
 74
     0
 49
-1.27
 74
     0
 49
1.27
 74
     0
 49
-1.27
 74
     0
  0
LTYPE
  5
41
330
5
100
AcDbSymbolTableRecord
100
AcDbLinetypeTableRecord
  2
CENTER
 70
     0
  3
Center ____ _ ____ _ ____ _ ____ _ ____ _ ____
 72
    65
 73
     4
 40
10.16
 49
6.35
 74
     0
 49
-1.27
 74
     0
 49
1.27
 74
     0
 49
-1.27
 74
     0
  0
LTYPE
  5
42
330
5
100
AcDbSymbolTableRecord
100
AcDbLinetypeTableRecord
  2
CENTERX2
 70
     0
  3
Center (2x) ________  __  ________  __  _____
 72
    65
 73
     4
 40
20.32
 49
12.7
 74
     0
 49
-2.54
 74
     0
 49
2.54
 74
     0
 49
-2.54
 74
     0
  0
LTYPE
  5
43
330
5
100
AcDbSymbolTableRecord
100
AcDbLinetypeTableRecord
  2
DOT2
 70
     0
  3
Dot (.5x) ........................................
 72
    65
 73
     2
 40
0.635
 49
0.0
 74
     0
 49
-0.635
 74
     0
  0
ENDTAB
  0
TABLE
  2
LAYER
  5
2
330
0
100
AcDbSymbolTable
 70
     1
  0
LAYER
  5
10
330
2
100
AcDbSymbolTableRecord
100
AcDbLayerTableRecord
  2
0
 70
     0
 62
     7
  6
Continuous
370
    -3
390
F
  0
ENDTAB
  0
TABLE
  2
STYLE
  5
3
330
0
100
AcDbSymbolTable
 70
     1
  0
STYLE
  5
11
330
3
100
AcDbSymbolTableRecord
100
AcDbTextStyleTableRecord
  2
Standard
 70
     0
 40
0.0
 41
1.0
 50
0.0
 71
     0
 42
3.5
  3
txt
  4

  0
ENDTAB
  0
TABLE
  2
VIEW
  5
6
330
0
100
AcDbSymbolTable
 70
     0
  0
ENDTAB
  0
TABLE
  2
UCS
  5
7
330
0
100
AcDbSymbolTable
 70
     0
  0
ENDTAB
  0
TABLE
  2
APPID
  5
9
330
0
100
AcDbSymbolTable
 70
     1
  0
APPID
  5
12
330
9
100
AcDbSymbolTableRecord
100
AcDbRegAppTableRecord
  2
ACAD
 70
     0
  0
ENDTAB
  0
TABLE
  2
DIMSTYLE
  5
A
330
0
100
AcDbSymbolTable
 70
     1
100
AcDbDimStyleTable
  0
DIMSTYLE
105
27
330
A
100
AcDbSymbolTableRecord
100
AcDbDimStyleTableRecord
  2
ISO-25
 70
     0
 41
2.5
 42
0.625
 43
3.75
 44
1.25
 73
     0
 74
     0
 77
     1
 78
     8
140
2.5
141
2.5
143
0.0393700787
147
0.625
171
     3
172
     1
178
     0
271
     2
272
     2
274
     3
278
    44
283
     0
284
     8
340
11
  0
ENDTAB
  0
TABLE
  2
BLOCK_RECORD
  5
1
330
0
100
AcDbSymbolTable
 70
     1
  0
BLOCK_RECORD
  5
1F
330
1
100
AcDbSymbolTableRecord
100
AcDbBlockTableRecord
  2
*Model_Space
340
22
  0
BLOCK_RECORD
  5
1B
330
1
100
AcDbSymbolTableRecord
100
AcDbBlockTableRecord
  2
*Paper_Space
340
1E
  0
BLOCK_RECORD
  5
23
330
1
100
AcDbSymbolTableRecord
100
AcDbBlockTableRecord
  2
*Paper_Space0
340
26
  0
ENDTAB
  0
ENDSEC
  0
SECTION
  2
BLOCKS
  0
BLOCK
  5
20
330
1F
100
AcDbEntity
  8
0
100
AcDbBlockBegin
  2
*Model_Space
 70
     0
 10
0.0
 20
0.0
 30
0.0
  3
*Model_Space
  1

  0
ENDBLK
  5
21
330
1F
100
AcDbEntity
  8
0
100
AcDbBlockEnd
  0
BLOCK
  5
1C
330
1B
100
AcDbEntity
 67
     1
  8
0
100
AcDbBlockBegin
  2
*Paper_Space
 70
     0
 10
0.0
 20
0.0
 30
0.0
  3
*Paper_Space
  1

  0
ENDBLK
  5
1D
330
1B
100
AcDbEntity
 67
     1
  8
0
100
AcDbBlockEnd
  0
BLOCK
  5
24
330
23
100
AcDbEntity
  8
0
100
AcDbBlockBegin
  2
*Paper_Space0
 70
     0
 10
0.0
 20
0.0
 30
0.0
  3
*Paper_Space0
  1

  0
ENDBLK
  5
25
330
23
100
AcDbEntity
  8
0
100
AcDbBlockEnd
  0
ENDSEC
  0
SECTION
  2
ENTITIES
  0
ARC
  5
44
330
1F
100
AcDbEntity
  8
0
  6
Continuous
 62
     7
370
    15
100
AcDbCircle
 10
77.0884140866
 20
122.8178636273
 30
0.0
 40
40.00000000000001
100
AcDbArc
 50
199.4
 51
212.8746452026
  0
LINE
  5
45
330
1F
100
AcDbEntity
  8
0
  6
Continuous
 62
     7
370
    15
100
AcDbLine
 10
39.3595077686
 20
109.531418352
 30
0.0
 11
39.9961830628
 21
109.755627116
 31
0.0
  0
ARC
  5
46
330
1F
100
AcDbEntity
  8
0
  6
Continuous
 62
     7
370
    15
100
AcDbCircle
 10
77.0884140866
 20
122.8178636273
 30
0.0
 40
39.32499999999999
100
AcDbArc
 50
199.4
 51
213.230563303
  0
SPLINE
  5
47
330
1F
100
AcDbEntity
  8
0
  6
Continuous
 62
     7
370
    15
100
AcDbSpline
210
0.0
220
0.0
230
1.0
 70
    24
 71
     3
 72
    18
 73
    14
 74
     0
 42
0.00000001
 43
0.00000001
 12
1.0
 22
0.0
 32
0.0
 13
1.0
 23
0.0
 33
0.0
 40
0.0
 40
0.0
 40
0.0
 40
0.0
 40
0.2499999999999999
 40
0.2499999999999999
 40
0.3750000000000003
 40
0.3750000000000003
 40
0.5000000000000001
 40
0.5000000000000001
 40
0.6249999999999999
 40
0.6249999999999999
 40
0.7499999999999997
 40
0.7499999999999997
 40
1.0
 40
1.0
 40
1.0
 40
1.0
 10
44.19414845415615
 20
101.2673900013369
 30
0.0
 10
44.10448404813989
 20
101.2466893421116
 30
0.0
 10
44.01678617469089
 20
101.2264426927028
 30
0.0
 10
43.89141660648711
 20
101.1974988472694
 30
0.0
 10
43.85163405158448
 20
101.1883143207807
 30
0.0
 10
43.77607552659268
 20
101.1708702607917
 30
0.0
 10
43.73993210940503
 20
101.1625258954445
 30
0.0
 10
43.6740881639851
 20
101.1473246228689
 30
0.0
 10
43.64447253293351
 20
101.1404873156989
 30
0.0
 10
43.59198973280541
 20
101.1283707065682
 30
0.0
 10
43.56897723261962
 20
101.123057852277
 30
0.0
 10
43.51379771616205
 20
101.1103186571253
 30
0.0
 10
43.49400806958392
 20
101.1057498572168
 30
0.0
 10
43.49400806958392
 20
101.1057498572168
 30
0.0
  0
ARC
  5
48
330
1F
100
AcDbEntity
  8
0
  6
Continuous
 62
     7
370
    15
100
AcDbCircle
 10
75.4222122145
 20
117.4126992333
 30
0.0
 40
30.00000000000001
100
AcDbArc
 50
329.6465177285
 51
354.862151751
  0
LINE
  5
49
330
1F
100
AcDbEntity
  8
0
  6
Continuous
 62
     7
370
    15
100
AcDbLine
 10
105.3016760128
 20
114.7261320691
 30
0.0
 11
105.9739639483
 21
114.6656843079
 31
0.0
  0
ARC
  5
4A
330
1F
100
AcDbEntity
  8
0
  6
Continuous
 62
     7
370
    15
100
AcDbCircle
 10
75.4222122145
 20
117.4126992333
 30
0.0
 40
30.67500000000001
100
AcDbArc
 50
329.6741047251
 51
354.862151751
  0
SPLINE
  5
4B
330
1F
100
AcDbEntity
  8
0
  6
Continuous
 62
     7
370
    15
100
AcDbSpline
210
0.0
220
0.0
230
1.0
 70
    24
 71
     3
 72
    16
 73
    12
 74
     0
 42
0.00000001
 43
0.00000001
 12
1.0
 22
0.0
 32
0.0
 13
1.0
 23
0.0
 33
0.0
 40
0.0
 40
0.0
 40
0.0
 40
0.0
 40
0.2500000000000074
 40
0.2500000000000074
 40
0.3750000000000085
 40
0.3750000000000085
 40
0.5000000000000095
 40
0.5000000000000095
 40
0.7500000000000048
 40
0.7500000000000048
 40
1.0
 40
1.0
 40
1.0
 40
1.0
 10
101.899873351714
 20
101.9243460055999
 30
0.0
 10
101.8219792505577
 20
101.9677013061232
 30
0.0
 10
101.7455473459201
 20
102.0102427585045
 30
0.0
 10
101.6384378771792
 20
102.0698591240215
 30
0.0
 10
101.6045691645779
 20
102.0887102076256
 30
0.0
 10
101.5404672743325
 20
102.1243888620352
 30
0.0
 10
101.5101106735291
 20
102.1412851292898
 30
0.0
 10
101.4284807812745
 20
102.1867197444641
 30
0.0
 10
101.3845125325909
 20
102.2111921577388
 30
0.0
 10
101.3255972441047
 20
102.2439839866426
 30
0.0
 10
101.3099390363443
 20
102.2526992332791
 30
0.0
 10
101.3099390363443
 20
102.2526992332791
 30
0.0
  0
ARC
  5
4C
330
1F
100
AcDbEntity
  8
0
  6
Continuous
 62
     7
370
    15
100
AcDbCircle
 10
81.9633667233
 20
116.9126992333
 30
0.0
 40
40.00000000000001
100
AcDbArc
 50
179.609343931
 51
202.7123816944
  0
ARC
  5
4D
330
1F
100
AcDbEntity
  8
0
  6
Continuous
 62
     7
370
    15
100
AcDbCircle
 10
81.9633667233
 20
116.9126992333
 30
0.0
 40
40.675
100
AcDbArc
 50
179.609343931
 51
202.5496826887
  0
LINE
  5
4E
330
1F
100
AcDbEntity
  8
0
  6
Continuous
 62
     7
370
    15
100
AcDbLine
 10
41.9642964861
 20
117.185426506
 30
0.0
 11
41.2893121759
 21
117.1900287787
 31
0.0
  0
SPLINE
  5
4F
330
1F
100
AcDbEntity
  8
0
  6
Continuous
 62
     7
370
    15
100
AcDbSpline
210
0.0
220
0.0
230
1.0
 70
    24
 71
     3
 72
    18
 73
    14
 74
     0
 42
0.00000001
 43
0.00000001
 12
1.0
 22
0.0
 32
0.0
 13
1.0
 23
0.0
 33
0.0
 40
0.0
 40
0.0
 40
0.0
 40
0.0
 40
0.1249999999999981
 40
0.1249999999999981
 40
0.2499999999999962
 40
0.2499999999999962
 40
0.3749999999999942
 40
0.3749999999999942
 40
0.4999999999999923
 40
0.4999999999999923
 40
0.7499999999999961
 40
0.7499999999999961
 40
1.0
 40
1.0
 40
1.0
 40
1.0
 10
45.06517979905019
 20
101.4684834323463
 30
0.0
 10
45.0651797990502
 20
101.4684834323462
 30
0.0
 10
45.06079711970018
 20
101.4674716110924
 30
0.0
 10
45.04363887382091
 20
101.4635103179034
 30
0.0
 10
45.03064369500977
 20
101.4605101444779
 30
0.0
 10
44.99684059001447
 20
101.4527060827732
 30
0.0
 10
44.97617347507821
 20
101.4479347033321
 30
0.0
 10
44.92739137411016
 20
101.4366724679223
 30
0.0
 10
44.89910089625944
 20
101.4301410964748
 30
0.0
 10
44.80658764548753
 20
101.408782729614
 30
0.0
 10
44.73225290820766
 20
101.3916212032804
 30
0.0
 10
44.57246243073836
 20
101.354730664788
 30
0.0
 10
44.48552377440711
 20
101.3346592944619
 30
0.0
 10
44.39807825095657
 20
101.3144709046408
 30
0.0
  0
ARC
  5
50
330
1F
100
AcDbEntity
  8
0
  6
Continuous
 62
     7
370
    15
100
AcDbCircle
 10
72.967514893
 20
128.2052610586
 30
0.0
 40
39.325
100
AcDbArc
 50
317.8304528448
 51
353.5646535403
  0
LINE
  5
51
330
1F
100
AcDbEntity
  8
0
  6
Continuous
 62
     7
370
    15
100
AcDbLine
 10
112.0447266337
 20
123.7976372576
 30
0.0
 11
112.7154734341
 21
123.7219819222
 31
0.0
  0
ARC
  5
52
330
1F
100
AcDbEntity
  8
0
  6
Continuous
 62
     7
370
    15
100
AcDbCircle
 10
72.967514893
 20
128.2052610586
 30
0.0
 40
40.0
100
AcDbArc
 50
318.0548066249
 51
353.5646535403
  0
SPLINE
  5
53
330
1F
100
AcDbEntity
  8
0
  6
Continuous
 62
     7
370
    15
100
AcDbSpline
210
0.0
220
0.0
230
1.0
 70
    24
 71
     3
 72
    16
 73
    12
 74
     0
 42
0.00000001
 43
0.00000001
 12
1.0
 22
0.0
 32
0.0
 13
1.0
 23
0.0
 33
0.0
 40
0.0
 40
0.0
 40
0.0
 40
0.0
 40
0.1249999999999981
 40
0.1249999999999981
 40
0.2499999999999961
 40
0.2499999999999961
 40
0.4999999999999974
 40
0.4999999999999974
 40
0.7499999999999988
 40
0.7499999999999988
 40
1.0
 40
1.0
 40
1.0
 40
1.0
 10
102.718896745989
 20
101.4684834323463
 30
0.0
 10
102.718896745989
 20
101.4684834323463
 30
0.0
 10
102.7148759710834
 20
101.4707213669496
 30
0.0
 10
102.699143589813
 20
101.4794778980321
 30
0.0
 10
102.6872235007752
 20
101.4861125344786
 30
0.0
 10
102.64084359603
 20
101.5119272582975
 30
0.0
 10
102.5951373417099
 20
101.5373670330998
 30
0.0
 10
102.4829482546966
 20
101.5998106778776
 30
0.0
 10
102.4155358663384
 20
101.6373319318991
 30
0.0
 10
102.2709776705493
 20
101.7177919914993
 30
0.0
 10
102.1925567984099
 20
101.7614404889905
 30
0.0
 10
102.1136913816519
 20
101.8053364168423
 30
0.0
  0
LINE
  5
54
330
1F
100
AcDbEntity
  8
0
  6
Continuous
 62
     7
370
    15
100
AcDbLine
 10
58.307203366
 20
168.9041158979
 30
0.0
 11
57.7413108426
 21
169.2720705852
 31
0.0
  0
LINE
  5
55
330
1F
100
AcDbEntity
  8
0
  6
Continuous
 62
     7
370
    15
100
AcDbLine
 10
57.4775722221
 20
169.8934134375
 30
0.0
 11
57.7413108426
 21
169.2720705852
 31
0.0
  0
ARC
  5
56
330
1F
100
AcDbEntity
  8
0
  6
Continuous
 62
     7
370
    15
100
AcDbCircle
 10
57.7413108426
 20
169.2720705852
 30
0.0
 40
0.6750000000000037
100
AcDbArc
 50
326.9672685083
 51
112.9995489671
  0
ARC
  5
57
330
1F
100
AcDbEntity
  8
0
  6
Continuous
 62
     7
370
    15
100
AcDbCircle
 10
55.8821880769
 20
126.5876992333
 30
0.0
 40
21.25
100
AcDbArc
 50
167.5022191711
 51
199.4
  0
LINE
  5
58
330
1F
100
AcDbEntity
  8
0
  6
Continuous
 62
     7
370
    15
100
AcDbLine
 10
35.1357198002
 20
131.186237484
 30
0.0
 11
35.7947252631
 21
131.040166269
 31
0.0
  0
ARC
  5
59
330
1F
100
AcDbEntity
  8
0
  6
Continuous
 62
     7
370
    15
100
AcDbCircle
 10
55.8821880769
 20
126.5876992333
 30
0.0
 40
20.575
100
AcDbArc
 50
167.5022191711
 51
199.4
  0
LINE
  5
5A
330
1F
100
AcDbEntity
  8
0
  6
Continuous
 62
     7
370
    15
100
AcDbLine
 10
35.8387065955
 20
119.5292751808
 30
0.0
 11
36.4753818896
 21
119.7534839448
 31
0.0
  0
ARC
  5
5B
330
1F
100
AcDbEntity
  8
0
  6
Continuous
 62
     7
370
    15
100
AcDbCircle
 10
95.467514893
 20
137.8741478225
 30
0.0
 40
3.999999999999999
100
AcDbArc
 50
261.2948297491
 51
14.2310394581
  0
LINE
  5
5C
330
1F
100
AcDbEntity
  8
0
  6
Continuous
 62
     7
370
    15
100
AcDbLine
 10
99.3447641516
 20
138.8574779741
 30
0.0
 11
99.9990499639
 21
139.0234149372
 31
0.0
  0
ARC
  5
5D
330
1F
100
AcDbEntity
  8
0
  6
Continuous
 62
     7
370
    15
100
AcDbCircle
 10
95.467514893
 20
137.8741478225
 30
0.0
 40
4.674999999999989
100
AcDbArc
 50
261.2948297491
 51
14.2310394581
  0
LINE
  5
5E
330
1F
100
AcDbEntity
  8
0
  6
Continuous
 62
     7
370
    15
100
AcDbLine
 10
94.862114816
 20
133.9202268892
 30
0.0
 11
94.759953553
 21
133.2530027317
 31
0.0
  0
ARC
  5
5F
330
1F
100
AcDbEntity
  8
0
  6
Continuous
 62
     7
370
    15
100
AcDbCircle
 10
50.4100797108
 20
137.6378648834
 30
0.0
 40
4.000000000000004
100
AcDbArc
 50
166.9063045361
 51
281.1660605367
  0
LINE
  5
60
330
1F
100
AcDbEntity
  8
0
  6
Continuous
 62
     7
370
    15
100
AcDbLine
 10
51.1846926833
 20
133.7135847274
 30
0.0
 11
51.3154086224
 21
133.0513624511
 31
0.0
  0
ARC
  5
61
330
1F
100
AcDbEntity
  8
0
  6
Continuous
 62
     7
370
    15
100
AcDbCircle
 10
50.4100797108
 20
137.6378648834
 30
0.0
 40
4.675000000000004
100
AcDbArc
 50
166.9063045361
 51
281.1660605367
  0
LINE
  5
62
330
1F
100
AcDbEntity
  8
0
  6
Continuous
 62
     7
370
    15
100
AcDbLine
 10
46.5140761071
 20
138.5440414222
 30
0.0
 11
45.8566254989
 21
138.6969587131
 31
0.0
  0
ARC
  5
63
330
1F
100
AcDbEntity
  8
0
  6
Continuous
 62
     7
370
    15
100
AcDbCircle
 10
84.0618138886
 20
159.5376992333
 30
0.0
 40
11.24999999999998
100
AcDbArc
 50
245.9817662018
 51
288.1948723388
  0
LINE
  5
64
330
1F
100
AcDbEntity
  8
0
  6
Continuous
 62
     7
370
    15
100
AcDbLine
 10
79.4827562122
 20
149.2617695529
 30
0.0
 11
79.7574996728
 21
149.8783253337
 31
0.0
  0
ARC
  5
65
330
1F
100
AcDbEntity
  8
0
  6
Continuous
 62
     7
370
    15
100
AcDbCircle
 10
84.0618138886
 20
159.5376992333
 30
0.0
 40
10.57499999999999
100
AcDbArc
 50
245.9817662018
 51
288.1948723388
  0
LINE
  5
66
330
1F
100
AcDbEntity
  8
0
  6
Continuous
 62
     7
370
    15
100
AcDbLine
 10
87.5746252627
 20
148.8501992333
 30
0.0
 11
87.3638565802
 21
149.4914492333
 31
0.0
  0
ARC
  5
67
330
1F
100
AcDbEntity
  8
0
  6
Continuous
 62
     7
370
    15
100
AcDbCircle
 10
72.967514893
 20
134.9126992333
 30
0.0
 40
8.75
100
AcDbArc
 50
223.9099264774
 51
315.2064191206
  0
LINE
  5
68
330
1F
100
AcDbEntity
  8
0
  6
Continuous
 62
     7
370
    15
100
AcDbLine
 10
79.1769495548
 20
128.7478455301
 30
0.0
 11
79.6559630858
 21
128.2722711016
 31
0.0
  0
ARC
  5
69
330
1F
100
AcDbEntity
  8
0
  6
Continuous
 62
     7
370
    15
100
AcDbCircle
 10
72.967514893
 20
134.9126992333
 30
0.0
 40
9.425000000000004
100
AcDbArc
 50
223.9099264774
 51
315.2064191206
  0
LINE
  5
6A
330
1F
100
AcDbEntity
  8
0
  6
Continuous
 62
     7
370
    15
100
AcDbLine
 10
66.6637439125
 20
128.8443410183
 30
0.0
 11
66.1774530083
 21
128.3762105274
 31
0.0
  0
ARC
  5
6B
330
1F
100
AcDbEntity
  8
0
  6
Continuous
 62
     7
370
    15
100
AcDbCircle
 10
72.967514893
 20
122.8006677327
 30
0.0
 40
38.75000000000001
100
AcDbArc
 50
129.2806051793
 51
167.5022191711
  0
LINE
  5
6C
330
1F
100
AcDbEntity
  8
0
  6
Continuous
 62
     7
370
    15
100
AcDbLine
 10
48.4341579543
 20
152.7952822046
 30
0.0
 11
48.8615132042
 21
152.2727953719
 31
0.0
  0
ARC
  5
6D
330
1F
100
AcDbEntity
  8
0
  6
Continuous
 62
     7
370
    15
100
AcDbCircle
 10
72.967514893
 20
122.8006677327
 30
0.0
 40
38.075
100
AcDbArc
 50
129.2806051793
 51
167.5022191711
  0
ARC
  5
6E
330
1F
100
AcDbEntity
  8
0
  6
Continuous
 62
     7
370
    15
100
AcDbCircle
 10
104.0206075032
 20
124.7026992333
 30
0.0
 40
8.075000000000017
100
AcDbArc
 50
353.5646535403
 51
6.4353464597
  0
LINE
  5
6F
330
1F
100
AcDbEntity
  8
0
  6
Continuous
 62
     7
370
    15
100
AcDbLine
 10
112.0447266337
 20
125.607761209
 30
0.0
 11
112.7154734341
 21
125.6834165444
 31
0.0
  0
ARC
  5
70
330
1F
100
AcDbEntity
  8
0
  6
Continuous
 62
     7
370
    15
100
AcDbCircle
 10
104.0206075032
 20
124.7026992333
 30
0.0
 40
8.75000000000002
100
AcDbArc
 50
353.5646535403
 51
6.4353464597
  0
ARC
  5
71
330
1F
100
AcDbEntity
  8
0
  6
Continuous
 62
     7
370
    15
100
AcDbCircle
 10
89.5261871372
 20
142.9126992333
 30
0.0
 40
6.250000000000028
100
AcDbArc
 50
53.6102553225
 51
108.1948723388
  0
ARC
  5
72
330
1F
100
AcDbEntity
  8
0
  6
Continuous
 62
     7
370
    15
100
AcDbCircle
 10
89.5261871372
 20
142.9126992333
 30
0.0
 40
6.925000000000014
100
AcDbArc
 50
53.6102553225
 51
108.1948723388
  0
LINE
  5
73
330
1F
100
AcDbEntity
  8
0
  6
Continuous
 62
     7
370
    15
100
AcDbLine
 10
93.2341546987
 20
147.9439492333
 30
0.0
 11
93.6346151954
 21
148.4873242333
 31
0.0
  0
ARC
  5
74
330
1F
100
AcDbEntity
  8
0
  6
Continuous
 62
     7
370
    15
100
AcDbCircle
 10
72.967514893
 20
118.4126992333
 30
0.0
 40
6.050000000000006
100
AcDbArc
 50
184.0573368048
 51
352.5573537646
  0
LINE
  5
75
330
1F
100
AcDbEntity
  8
0
  6
Continuous
 62
     7
370
    15
100
AcDbLine
 10
66.9326777397
 20
117.9846331955
 30
0.0
 11
67.6059860171
 21
118.0323926295
 31
0.0
  0
ARC
  5
76
330
1F
100
AcDbEntity
  8
0
  6
Continuous
 62
     7
370
    15
100
AcDbCircle
 10
72.967514893
 20
118.4126992333
 30
0.0
 40
5.375000000000013
100
AcDbArc
 50
184.0573368048
 51
352.5573537646
  0
LINE
  5
77
330
1F
100
AcDbEntity
  8
0
  6
Continuous
 62
     7
370
    15
100
AcDbLine
 10
78.9665437816
 20
117.6290204768
 30
0.0
 11
78.2972306412
 21
117.71645571
 31
0.0
  0
ARC
  5
78
330
1F
100
AcDbEntity
  8
0
  6
Continuous
 62
     7
370
    15
100
AcDbCircle
 10
54.4640059352
 20
117.1001992333
 30
0.0
 40
16.93394440112345
100
AcDbArc
 50
43.9099264774
 51
101.1660605367
  0
ARC
  5
79
330
1F
100
AcDbEntity
  8
0
  6
Continuous
 62
     7
370
    15
100
AcDbCircle
 10
54.4640059352
 20
117.1001992333
 30
0.0
 40
16.25894440112345
100
AcDbArc
 50
43.9099264774
 51
101.1660605367
  0
ARC
  5
7A
330
1F
100
AcDbEntity
  8
0
  6
Continuous
 62
     7
370
    15
100
AcDbCircle
 10
72.967514893
 20
121.2001374079
 30
0.0
 40
39.32499999999998
100
AcDbArc
 50
6.4353464597
 51
51.9748315357
  0
LINE
  5
7B
330
1F
100
AcDbEntity
  8
0
  6
Continuous
 62
     7
370
    15
100
AcDbLine
 10
97.1920124819
 20
152.1780221253
 30
0.0
 11
97.60781759
 21
152.7097467835
 31
0.0
  0
ARC
  5
7C
330
1F
100
AcDbEntity
  8
0
  6
Continuous
 62
     7
370
    15
100
AcDbCircle
 10
72.967514893
 20
121.2001374079
 30
0.0
 40
40.00000000000001
100
AcDbArc
 50
6.4353464597
 51
51.9748315357
  0
ARC
  5
7D
330
1F
100
AcDbEntity
  8
0
  6
Continuous
 62
     7
370
    15
100
AcDbCircle
 10
68.367514893
 20
162.3626992333
 30
0.0
 40
12.00000000000002
100
AcDbArc
 50
146.9672685083
 51
260.050514257
  0
LINE
  5
7E
330
1F
100
AcDbEntity
  8
0
  6
Continuous
 62
     7
370
    15
100
AcDbLine
 10
66.2941565216
 20
150.5431736479
 30
0.0
 11
66.1775301132
 21
149.8783253337
 31
0.0
  0
ARC
  5
7F
330
1F
100
AcDbEntity
  8
0
  6
Continuous
 62
     7
370
    15
100
AcDbCircle
 10
68.367514893
 20
162.3626992333
 30
0.0
 40
12.675
100
AcDbArc
 50
146.9672685083
 51
260.050514257
  0
ARC
  5
80
330
1F
100
AcDbEntity
  8
0
  6
Continuous
 62
     7
370
    15
100
AcDbCircle
 10
101.4578648864
 20
157.6331232485
 30
0.0
 40
6.925000000000019
100
AcDbArc
 50
173.7519574777
 51
231.9748315357
  0
LINE
  5
81
330
1F
100
AcDbEntity
  8
0
  6
Continuous
 62
     7
370
    15
100
AcDbLine
 10
94.5739989915
 20
158.3867911739
 30
0.0
 11
95.24498953
 21
158.3133289573
 31
0.0
  0
ARC
  5
82
330
1F
100
AcDbEntity
  8
0
  6
Continuous
 62
     7
370
    15
100
AcDbCircle
 10
101.4578648864
 20
157.6331232485
 30
0.0
 40
6.249999999999994
100
AcDbArc
 50
173.7519574777
 51
231.9748315357
  0
ARC
  5
83
330
1F
100
AcDbEntity
  8
0
  6
Continuous
 62
     7
370
    15
100
AcDbCircle
 10
92.1049128352
 20
115.9126992333
 30
0.0
 40
18.21738771182705
100
AcDbArc
 50
81.2948297491
 51
135.2064191206
  0
ARC
  5
84
330
1F
100
AcDbEntity
  8
0
  6
Continuous
 62
     7
370
    15
100
AcDbCircle
 10
92.1049128352
 20
115.9126992333
 30
0.0
 40
17.54238771182706
100
AcDbArc
 50
81.2948297491
 51
135.2064191206
  0
LINE
  5
85
330
1F
100
AcDbEntity
  8
0
  6
Continuous
 62
     7
370
    15
100
AcDbLine
 10
39.3595077686
 20
109.531418352
 30
0.0
 11
35.8387065955
 21
119.5292751808
 31
0.0
  0
LINE
  5
86
330
1F
100
AcDbEntity
  8
0
  6
Continuous
 62
     7
370
    15
100
AcDbLine
 10
36.4753818896
 20
119.7534839448
 30
0.0
 11
39.9961830628
 21
109.755627116
 31
0.0
  0
ARC
  5
87
330
1F
100
AcDbEntity
  8
0
  6
Continuous
 62
     7
370
    15
100
AcDbCircle
 10
84.0618138886
 20
159.5376992333
 30
0.0
 40
10.57500000000001
100
AcDbArc
 50
353.7519574777
 51
67.0004510329
  0
LINE
  5
88
330
1F
100
AcDbEntity
  8
0
  6
Continuous
 62
     7
370
    15
100
AcDbLine
 10
88.1937189434
 20
169.2720705852
 30
0.0
 11
88.4574575639
 21
169.8934134375
 31
0.0
  0
ARC
  5
89
330
1F
100
AcDbEntity
  8
0
  6
Continuous
 62
     7
370
    15
100
AcDbCircle
 10
84.0618138886
 20
159.5376992333
 30
0.0
 40
11.25000000000001
100
AcDbArc
 50
353.7519574777
 51
67.0004510329
  0
ARC
  5
8A
330
1F
100
AcDbEntity
  8
0
  6
Continuous
 62
     7
370
    15
100
AcDbCircle
 10
77.567514893
 20
162.3626992333
 30
0.0
 40
12.00000000000002
100
AcDbArc
 50
279.949485743
 51
33.0327314917
  0
LINE
  5
8B
330
1F
100
AcDbEntity
  8
0
  6
Continuous
 62
     7
370
    15
100
AcDbLine
 10
87.62782642
 20
168.9041158979
 30
0.0
 11
88.1937189434
 21
169.2720705852
 31
0.0
  0
ARC
  5
8C
330
1F
100
AcDbEntity
  8
0
  6
Continuous
 62
     7
370
    15
100
AcDbCircle
 10
77.567514893
 20
162.3626992333
 30
0.0
 40
12.67500000000001
100
AcDbArc
 50
279.949485743
 51
33.0327314917
  0
LINE
  5
8D
330
1F
100
AcDbEntity
  8
0
  6
Continuous
 62
     7
370
    15
100
AcDbLine
 10
79.6408732644
 20
150.5431736479
 30
0.0
 11
79.7574996728
 21
149.8783253337
 31
0.0
  0
CIRCLE
  5
8E
330
1F
100
AcDbEntity
  8
0
  6
Continuous
 62
     7
370
    15
100
AcDbCircle
 10
103.667514893
 20
130.5451992333
 30
0.0
 40
1.375
  0
CIRCLE
  5
8F
330
1F
100
AcDbEntity
  8
0
  6
Continuous
 62
     7
370
    15
100
AcDbCircle
 10
103.667514893
 20
130.5451992333
 30
0.0
 40
1.5
  0
ARC
  5
90
330
1F
100
AcDbEntity
  8
0
  6
Continuous
 62
     7
370
    15
100
AcDbCircle
 10
56.4088426488
 20
142.9126992333
 30
0.0
 40
6.250000000000024
100
AcDbArc
 50
71.8051276612
 51
126.3897446775
  0
LINE
  5
91
330
1F
100
AcDbEntity
  8
0
  6
Continuous
 62
     7
370
    15
100
AcDbLine
 10
52.7008750873
 20
147.9439492333
 30
0.0
 11
52.3004145906
 21
148.4873242333
 31
0.0
  0
ARC
  5
92
330
1F
100
AcDbEntity
  8
0
  6
Continuous
 62
     7
370
    15
100
AcDbCircle
 10
56.4088426488
 20
142.9126992333
 30
0.0
 40
6.925000000000011
100
AcDbArc
 50
71.8051276612
 51
126.3897446775
  0
LINE
  5
93
330
1F
100
AcDbEntity
  8
0
  6
Continuous
 62
     7
370
    15
100
AcDbLine
 10
58.3604045233
 20
148.8501992333
 30
0.0
 11
58.5711732058
 21
149.4914492333
 31
0.0
  0
ARC
  5
94
330
1F
100
AcDbEntity
  8
0
  6
Continuous
 62
     7
370
    15
100
AcDbCircle
 10
88.1937189434
 20
169.2720705852
 30
0.0
 40
0.6750000000000065
100
AcDbArc
 50
67.0004510329
 51
213.0327314917
  0
ARC
  5
95
330
1F
100
AcDbEntity
  8
0
  6
Continuous
 62
     7
370
    15
100
AcDbCircle
 10
62.3415907473
 20
134.8626992333
 30
0.0
 40
16.25
100
AcDbArc
 50
126.3897446775
 51
166.9063045361
  0
ARC
  5
96
330
1F
100
AcDbEntity
  8
0
  6
Continuous
 62
     7
370
    15
100
AcDbCircle
 10
62.3415907473
 20
134.8626992333
 30
0.0
 40
16.925
100
AcDbArc
 50
126.3897446775
 51
166.9063045361
  0
ARC
  5
97
330
1F
100
AcDbEntity
  8
0
  6
Continuous
 62
     7
370
    15
100
AcDbCircle
 10
61.8732158974
 20
159.5376992333
 30
0.0
 40
11.25000000000001
100
AcDbArc
 50
112.9995489671
 51
186.2480425223
  0
ARC
  5
98
330
1F
100
AcDbEntity
  8
0
  6
Continuous
 62
     7
370
    15
100
AcDbCircle
 10
61.8732158974
 20
159.5376992333
 30
0.0
 40
10.57500000000001
100
AcDbArc
 50
112.9995489671
 51
186.2480425223
  0
LINE
  5
99
330
1F
100
AcDbEntity
  8
0
  6
Continuous
 62
     7
370
    15
100
AcDbLine
 10
50.690040256
 20
158.3133289573
 30
0.0
 11
51.3610307945
 21
158.3867911739
 31
0.0
  0
ARC
  5
9A
330
1F
100
AcDbEntity
  8
0
  6
Continuous
 62
     7
370
    15
100
AcDbCircle
 10
92.1049128352
 20
115.9126992333
 30
0.0
 40
13.25
100
AcDbArc
 50
354.862151751
 51
172.5573537646
  0
ARC
  5
9B
330
1F
100
AcDbEntity
  8
0
  6
Continuous
 62
     7
370
    15
100
AcDbCircle
 10
92.1049128352
 20
115.9126992333
 30
0.0
 40
13.925
100
AcDbArc
 50
354.862151751
 51
172.5573537646
  0
ARC
  5
9C
330
1F
100
AcDbEntity
  8
0
  6
Continuous
 62
     7
370
    15
100
AcDbCircle
 10
54.4640059352
 20
117.1001992333
 30
0.0
 40
12.50000000000001
100
AcDbArc
 50
4.0573368048
 51
179.609343931
  0
ARC
  5
9D
330
1F
100
AcDbEntity
  8
0
  6
Continuous
 62
     7
370
    15
100
AcDbCircle
 10
54.4640059352
 20
117.1001992333
 30
0.0
 40
13.175
100
AcDbArc
 50
4.0573368048
 51
179.609343931
  0
CIRCLE
  5
9E
330
1F
100
AcDbEntity
  8
0
  6
Continuous
 62
     7
370
    15
100
AcDbCircle
 10
72.967514893
 20
118.4126992333
 30
0.0
 40
2.249999999999986
  0
CIRCLE
  5
9F
330
1F
100
AcDbEntity
  8
0
  6
Continuous
 62
     7
370
    15
100
AcDbCircle
 10
72.967514893
 20
118.4126992333
 30
0.0
 40
2.374999999999986
  0
LINE
  5
A0
330
1F
100
AcDbEntity
  8
0
  6
Continuous
 62
     7
370
    15
100
AcDbLine
 10
66.4522735738
 20
149.2617695529
 30
0.0
 11
66.1775301132
 21
149.8783253337
 31
0.0
  0
ARC
  5
A1
330
1F
100
AcDbEntity
  8
0
  6
Continuous
 62
     7
370
    15
100
AcDbCircle
 10
66.1775301132
 20
149.8783253337
 30
0.0
 40
0.6749999999999866
100
AcDbArc
 50
294.0182337982
 51
80.050514257
  0
ARC
  5
A2
330
1F
100
AcDbEntity
  8
0
  6
Continuous
 62
     7
370
    15
100
AcDbCircle
 10
44.4771648996
 20
157.6331232485
 30
0.0
 40
6.924999999999996
100
AcDbArc
 50
309.2806051793
 51
6.2480425223
  0
ARC
  5
A3
330
1F
100
AcDbEntity
  8
0
  6
Continuous
 62
     7
370
    15
100
AcDbCircle
 10
61.8732158974
 20
159.5376992333
 30
0.0
 40
10.57499999999999
100
AcDbArc
 50
251.8051276612
 51
294.0182337982
  0
ARC
  5
A4
330
1F
100
AcDbEntity
  8
0
  6
Continuous
 62
     7
370
    15
100
AcDbCircle
 10
83.5934390387
 20
134.8626992333
 30
0.0
 40
16.92499999999998
100
AcDbArc
 50
14.2310394581
 51
53.6102553225
  0
LINE
  5
A5
330
1F
100
AcDbEntity
  8
0
  6
Continuous
 62
     7
370
    15
100
AcDbLine
 10
102.1136913817
 20
101.8053364168
 30
0.0
 11
101.8998733517
 21
101.9243460056
 31
0.0
  0
LINE
  5
A6
330
1F
100
AcDbEntity
  8
0
  6
Continuous
 62
     7
370
    15
100
AcDbLine
 10
44.398078251
 20
101.3144709046
 30
0.0
 11
44.1941484542
 21
101.2673900013
 31
0.0
  0
ARC
  5
A7
330
1F
100
AcDbEntity
  8
0
  6
Continuous
 62
     7
370
    15
100
AcDbCircle
 10
79.7574996728
 20
149.8783253337
 30
0.0
 40
0.6749999999999925
100
AcDbArc
 50
99.949485743
 51
245.9817662018
  0
ARC
  5
A8
330
1F
100
AcDbEntity
  8
0
  6
Continuous
 62
     7
370
    15
100
AcDbCircle
 10
83.5934390387
 20
134.8626992333
 30
0.0
 40
16.25
100
AcDbArc
 50
14.2310394581
 51
53.6102553225
  0
ARC
  5
A9
330
1F
100
AcDbEntity
  8
0
  6
Continuous
 62
     7
370
    15
100
AcDbCircle
 10
61.8732158974
 20
159.5376992333
 30
0.0
 40
11.24999999999998
100
AcDbArc
 50
251.8051276612
 51
294.0182337982
  0
ARC
  5
AA
330
1F
100
AcDbEntity
  8
0
  6
Continuous
 62
     7
370
    15
100
AcDbCircle
 10
44.4771648996
 20
157.6331232485
 30
0.0
 40
6.249999999999994
100
AcDbArc
 50
309.2806051793
 51
6.2480425223
  0
ARC
  5
AB
330
1F
100
AcDbEntity
  8
0
  6
Continuous
 62
     7
370
    15
100
AcDbCircle
 10
148.9442251379
 20
169.2720705852
 30
0.0
 40
0.6750000000000114
100
AcDbArc
 50
90.0
 51
180.0
  0
LINE
  5
AC
330
1F
100
AcDbEntity
  8
0
  6
Continuous
 62
     7
370
    15
100
AcDbLine
 10
155.5942251379
 20
169.9470705852
 30
0.0
 11
148.9442251379
 21
169.9470705852
 31
0.0
  0
ARC
  5
AD
330
1F
100
AcDbEntity
  8
0
  6
Continuous
 62
     7
370
    15
100
AcDbCircle
 10
155.5942251379
 20
169.2720705852
 30
0.0
 40
0.6750000000000114
100
AcDbArc
 50
0.0
 51
90.0
  0
LINE
  5
AE
330
1F
100
AcDbEntity
  8
0
  6
Continuous
 62
     7
370
    15
100
AcDbLine
 10
148.2692251379
 20
123.5376992333
 30
0.0
 11
148.1442251379
 21
123.4126992333
 31
0.0
  0
LINE
  5
AF
330
1F
100
AcDbEntity
  8
0
  6
Continuous
 62
     7
370
    15
100
AcDbLine
 10
148.1442251379
 20
113.4126992333
 30
0.0
 11
148.2692251379
 21
113.2876992333
 31
0.0
  0
LINE
  5
B0
330
1F
100
AcDbEntity
  8
0
  6
Continuous
 62
     7
370
    15
100
AcDbLine
 10
137.6442251379
 20
123.4126992333
 30
0.0
 11
137.5192251379
 21
123.2876992333
 31
0.0
  0
LINE
  5
B1
330
1F
100
AcDbEntity
  8
0
  6
Continuous
 62
     7
370
    15
100
AcDbLine
 10
137.5192251379
 20
113.5376992333
 30
0.0
 11
137.6442251379
 21
113.4126992333
 31
0.0
  0
LINE
  5
B2
330
1F
100
AcDbEntity
  8
0
  6
Continuous
 62
     7
370
    15
100
AcDbLine
 10
148.1442251379
 20
123.4126992333
 30
0.0
 11
137.6442251379
 21
123.4126992333
 31
0.0
  0
LINE
  5
B3
330
1F
100
AcDbEntity
  8
0
  6
Continuous
 62
     7
370
    15
100
AcDbLine
 10
137.6442251379
 20
113.4126992333
 30
0.0
 11
148.1442251379
 21
113.4126992333
 31
0.0
  0
LINE
  5
B4
330
1F
100
AcDbEntity
  8
0
  6
Continuous
 62
     7
370
    15
100
AcDbLine
 10
155.5942251379
 20
119.5292751808
 30
0.0
 11
155.5942251379
 21
131.186237484
 31
0.0
  0
LINE
  5
B5
330
1F
100
AcDbEntity
  8
0
  6
Continuous
 62
     7
370
    15
100
AcDbLine
 10
155.5942251379
 20
119.5292751808
 30
0.0
 11
148.9442251379
 21
119.5292751808
 31
0.0
  0
LINE
  5
B6
330
1F
100
AcDbEntity
  8
0
  6
Continuous
 62
     7
370
    15
100
AcDbLine
 10
148.9442251379
 20
131.186237484
 30
0.0
 11
148.9442251379
 21
119.5292751808
 31
0.0
  0
LINE
  5
B7
330
1F
100
AcDbEntity
  8
0
  6
Continuous
 62
     7
370
    15
100
AcDbLine
 10
155.5942251379
 20
131.186237484
 30
0.0
 11
148.9442251379
 21
131.186237484
 31
0.0
  0
LINE
  5
B8
330
1F
100
AcDbEntity
  8
0
  6
Continuous
 62
     7
370
    15
100
AcDbLine
 10
148.2692251379
 20
119.7534839448
 30
0.0
 11
148.2692251379
 21
131.040166269
 31
0.0
  0
ARC
  5
B9
330
1F
100
AcDbEntity
  8
0
  6
Continuous
 62
     7
370
    15
100
AcDbCircle
 10
148.7833776564
 20
130.2968846442
 30
0.0
 40
0.9037811604497469
100
AcDbArc
 50
79.7483599263
 51
124.6728933006
  0
LWPOLYLINE
  5
BA
330
1F
100
AcDbEntity
  8
0
  6
Continuous
 62
     7
370
    15
100
AcDbPolyline
 90
        9
 70
   128
 43
0.0
 10
148.2692251379
 20
119.7534839448
 10
148.2821950736
 20
119.7097429848
 10
148.3206064534
 20
119.6676829654
 10
148.3829831496
 20
119.6289202295
 10
148.4669280606
 20
119.5949444073
 10
148.5692152306
 20
119.5670611707
 10
148.685913821
 20
119.5463420567
 10
148.8125391705
 20
119.5335832893
 10
148.9442251379
 20
119.5292751808
  0
ARC
  5
BB
330
1F
100
AcDbEntity
  8
0
  6
Continuous
 62
     7
370
    15
100
AcDbCircle
 10
155.7550726194
 20
130.2968846442
 30
0.0
 40
0.9037811604498799
100
AcDbArc
 50
55.3271066994
 51
100.2516400737
  0
LINE
  5
BC
330
1F
100
AcDbEntity
  8
0
  6
Continuous
 62
     7
370
    15
100
AcDbLine
 10
156.2692251379
 20
131.040166269
 30
0.0
 11
156.2692251379
 21
119.7534839448
 31
0.0
  0
LWPOLYLINE
  5
BD
330
1F
100
AcDbEntity
  8
0
  6
Continuous
 62
     7
370
    15
100
AcDbPolyline
 90
        9
 70
   128
 43
0.0
 10
155.5942251379
 20
119.5292751808
 10
155.7259111053
 20
119.5335832893
 10
155.8525364547
 20
119.5463420567
 10
155.9692350452
 20
119.5670611707
 10
156.0715222152
 20
119.5949444073
 10
156.1554671262
 20
119.6289202295
 10
156.2178438223
 20
119.6676829654
 10
156.2562552022
 20
119.7097429848
 10
156.2692251379
 20
119.7534839448
  0
LINE
  5
BE
330
1F
100
AcDbEntity
  8
0
  6
Continuous
 62
     7
370
    15
100
AcDbLine
 10
148.2692251379
 20
131.040166269
 30
0.0
 11
148.2692251379
 21
152.2727953719
 31
0.0
  0
ARC
  5
BF
330
1F
100
AcDbEntity
  8
0
  6
Continuous
 62
     7
370
    15
100
AcDbCircle
 10
148.8765834677
 20
152.1854091938
 30
0.0
 40
0.6136126505053648
100
AcDbArc
 50
83.6711300504
 51
171.8125223611
  0
LINE
  5
C0
330
1F
100
AcDbEntity
  8
0
  6
Continuous
 62
     7
370
    15
100
AcDbLine
 10
148.9442251379
 20
152.7952822046
 30
0.0
 11
148.9442251379
 21
131.186237484
 31
0.0
  0
LINE
  5
C1
330
1F
100
AcDbEntity
  8
0
  6
Continuous
 62
     7
370
    15
100
AcDbLine
 10
155.5942251379
 20
131.186237484
 30
0.0
 11
155.5942251379
 21
152.7952822046
 31
0.0
  0
LINE
  5
C2
330
1F
100
AcDbEntity
  8
0
  6
Continuous
 62
     7
370
    15
100
AcDbLine
 10
155.5942251379
 20
152.7952822046
 30
0.0
 11
148.9442251379
 21
152.7952822046
 31
0.0
  0
ARC
  5
C3
330
1F
100
AcDbEntity
  8
0
  6
Continuous
 62
     7
370
    15
100
AcDbCircle
 10
155.6618668081
 20
152.1854091938
 30
0.0
 40
0.6136126505053398
100
AcDbArc
 50
8.1874776389
 51
96.3288699496
  0
LINE
  5
C4
330
1F
100
AcDbEntity
  8
0
  6
Continuous
 62
     7
370
    15
100
AcDbLine
 10
156.2692251379
 20
152.2727953719
 30
0.0
 11
156.2692251379
 21
131.040166269
 31
0.0
  0
LINE
  5
C5
330
1F
100
AcDbEntity
  8
0
  6
Continuous
 62
     7
370
    15
100
AcDbLine
 10
155.5942251379
 20
109.531418352
 30
0.0
 11
155.5942251379
 21
119.5292751808
 31
0.0
  0
LINE
  5
C6
330
1F
100
AcDbEntity
  8
0
  6
Continuous
 62
     7
370
    15
100
AcDbLine
 10
155.5942251379
 20
109.531418352
 30
0.0
 11
148.9442251379
 21
109.531418352
 31
0.0
  0
LINE
  5
C7
330
1F
100
AcDbEntity
  8
0
  6
Continuous
 62
     7
370
    15
100
AcDbLine
 10
148.9442251379
 20
119.5292751808
 30
0.0
 11
148.9442251379
 21
109.531418352
 31
0.0
  0
LWPOLYLINE
  5
C8
330
1F
100
AcDbEntity
  8
0
  6
Continuous
 62
     7
370
    15
100
AcDbPolyline
 90
        9
 70
   128
 43
0.0
 10
148.2692251379
 20
109.755627116
 10
148.2821950736
 20
109.711886156
 10
148.3206064534
 20
109.6698261366
 10
148.3829831496
 20
109.6310634007
 10
148.4669280606
 20
109.5970875786
 10
148.5692152306
 20
109.5692043419
 10
148.685913821
 20
109.5484852279
 10
148.8125391705
 20
109.5357264605
 10
148.9442251379
 20
109.531418352
  0
LINE
  5
C9
330
1F
100
AcDbEntity
  8
0
  6
Continuous
 62
     7
370
    15
100
AcDbLine
 10
148.2692251379
 20
109.755627116
 30
0.0
 11
148.2692251379
 21
119.7534839448
 31
0.0
  0
LWPOLYLINE
  5
CA
330
1F
100
AcDbEntity
  8
0
  6
Continuous
 62
     7
370
    15
100
AcDbPolyline
 90
        9
 70
   128
 43
0.0
 10
155.5942251379
 20
109.531418352
 10
155.7259111053
 20
109.5357264605
 10
155.8525364547
 20
109.5484852279
 10
155.9692350452
 20
109.5692043419
 10
156.0715222152
 20
109.5970875786
 10
156.1554671262
 20
109.6310634007
 10
156.2178438223
 20
109.6698261366
 10
156.2562552022
 20
109.711886156
 10
156.2692251379
 20
109.755627116
  0
LINE
  5
CB
330
1F
100
AcDbEntity
  8
0
  6
Continuous
 62
     7
370
    15
100
AcDbLine
 10
156.2692251379
 20
119.7534839448
 30
0.0
 11
156.2692251379
 21
109.755627116
 31
0.0
  0
LINE
  5
CC
330
1F
100
AcDbEntity
  8
0
  6
Continuous
 62
     7
370
    15
100
AcDbLine
 10
148.9442251379
 20
109.531418352
 30
0.0
 11
148.9442251379
 21
101.1057498572
 31
0.0
  0
SPLINE
  5
CD
330
1F
100
AcDbEntity
  8
0
  6
Continuous
 62
     7
370
    15
100
AcDbSpline
210
0.0
220
0.0
230
1.0
 70
     8
 71
     3
 72
    16
 73
    12
 74
     0
 42
0.00000001
 43
0.00000001
 12
1.0
 22
0.0
 32
0.0
 13
1.0
 23
0.0
 33
0.0
 40
0.0
 40
0.0
 40
0.0
 40
0.0
 40
0.1249999999999996
 40
0.1249999999999996
 40
0.2499999999999992
 40
0.2499999999999992
 40
0.4999999999999994
 40
0.4999999999999994
 40
0.7499999999999997
 40
0.7499999999999997
 40
1.0
 40
1.0
 40
1.0
 40
1.0
 10
148.9442251378914
 20
101.1057498572168
 30
0.0
 10
148.8981829332702
 20
101.1057498572168
 30
0.0
 10
148.8529961430578
 20
101.106864808504
 30
0.0
 10
148.7642517134581
 20
101.1112181541613
 30
0.0
 10
148.7202323682325
 20
101.1145178324888
 30
0.0
 10
148.5958548782585
 20
101.1272452952191
 30
0.0
 10
148.5207599195817
 20
101.1397361501103
 30
0.0
 10
148.3984039500344
 20
101.1699462390643
 30
0.0
 10
148.3501183278867
 20
101.1878898449096
 30
0.0
 10
148.2858349167228
 20
101.2261758458042
 30
0.0
 10
148.2692251378914
 20
101.2467093131157
 30
0.0
 10
148.2692251378914
 20
101.2673900013369
 30
0.0
  0
LINE
  5
CE
330
1F
100
AcDbEntity
  8
0
  6
Continuous
 62
     7
370
    15
100
AcDbLine
 10
148.2692251379
 20
101.2673900013
 30
0.0
 11
148.2692251379
 21
109.755627116
 31
0.0
  0
LINE
  5
CF
330
1F
100
AcDbEntity
  8
0
  6
Continuous
 62
     7
370
    15
100
AcDbLine
 10
155.5942251379
 20
101.1057498572
 30
0.0
 11
155.5942251379
 21
109.531418352
 31
0.0
  0
LINE
  5
D0
330
1F
100
AcDbEntity
  8
0
  6
Continuous
 62
     7
370
    15
100
AcDbLine
 10
155.5942251379
 20
101.1057498572
 30
0.0
 11
148.9442251379
 21
101.1057498572
 31
0.0
  0
SPLINE
  5
D1
330
1F
100
AcDbEntity
  8
0
  6
Continuous
 62
     7
370
    15
100
AcDbSpline
210
0.0
220
0.0
230
1.0
 70
     8
 71
     3
 72
    18
 73
    14
 74
     0
 42
0.00000001
 43
0.00000001
 12
1.0
 22
0.0
 32
0.0
 13
1.0
 23
0.0
 33
0.0
 40
0.0
 40
0.0
 40
0.0
 40
0.0
 40
0.2499999999999999
 40
0.2499999999999999
 40
0.3750000000000003
 40
0.3750000000000003
 40
0.5000000000000001
 40
0.5000000000000001
 40
0.6249999999999999
 40
0.6249999999999999
 40
0.7499999999999997
 40
0.7499999999999997
 40
1.0
 40
1.0
 40
1.0
 40
1.0
 10
156.2692251378914
 20
101.2673900013369
 30
0.0
 10
156.2692251378914
 20
101.2466893421116
 30
0.0
 10
156.2529920835936
 20
101.2264426927028
 30
0.0
 10
156.204501112907
 20
101.1974988472694
 30
0.0
 10
156.1846417884456
 20
101.1883143207807
 30
0.0
 10
156.1375465655433
 20
101.1708702607917
 30
0.0
 10
156.1099478056678
 20
101.1625258954445
 30
0.0
 10
156.0484693339766
 20
101.1473246228689
 30
0.0
 10
156.0148296268214
 20
101.1404873156989
 30
0.0
 10
155.9416301587585
 20
101.1283707065682
 30
0.0
 10
155.9015814184694
 20
101.123057852277
 30
0.0
 10
155.7773658054021
 20
101.1103186571253
 30
0.0
 10
155.6864290173879
 20
101.1057498572168
 30
0.0
 10
155.5942251378914
 20
101.1057498572168
 30
0.0
  0
LINE
  5
D2
330
1F
100
AcDbEntity
  8
0
  6
Continuous
 62
     7
370
    15
100
AcDbLine
 10
156.2692251379
 20
109.755627116
 30
0.0
 11
156.2692251379
 21
101.2673900013
 31
0.0
  0
ARC
  5
D3
330
1F
100
AcDbEntity
  8
0
  6
Continuous
 62
     7
370
    15
100
AcDbCircle
 10
148.7774739147
 20
159.91896759
 30
0.0
 40
1.614274260822584
100
AcDbArc
 50
251.6484460389
 51
275.9291130709
  0
LINE
  5
D4
330
1F
100
AcDbEntity
  8
0
  6
Continuous
 62
     7
370
    15
100
AcDbLine
 10
148.9442251379
 20
158.3133289573
 30
0.0
 11
148.9442251379
 21
152.7952822046
 31
0.0
  0
LINE
  5
D5
330
1F
100
AcDbEntity
  8
0
  6
Continuous
 62
     7
370
    15
100
AcDbLine
 10
148.2692251379
 20
152.2727953719
 30
0.0
 11
148.2692251379
 21
158.3867911739
 31
0.0
  0
LINE
  5
D6
330
1F
100
AcDbEntity
  8
0
  6
Continuous
 62
     7
370
    15
100
AcDbLine
 10
155.5942251379
 20
152.7952822046
 30
0.0
 11
155.5942251379
 21
158.3133289573
 31
0.0
  0
LINE
  5
D7
330
1F
100
AcDbEntity
  8
0
  6
Continuous
 62
     7
370
    15
100
AcDbLine
 10
155.5942251379
 20
158.3133289573
 30
0.0
 11
148.9442251379
 21
158.3133289573
 31
0.0
  0
ARC
  5
D8
330
1F
100
AcDbEntity
  8
0
  6
Continuous
 62
     7
370
    15
100
AcDbCircle
 10
155.7609763611
 20
159.91896759
 30
0.0
 40
1.61427426082239
100
AcDbArc
 50
264.0708869291
 51
288.3515539611
  0
LINE
  5
D9
330
1F
100
AcDbEntity
  8
0
  6
Continuous
 62
     7
370
    15
100
AcDbLine
 10
156.2692251379
 20
158.3867911739
 30
0.0
 11
156.2692251379
 21
152.2727953719
 31
0.0
  0
ARC
  5
DA
330
1F
100
AcDbEntity
  8
0
  6
Continuous
 62
     7
370
    15
100
AcDbCircle
 10
148.9184628935
 20
169.2440835972
 30
0.0
 40
0.6498406995266875
100
AcDbArc
 50
87.7279742667
 51
177.5316528793
  0
LINE
  5
DB
330
1F
100
AcDbEntity
  8
0
  6
Continuous
 62
     7
370
    15
100
AcDbLine
 10
148.9442251379
 20
169.8934134375
 30
0.0
 11
148.9442251379
 21
158.3133289573
 31
0.0
  0
LINE
  5
DC
330
1F
100
AcDbEntity
  8
0
  6
Continuous
 62
     7
370
    15
100
AcDbLine
 10
148.2692251379
 20
158.3867911739
 30
0.0
 11
148.2692251379
 21
169.2720705852
 31
0.0
  0
LINE
  5
DD
330
1F
100
AcDbEntity
  8
0
  6
Continuous
 62
     7
370
    15
100
AcDbLine
 10
155.5942251379
 20
169.8934134375
 30
0.0
 11
148.9442251379
 21
169.8934134375
 31
0.0
  0
LINE
  5
DE
330
1F
100
AcDbEntity
  8
0
  6
Continuous
 62
     7
370
    15
100
AcDbLine
 10
155.5942251379
 20
158.3133289573
 30
0.0
 11
155.5942251379
 21
169.8934134375
 31
0.0
  0
ARC
  5
DF
330
1F
100
AcDbEntity
  8
0
  6
Continuous
 62
     7
370
    15
100
AcDbCircle
 10
155.6199873823
 20
169.2440835972
 30
0.0
 40
0.6498406995266477
100
AcDbArc
 50
2.4683471207
 51
92.2720257333
  0
LINE
  5
E0
330
1F
100
AcDbEntity
  8
0
  6
Continuous
 62
     7
370
    15
100
AcDbLine
 10
156.2692251379
 20
169.2720705852
 30
0.0
 11
156.2692251379
 21
158.3867911739
 31
0.0
  0
LINE
  5
E1
330
1F
100
AcDbEntity
  8
0
  6
Continuous
 62
     7
370
    15
100
AcDbLine
 10
148.1442251379
 20
113.4126992333
 30
0.0
 11
148.1442251379
 21
123.4126992333
 31
0.0
  0
LINE
  5
E2
330
1F
100
AcDbEntity
  8
0
  6
Continuous
 62
     7
370
    15
100
AcDbLine
 10
137.5192251379
 20
118.4126992333
 30
0.0
 11
137.5192251379
 21
123.2876992333
 31
0.0
  0
LINE
  5
E3
330
1F
100
AcDbEntity
  8
0
  6
Continuous
 62
     7
370
    15
100
AcDbLine
 10
137.5192251379
 20
113.5376992333
 30
0.0
 11
137.5192251379
 21
118.4126992333
 31
0.0
  0
LINE
  5
E4
330
1F
100
AcDbEntity
  8
0
  6
Continuous
 62
     7
370
    15
100
AcDbLine
 10
137.6442251379
 20
118.4126992333
 30
0.0
 11
137.6442251379
 21
113.4126992333
 31
0.0
  0
LINE
  5
E5
330
1F
100
AcDbEntity
  8
0
  6
Continuous
 62
     7
370
    15
100
AcDbLine
 10
137.6442251379
 20
123.4126992333
 30
0.0
 11
137.6442251379
 21
118.4126992333
 31
0.0
  0
LINE
  5
E6
330
1F
100
AcDbEntity
  8
0
  6
Continuous
 62
     8
370
    15
100
AcDbLine
 10
148.9442251379
 20
169.8934134375
 30
0.0
 11
148.9442251379
 21
169.9470705852
 31
0.0
  0
LINE
  5
E7
330
1F
100
AcDbEntity
  8
0
  6
Continuous
 62
     8
370
    15
100
AcDbLine
 10
155.5942251379
 20
169.8934134375
 30
0.0
 11
155.5942251379
 21
169.9470705852
 31
0.0
  0
ENDSEC
  0
SECTION
  2
OBJECTS
  0
DICTIONARY
  5
C
330
0
100
AcDbDictionary
281
     1
  3
ACAD_GROUP
350
D
  3
ACAD_LAYOUT
350
1A
  3
ACAD_MLINESTYLE
350
17
  3
ACAD_PLOTSETTINGS
350
19
  3
ACAD_PLOTSTYLENAME
350
E
  0
DICTIONARY
  5
D
102
{ACAD_REACTORS
330
C
102
}
330
C
100
AcDbDictionary
281
     1
  0
DICTIONARY
  5
1A
102
{ACAD_REACTORS
330
C
102
}
330
C
100
AcDbDictionary
281
     1
  3
Layout1
350
1E
  3
Layout2
350
26
  3
Model
350
22
  0
DICTIONARY
  5
17
102
{ACAD_REACTORS
330
C
102
}
330
C
100
AcDbDictionary
281
     1
  3
Standard
350
18
  0
DICTIONARY
  5
19
102
{ACAD_REACTORS
330
C
102
}
330
C
100
AcDbDictionary
281
     1
  0
ACDBDICTIONARYWDFLT
  5
E
102
{ACAD_REACTORS
330
C
102
}
330
C
100
AcDbDictionary
281
     1
  3
Normal
350
F
100
AcDbDictionaryWithDefault
340
F
  0
LAYOUT
  5
1E
102
{ACAD_REACTORS
330
1A
102
}
330
1A
100
AcDbPlotSettings
  1

  2
none_device
  4

  6

 40
0.0
 41
0.0
 42
0.0
 43
0.0
 44
0.0
 45
0.0
 46
0.0
 47
0.0
 48
0.0
 49
0.0
140
0.0
141
0.0
142
1.0
143
1.0
 70
   688
 72
     0
 73
     0
 74
     5
  7

 75
    16
147
1.0
148
0.0
149
0.0
100
AcDbLayout
  1
Layout1
 70
     1
 71
     1
 10
0.0
 20
0.0
 11
420.0
 21
297.0
 12
0.0
 22
0.0
 32
0.0
 14
1.0000000000E+20
 24
1.0000000000E+20
 34
1.0000000000E+20
 15
-1.0000000000E+20
 25
-1.0000000000E+20
 35
-1.0000000000E+20
146
0.0
 13
0.0
 23
0.0
 33
0.0
 16
1.0
 26
0.0
 36
0.0
 17
0.0
 27
1.0
 37
0.0
 76
     0
330
1B
  0
LAYOUT
  5
26
102
{ACAD_REACTORS
330
1A
102
}
330
1A
100
AcDbPlotSettings
  1

  2
none_device
  4

  6

 40
0.0
 41
0.0
 42
0.0
 43
0.0
 44
0.0
 45
0.0
 46
0.0
 47
0.0
 48
0.0
 49
0.0
140
0.0
141
0.0
142
1.0
143
1.0
 70
   688
 72
     0
 73
     0
 74
     5
  7

 75
    16
147
1.0
148
0.0
149
0.0
100
AcDbLayout
  1
Layout2
 70
     1
 71
     2
 10
0.0
 20
0.0
 11
0.0
 21
0.0
 12
0.0
 22
0.0
 32
0.0
 14
0.0
 24
0.0
 34
0.0
 15
0.0
 25
0.0
 35
0.0
146
0.0
 13
0.0
 23
0.0
 33
0.0
 16
1.0
 26
0.0
 36
0.0
 17
0.0
 27
1.0
 37
0.0
 76
     0
330
23
  0
LAYOUT
  5
22
102
{ACAD_REACTORS
330
1A
102
}
330
1A
100
AcDbPlotSettings
  1

  2
none_device
  4

  6

 40
0.0
 41
0.0
 42
0.0
 43
0.0
 44
0.0
 45
0.0
 46
0.0
 47
0.0
 48
0.0
 49
0.0
140
0.0
141
0.0
142
1.0
143
1.0
 70
  1712
 72
     0
 73
     0
 74
     0
  7

 75
     0
147
1.0
148
0.0
149
0.0
100
AcDbLayout
  1
Model
 70
     1
 71
     0
 10
0.0
 20
0.0
 11
279.4
 21
215.9
 12
0.0
 22
0.0
 32
0.0
 14
0.0
 24
0.0
 34
0.0
 15
279.4
 25
215.9
 35
0.0
146
0.0
 13
0.0
 23
0.0
 33
0.0
 16
1.0
 26
0.0
 36
0.0
 17
0.0
 27
1.0
 37
0.0
 76
     0
330
1F
331
29
  0
MLINESTYLE
  5
18
102
{ACAD_REACTORS
330
17
102
}
330
17
100
AcDbMlineStyle
  2
Standard
 70
     0
  3

 62
   256
 51
90.0
 52
90.0
 71
     2
 49
0.5
 62
   256
  6
BYLAYER
 49
-0.5
 62
   256
  6
BYLAYER
  0
ACDBPLACEHOLDER
  5
F
102
{ACAD_REACTORS
330
E
102
}
330
E
  0
ENDSEC
  0
EOF
