  0
SECTION
  2
HEADER
  9
$ACADVER
  1
AC1015
  9
$ACADMAINTVER
 70
     6
  9
$DWGCODEPAGE
  3
ANSI_1251
  9
$INSBASE
 10
0.0
 20
0.0
 30
0.0
  9
$EXTMIN
 10
0.0
 20
0.0
 30
0.0
  9
$EXTMAX
 10
297.0
 20
210.0
 30
0.0
  9
$LIMMIN
 10
0.0
 20
0.0
  9
$LIMMAX
 10
297.0
 20
210.0
  9
$ORTHOMODE
 70
     0
  9
$REGENMODE
 70
     1
  9
$FILLMODE
 70
     1
  9
$QTEXTMODE
 70
     0
  9
$MIRRTEXT
 70
     1
  9
$LTSCALE
 40
1.0
  9
$ATTMODE
 70
     1
  9
$TEXTSIZE
 40
3.5
  9
$TRACEWID
 40
1.0
  9
$TEXTSTYLE
  7
Standard
  9
$CLAYER
  8
0
  9
$CELTYPE
  6
ByLayer
  9
$CECOLOR
 62
   256
  9
$CELTSCALE
 40
1.0
  9
$DISPSILH
 70
     0
  9
$DIMSCALE
 40
1.0
  9
$DIMASZ
 40
3.5
  9
$DIMEXO
 40
0.01
  9
$DIMDLI
 40
3.75
  9
$DIMRND
 40
0.0
  9
$DIMDLE
 40
0.0
  9
$DIMEXE
 40
1.0
  9
$DIMTP
 40
0.0
  9
$DIMTM
 40
0.0
  9
$DIMTXT
 40
3.5
  9
$DIMCEN
 40
2.5
  9
$DIMTSZ
 40
0.0
  9
$DIMTOL
 70
     0
  9
$DIMLIM
 70
     0
  9
$DIMTIH
 70
     1
  9
$DIMTOH
 70
     1
  9
$DIMSE1
 70
     0
  9
$DIMSE2
 70
     0
  9
$DIMTAD
 70
     1
  9
$DIMZIN
 70
     0
  9
$DIMBLK
  1

  9
$DIMASO
 70
     1
  9
$DIMSHO
 70
     1
  9
$DIMPOST
  1

  9
$DIMAPOST
  1

  9
$DIMALT
 70
     0
  9
$DIMALTD
 70
     3
  9
$DIMALTF
 40
0.0393700787
  9
$DIMLFAC
 40
20.0
  9
$DIMTOFL
 70
     1
  9
$DIMTVP
 40
0.0
  9
$DIMTIX
 70
     0
  9
$DIMSOXD
 70
     0
  9
$DIMSAH
 70
     0
  9
$DIMBLK1
  1

  9
$DIMBLK2
  1

  9
$DIMSTYLE
  2
ISO-25
  9
$DIMCLRD
 70
     0
  9
$DIMCLRE
 70
     0
  9
$DIMCLRT
 70
     0
  9
$DIMTFAC
 40
1.0
  9
$DIMGAP
 40
3.0
  9
$DIMJUST
 70
     0
  9
$DIMSD1
 70
     0
  9
$DIMSD2
 70
     0
  9
$DIMTOLJ
 70
     0
  9
$DIMTZIN
 70
     0
  9
$DIMALTZ
 70
     0
  9
$DIMALTTZ
 70
     0
  9
$DIMUPT
 70
     0
  9
$DIMDEC
 70
     2
  9
$DIMTDEC
 70
     3
  9
$DIMALTU
 70
     2
  9
$DIMALTTD
 70
     3
  9
$DIMTXSTY
  7
Standard
  9
$DIMAUNIT
 70
     0
  9
$DIMADEC
 70
     2
  9
$DIMALTRND
 40
0.0
  9
$DIMAZIN
 70
     0
  9
$DIMDSEP
 70
    44
  9
$DIMATFIT
 70
     3
  9
$DIMFRAC
 70
     0
  9
$DIMLDRBLK
  1

  9
$DIMLUNIT
 70
     2
  9
$DIMLWD
 70
    -2
  9
$DIMLWE
 70
    -2
  9
$DIMTMOVE
 70
     0
  9
$LUNITS
 70
     2
  9
$LUPREC
 70
     2
  9
$SKETCHINC
 40
1.0
  9
$FILLETRAD
 40
10.0
  9
$AUNITS
 70
     0
  9
$AUPREC
 70
     2
  9
$MENU
  1
.
  9
$ELEVATION
 40
0.0
  9
$PELEVATION
 40
0.0
  9
$THICKNESS
 40
0.0
  9
$LIMCHECK
 70
     0
  9
$CHAMFERA
 40
10.0
  9
$CHAMFERB
 40
10.0
  9
$CHAMFERC
 40
20.0
  9
$CHAMFERD
 40
0.0
  9
$SKPOLY
 70
     0
  9
$TDCREATE
 40
2457407.833975695
  9
$TDUCREATE
 40
2457407.750642361
  9
$TDUPDATE
 40
2457407.83397985
  9
$TDUUPDATE
 40
2457407.750646516
  9
$TDINDWG
 40
0.0000000116
  9
$TDUSRTIMER
 40
0.0000000116
  9
$USRTIMER
 70
     1
  9
$ANGBASE
 50
0.0
  9
$ANGDIR
 70
     0
  9
$PDMODE
 70
     0
  9
$PDSIZE
 40
-1.0
  9
$PLINEWID
 40
0.0
  9
$SPLFRAME
 70
     0
  9
$SPLINETYPE
 70
     6
  9
$SPLINESEGS
 70
     8
  9
$HANDSEED
  5
173
  9
$SURFTAB1
 70
     6
  9
$SURFTAB2
 70
     6
  9
$SURFTYPE
 70
     6
  9
$SURFU
 70
     6
  9
$SURFV
 70
     6
  9
$UCSBASE
  2

  9
$UCSNAME
  2

  9
$UCSORG
 10
0.0
 20
0.0
 30
0.0
  9
$UCSXDIR
 10
1.0
 20
0.0
 30
0.0
  9
$UCSYDIR
 10
0.0
 20
1.0
 30
0.0
  9
$UCSORTHOREF
  2

  9
$UCSORTHOVIEW
 70
     0
  9
$UCSORGTOP
 10
0.0
 20
0.0
 30
0.0
  9
$UCSORGBOTTOM
 10
0.0
 20
0.0
 30
0.0
  9
$UCSORGLEFT
 10
0.0
 20
0.0
 30
0.0
  9
$UCSORGRIGHT
 10
0.0
 20
0.0
 30
0.0
  9
$UCSORGFRONT
 10
0.0
 20
0.0
 30
0.0
  9
$UCSORGBACK
 10
0.0
 20
0.0
 30
0.0
  9
$PUCSBASE
  2

  9
$PUCSNAME
  2

  9
$PUCSORG
 10
0.0
 20
0.0
 30
0.0
  9
$PUCSXDIR
 10
1.0
 20
0.0
 30
0.0
  9
$PUCSYDIR
 10
0.0
 20
1.0
 30
0.0
  9
$PUCSORTHOREF
  2

  9
$PUCSORTHOVIEW
 70
     0
  9
$PUCSORGTOP
 10
0.0
 20
0.0
 30
0.0
  9
$PUCSORGBOTTOM
 10
0.0
 20
0.0
 30
0.0
  9
$PUCSORGLEFT
 10
0.0
 20
0.0
 30
0.0
  9
$PUCSORGRIGHT
 10
0.0
 20
0.0
 30
0.0
  9
$PUCSORGFRONT
 10
0.0
 20
0.0
 30
0.0
  9
$PUCSORGBACK
 10
0.0
 20
0.0
 30
0.0
  9
$USERI1
 70
     0
  9
$USERI2
 70
     0
  9
$USERI3
 70
     0
  9
$USERI4
 70
     0
  9
$USERI5
 70
     0
  9
$USERR1
 40
0.0
  9
$USERR2
 40
0.0
  9
$USERR3
 40
0.0
  9
$USERR4
 40
0.0
  9
$USERR5
 40
0.0
  9
$WORLDVIEW
 70
     1
  9
$SHADEDGE
 70
     3
  9
$SHADEDIF
 70
    70
  9
$TILEMODE
 70
     1
  9
$MAXACTVP
 70
    64
  9
$PINSBASE
 10
0.0
 20
0.0
 30
0.0
  9
$PLIMCHECK
 70
     0
  9
$PEXTMIN
 10
1.0000000000E+20
 20
1.0000000000E+20
 30
1.0000000000E+20
  9
$PEXTMAX
 10
-1.0000000000E+20
 20
-1.0000000000E+20
 30
-1.0000000000E+20
  9
$PLIMMIN
 10
0.0
 20
0.0
  9
$PLIMMAX
 10
420.0
 20
297.0
  9
$UNITMODE
 70
     0
  9
$VISRETAIN
 70
     1
  9
$PLINEGEN
 70
     0
  9
$PSLTSCALE
 70
     1
  9
$TREEDEPTH
 70
  3020
  9
$CMLSTYLE
  2
Standard
  9
$CMLJUST
 70
     0
  9
$CMLSCALE
 40
20.0
  9
$PROXYGRAPHICS
 70
     1
  9
$MEASUREMENT
 70
     1
  9
$CELWEIGHT
370
    -1
  9
$ENDCAPS
280
     0
  9
$JOINSTYLE
280
     0
  9
$LWDISPLAY
290
     1
  9
$INSUNITS
 70
     4
  9
$HYPERLINKBASE
  1

  9
$STYLESHEET
  1

  9
$XEDIT
290
     1
  9
$CEPSNTYPE
380
     0
  9
$PSTYLEMODE
290
     1
  9
$FINGERPRINTGUID
  2
{2B02D44B-E5E2-41FA-BA69-785020B66FDE}
  9
$VERSIONGUID
  2
{FAEB1C32-E019-11D5-929B-00C0DF256EC4}
  9
$EXTNAMES
290
     1
  9
$PSVPSCALE
 40
0.0
  9
$OLESTARTUP
290
     0
  0
ENDSEC
  0
SECTION
  2
CLASSES
  0
CLASS
  1
ACDBDICTIONARYWDFLT
  2
AcDbDictionaryWithDefault
  3
ObjectDBX Classes
 90
        0
280
     0
281
     0
  0
CLASS
  1
VISUALSTYLE
  2
AcDbVisualStyle
  3
ObjectDBX Classes
 90
     4095
280
     0
281
     0
  0
CLASS
  1
MATERIAL
  2
AcDbMaterial
  3
ObjectDBX Classes
 90
     1153
280
     0
281
     0
  0
CLASS
  1
ACDBPLACEHOLDER
  2
AcDbPlaceHolder
  3
ObjectDBX Classes
 90
        0
280
     0
281
     0
  0
CLASS
  1
LAYOUT
  2
AcDbLayout
  3
ObjectDBX Classes
 90
        0
280
     0
281
     0
  0
ENDSEC
  0
SECTION
  2
TABLES
  0
TABLE
  2
VPORT
  5
8
330
0
100
AcDbSymbolTable
 70
     1
  0
VPORT
  5
29
330
8
100
AcDbSymbolTableRecord
100
AcDbViewportTableRecord
  2
*Active
 70
     0
 10
0.0
 20
0.0
 11
1.0
 21
1.0
 12
148.5
 22
105.0
 13
0.0
 23
0.0
 14
10.0
 24
10.0
 15
10.0
 25
10.0
 16
0.0
 26
0.0
 36
1.0
 17
0.0
 27
0.0
 37
0.0
 40
210.0
 41
1.4142857143
 42
50.0
 43
0.0
 44
0.0
 50
0.0
 51
0.0
 71
     0
 72
  2000
 73
     1
 74
     3
 75
     0
 76
     0
 77
     0
 78
     0
281
     0
 65
     1
110
0.0
120
0.0
130
0.0
111
1.0
121
0.0
131
0.0
112
0.0
122
1.0
132
0.0
 79
     0
146
0.0
  0
ENDTAB
  0
TABLE
  2
LTYPE
  5
5
330
0
100
AcDbSymbolTable
 70
     6
  0
LTYPE
  5
14
330
5
100
AcDbSymbolTableRecord
100
AcDbLinetypeTableRecord
  2
ByBlock
 70
     0
  3

 72
    65
 73
     0
 40
0.0
  0
LTYPE
  5
15
330
5
100
AcDbSymbolTableRecord
100
AcDbLinetypeTableRecord
  2
ByLayer
 70
     0
  3

 72
    65
 73
     0
 40
0.0
  0
LTYPE
  5
16
330
5
100
AcDbSymbolTableRecord
100
AcDbLinetypeTableRecord
  2
Continuous
 70
     0
  3
Solid line
 72
    65
 73
     0
 40
0.0
  0
LTYPE
  5
3F
330
5
100
AcDbSymbolTableRecord
100
AcDbLinetypeTableRecord
  2
HIDDEN
 70
     0
  3
Hidden __ __ __ __ __ __ __ __ __ __ __ __ __ __
 72
    65
 73
     2
 40
1.905
 49
1.27
 74
     0
 49
-0.635
 74
     0
  0
LTYPE
  5
40
330
5
100
AcDbSymbolTableRecord
100
AcDbLinetypeTableRecord
  2
PHANTOM
 70
     0
  3
Phantom ______  __  __  ______  __  __  ______
 72
    65
 73
     6
 40
12.7
 49
6.35
 74
     0
 49
-1.27
 74
     0
 49
1.27
 74
     0
 49
-1.27
 74
     0
 49
1.27
 74
     0
 49
-1.27
 74
     0
  0
LTYPE
  5
41
330
5
100
AcDbSymbolTableRecord
100
AcDbLinetypeTableRecord
  2
CENTER
 70
     0
  3
Center ____ _ ____ _ ____ _ ____ _ ____ _ ____
 72
    65
 73
     4
 40
10.16
 49
6.35
 74
     0
 49
-1.27
 74
     0
 49
1.27
 74
     0
 49
-1.27
 74
     0
  0
LTYPE
  5
42
330
5
100
AcDbSymbolTableRecord
100
AcDbLinetypeTableRecord
  2
CENTERX2
 70
     0
  3
Center (2x) ________  __  ________  __  _____
 72
    65
 73
     4
 40
20.32
 49
12.7
 74
     0
 49
-2.54
 74
     0
 49
2.54
 74
     0
 49
-2.54
 74
     0
  0
LTYPE
  5
43
330
5
100
AcDbSymbolTableRecord
100
AcDbLinetypeTableRecord
  2
DOT2
 70
     0
  3
Dot (.5x) ........................................
 72
    65
 73
     2
 40
0.635
 49
0.0
 74
     0
 49
-0.635
 74
     0
  0
ENDTAB
  0
TABLE
  2
LAYER
  5
2
330
0
100
AcDbSymbolTable
 70
     1
  0
LAYER
  5
10
330
2
100
AcDbSymbolTableRecord
100
AcDbLayerTableRecord
  2
0
 70
     0
 62
     7
  6
Continuous
370
    -3
390
F
  0
ENDTAB
  0
TABLE
  2
STYLE
  5
3
330
0
100
AcDbSymbolTable
 70
     1
  0
STYLE
  5
11
330
3
100
AcDbSymbolTableRecord
100
AcDbTextStyleTableRecord
  2
Standard
 70
     0
 40
0.0
 41
1.0
 50
0.0
 71
     0
 42
3.5
  3
txt
  4

  0
ENDTAB
  0
TABLE
  2
VIEW
  5
6
330
0
100
AcDbSymbolTable
 70
     0
  0
ENDTAB
  0
TABLE
  2
UCS
  5
7
330
0
100
AcDbSymbolTable
 70
     0
  0
ENDTAB
  0
TABLE
  2
APPID
  5
9
330
0
100
AcDbSymbolTable
 70
     1
  0
APPID
  5
12
330
9
100
AcDbSymbolTableRecord
100
AcDbRegAppTableRecord
  2
ACAD
 70
     0
  0
ENDTAB
  0
TABLE
  2
DIMSTYLE
  5
A
330
0
100
AcDbSymbolTable
 70
     1
100
AcDbDimStyleTable
  0
DIMSTYLE
105
27
330
A
100
AcDbSymbolTableRecord
100
AcDbDimStyleTableRecord
  2
ISO-25
 70
     0
 41
2.5
 42
0.625
 43
3.75
 44
1.25
 73
     0
 74
     0
 77
     1
 78
     8
140
2.5
141
2.5
143
0.0393700787
147
0.625
171
     3
172
     1
178
     0
271
     2
272
     2
274
     3
278
    44
283
     0
284
     8
340
11
  0
ENDTAB
  0
TABLE
  2
BLOCK_RECORD
  5
1
330
0
100
AcDbSymbolTable
 70
     1
  0
BLOCK_RECORD
  5
1F
330
1
100
AcDbSymbolTableRecord
100
AcDbBlockTableRecord
  2
*Model_Space
340
22
  0
BLOCK_RECORD
  5
1B
330
1
100
AcDbSymbolTableRecord
100
AcDbBlockTableRecord
  2
*Paper_Space
340
1E
  0
BLOCK_RECORD
  5
23
330
1
100
AcDbSymbolTableRecord
100
AcDbBlockTableRecord
  2
*Paper_Space0
340
26
  0
ENDTAB
  0
ENDSEC
  0
SECTION
  2
BLOCKS
  0
BLOCK
  5
20
330
1F
100
AcDbEntity
  8
0
100
AcDbBlockBegin
  2
*Model_Space
 70
     0
 10
0.0
 20
0.0
 30
0.0
  3
*Model_Space
  1

  0
ENDBLK
  5
21
330
1F
100
AcDbEntity
  8
0
100
AcDbBlockEnd
  0
BLOCK
  5
1C
330
1B
100
AcDbEntity
 67
     1
  8
0
100
AcDbBlockBegin
  2
*Paper_Space
 70
     0
 10
0.0
 20
0.0
 30
0.0
  3
*Paper_Space
  1

  0
ENDBLK
  5
1D
330
1B
100
AcDbEntity
 67
     1
  8
0
100
AcDbBlockEnd
  0
BLOCK
  5
24
330
23
100
AcDbEntity
  8
0
100
AcDbBlockBegin
  2
*Paper_Space0
 70
     0
 10
0.0
 20
0.0
 30
0.0
  3
*Paper_Space0
  1

  0
ENDBLK
  5
25
330
23
100
AcDbEntity
  8
0
100
AcDbBlockEnd
  0
ENDSEC
  0
SECTION
  2
ENTITIES
  0
ARC
  5
44
330
1F
100
AcDbEntity
  8
0
  6
Continuous
 62
     7
370
    15
100
AcDbCircle
 10
65.7912430939
 20
118.4313770718
 30
0.0
 40
15.0385
100
AcDbArc
 50
235.7133404404
 51
304.2866595596
  0
ARC
  5
45
330
1F
100
AcDbEntity
  8
0
  6
Continuous
 62
     7
370
    15
100
AcDbCircle
 10
58.2912430939
 20
107.431287391
 30
0.0
 40
1.724898947476388
100
AcDbArc
 50
74.4759380798
 51
235.7133404404
  0
ARC
  5
46
330
1F
100
AcDbEntity
  8
0
  6
Continuous
 62
     7
370
    15
100
AcDbCircle
 10
65.7912430939
 20
134.4313770718
 30
0.0
 40
26.29749999999998
100
AcDbArc
 50
254.4759380798
 51
260.75486838
  0
ARC
  5
47
330
1F
100
AcDbEntity
  8
0
  6
Continuous
 62
     7
370
    15
100
AcDbCircle
 10
61.7912430939
 20
109.8572950696
 30
0.0
 40
1.400000000000007
100
AcDbArc
 50
260.75486838
 51
0.0
  0
LINE
  5
48
330
1F
100
AcDbEntity
  8
0
  6
Continuous
 62
     7
370
    15
100
AcDbLine
 10
63.1912430403
 20
155.9759631939
 30
0.0
 11
63.1912430403
 21
109.8572954721
 31
0.0
  0
ARC
  5
49
330
1F
100
AcDbEntity
  8
0
  6
Continuous
 62
     7
370
    15
100
AcDbCircle
 10
62.6412430939
 20
155.9759624497
 30
0.0
 40
0.5499999999999972
100
AcDbArc
 50
0.0
 51
33.4427308279
  0
ARC
  5
4A
330
1F
100
AcDbEntity
  8
0
  6
Continuous
 62
     7
370
    15
100
AcDbCircle
 10
65.7912430939
 20
158.0563770718
 30
0.0
 40
3.225000000000004
100
AcDbArc
 50
326.5572691721
 51
213.4427308279
  0
ARC
  5
4B
330
1F
100
AcDbEntity
  8
0
  6
Continuous
 62
     7
370
    15
100
AcDbCircle
 10
68.9412430939
 20
155.9759624497
 30
0.0
 40
0.5500000000000114
100
AcDbArc
 50
146.5572691721
 51
180.0
  0
LINE
  5
4C
330
1F
100
AcDbEntity
  8
0
  6
Continuous
 62
     7
370
    15
100
AcDbLine
 10
68.3912431476
 20
109.8572954721
 30
0.0
 11
68.3912431476
 21
155.9759631939
 31
0.0
  0
ARC
  5
4D
330
1F
100
AcDbEntity
  8
0
  6
Continuous
 62
     7
370
    15
100
AcDbCircle
 10
69.7912430939
 20
109.8572950696
 30
0.0
 40
1.400000000000018
100
AcDbArc
 50
180.0
 51
279.24513162
  0
ARC
  5
4E
330
1F
100
AcDbEntity
  8
0
  6
Continuous
 62
     7
370
    15
100
AcDbCircle
 10
65.7912430939
 20
134.4313770718
 30
0.0
 40
26.29749999999999
100
AcDbArc
 50
279.24513162
 51
285.5240619202
  0
ARC
  5
4F
330
1F
100
AcDbEntity
  8
0
  6
Continuous
 62
     7
370
    15
100
AcDbCircle
 10
73.2912430939
 20
107.431287391
 30
0.0
 40
1.724898947476384
100
AcDbArc
 50
304.2866595596
 51
105.5240619202
  0
LINE
  5
50
330
1F
100
AcDbEntity
  8
0
  6
Continuous
 62
     7
370
    15
100
AcDbLine
 10
67.2665925351
 20
156.1933770961
 30
0.0
 11
64.3158936528
 21
156.1933770961
 31
0.0
  0
ARC
  5
51
330
1F
100
AcDbEntity
  8
0
  6
Continuous
 62
     7
370
    15
100
AcDbCircle
 10
67.2665925441
 20
156.7433770718
 30
0.0
 40
0.549999999999983
100
AcDbArc
 50
270.0
 51
318.3322395277
  0
ARC
  5
52
330
1F
100
AcDbEntity
  8
0
  6
Continuous
 62
     7
370
    15
100
AcDbCircle
 10
65.7912430939
 20
158.0563770718
 30
0.0
 40
2.524999999999997
100
AcDbArc
 50
318.3322395277
 51
221.6677604723
  0
ARC
  5
53
330
1F
100
AcDbEntity
  8
0
  6
Continuous
 62
     7
370
    15
100
AcDbCircle
 10
64.3158936438
 20
156.7433770718
 30
0.0
 40
0.549999999999983
100
AcDbArc
 50
221.6677604723
 51
270.0
  0
ARC
  5
54
330
1F
100
AcDbEntity
  8
0
  6
Continuous
 62
     7
370
    15
100
AcDbCircle
 10
64.2412430939
 20
153.0738273392
 30
0.0
 40
0.3500000000000157
100
AcDbArc
 50
93.3295911171
 51
180.0
  0
LINE
  5
55
330
1F
100
AcDbEntity
  8
0
  6
Continuous
 62
     7
370
    15
100
AcDbLine
 10
63.891243155
 20
152.0971164293
 30
0.0
 11
63.891243155
 21
153.0738279409
 31
0.0
  0
ARC
  5
56
330
1F
100
AcDbEntity
  8
0
  6
Continuous
 62
     7
370
    15
100
AcDbCircle
 10
64.2412430939
 20
152.0971160296
 30
0.0
 40
0.3500000000000014
100
AcDbArc
 50
180.0
 51
273.4559974121
  0
ARC
  5
57
330
1F
100
AcDbEntity
  8
0
  6
Continuous
 62
     7
370
    15
100
AcDbCircle
 10
65.7912430939
 20
126.4313770718
 30
0.0
 40
25.36250000000001
100
AcDbArc
 50
86.5440025879
 51
93.4559974121
  0
ARC
  5
58
330
1F
100
AcDbEntity
  8
0
  6
Continuous
 62
     7
370
    15
100
AcDbCircle
 10
67.3412430939
 20
152.0971160296
 30
0.0
 40
0.3499999999999943
100
AcDbArc
 50
266.5440025879
 51
0.0
  0
LINE
  5
59
330
1F
100
AcDbEntity
  8
0
  6
Continuous
 62
     7
370
    15
100
AcDbLine
 10
67.6912430328
 20
153.0738279409
 30
0.0
 11
67.6912430328
 21
152.0971164293
 31
0.0
  0
ARC
  5
5A
330
1F
100
AcDbEntity
  8
0
  6
Continuous
 62
     7
370
    15
100
AcDbCircle
 10
67.3412430939
 20
153.0738273392
 30
0.0
 40
0.350000000000015
100
AcDbArc
 50
0.0
 51
86.6704088829
  0
ARC
  5
5B
330
1F
100
AcDbEntity
  8
0
  6
Continuous
 62
     7
370
    15
100
AcDbCircle
 10
65.7912430939
 20
126.4313770718
 30
0.0
 40
27.03750000000003
100
AcDbArc
 50
86.6704088829
 51
93.3295911171
  0
ARC
  5
5C
330
1F
100
AcDbEntity
  8
0
  6
Continuous
 62
     7
370
    15
100
AcDbCircle
 10
64.2412430939
 20
148.6937335074
 30
0.0
 40
0.3500000000000014
100
AcDbArc
 50
93.9827488018
 51
180.0
  0
LINE
  5
5D
330
1F
100
AcDbEntity
  8
0
  6
Continuous
 62
     7
370
    15
100
AcDbLine
 10
63.891243155
 20
144.7873011417
 30
0.0
 11
63.891243155
 21
148.6937329359
 31
0.0
  0
ARC
  5
5E
330
1F
100
AcDbEntity
  8
0
  6
Continuous
 62
     7
370
    15
100
AcDbCircle
 10
64.2412430939
 20
144.7873012262
 30
0.0
 40
0.3500000000000082
100
AcDbArc
 50
180.0
 51
274.8266857872
  0
ARC
  5
5F
330
1F
100
AcDbEntity
  8
0
  6
Continuous
 62
     7
370
    15
100
AcDbCircle
 10
65.7912430939
 20
126.4313770718
 30
0.0
 40
18.07125000000002
100
AcDbArc
 50
85.1733142128
 51
94.8266857872
  0
ARC
  5
60
330
1F
100
AcDbEntity
  8
0
  6
Continuous
 62
     7
370
    15
100
AcDbCircle
 10
67.3412430939
 20
144.7873012262
 30
0.0
 40
0.3500000000000378
100
AcDbArc
 50
265.1733142128
 51
0.0
  0
LINE
  5
61
330
1F
100
AcDbEntity
  8
0
  6
Continuous
 62
     7
370
    15
100
AcDbLine
 10
67.6912430328
 20
148.6937329359
 30
0.0
 11
67.6912430328
 21
144.7873011417
 31
0.0
  0
ARC
  5
62
330
1F
100
AcDbEntity
  8
0
  6
Continuous
 62
     7
370
    15
100
AcDbCircle
 10
67.3412430939
 20
148.6937335074
 30
0.0
 40
0.3499999999999943
100
AcDbArc
 50
0.0
 51
86.0172511982
  0
ARC
  5
63
330
1F
100
AcDbEntity
  8
0
  6
Continuous
 62
     7
370
    15
100
AcDbCircle
 10
65.7912430939
 20
126.4313770718
 30
0.0
 40
22.66625
100
AcDbArc
 50
86.0172511982
 51
93.9827488018
  0
ARC
  5
64
330
1F
100
AcDbEntity
  8
0
  6
Continuous
 62
     7
370
    15
100
AcDbCircle
 10
64.2412430939
 20
141.3762131365
 30
0.0
 40
0.3500000000000014
100
AcDbArc
 50
95.9212471272
 51
180.0
  0
LINE
  5
65
330
1F
100
AcDbEntity
  8
0
  6
Continuous
 62
     7
370
    15
100
AcDbLine
 10
63.891243155
 20
136.0371252707
 30
0.0
 11
63.891243155
 21
141.3762130029
 31
0.0
  0
ARC
  5
66
330
1F
100
AcDbEntity
  8
0
  6
Continuous
 62
     7
370
    15
100
AcDbCircle
 10
64.2412430939
 20
136.0371253508
 30
0.0
 40
0.3500000000000014
100
AcDbArc
 50
180.0
 51
279.1663336772
  0
ARC
  5
67
330
1F
100
AcDbEntity
  8
0
  6
Continuous
 62
     7
370
    15
100
AcDbCircle
 10
65.7912430939
 20
126.4313770718
 30
0.0
 40
9.380000000000024
100
AcDbArc
 50
80.8336663228
 51
99.1663336772
  0
ARC
  5
68
330
1F
100
AcDbEntity
  8
0
  6
Continuous
 62
     7
370
    15
100
AcDbCircle
 10
67.3412430939
 20
136.0371253508
 30
0.0
 40
0.3499999999999963
100
AcDbArc
 50
260.8336663228
 51
0.0
  0
LINE
  5
69
330
1F
100
AcDbEntity
  8
0
  6
Continuous
 62
     7
370
    15
100
AcDbLine
 10
67.6912430328
 20
141.3762130029
 30
0.0
 11
67.6912430328
 21
136.0371252707
 31
0.0
  0
ARC
  5
6A
330
1F
100
AcDbEntity
  8
0
  6
Continuous
 62
     7
370
    15
100
AcDbCircle
 10
67.3412430939
 20
141.3762131365
 30
0.0
 40
0.3499999999999943
100
AcDbArc
 50
0.0
 51
84.0787528728
  0
ARC
  5
6B
330
1F
100
AcDbEntity
  8
0
  6
Continuous
 62
     7
370
    15
100
AcDbCircle
 10
65.7912430939
 20
126.4313770718
 30
0.0
 40
15.37499999999999
100
AcDbArc
 50
84.0787528728
 51
95.9212471272
  0
ARC
  5
6C
330
1F
100
AcDbEntity
  8
0
  6
Continuous
 62
     7
370
    15
100
AcDbCircle
 10
64.2412430939
 20
132.594454631
 30
0.0
 40
0.3500000000000014
100
AcDbArc
 50
104.1169805713
 51
180.0
  0
LINE
  5
6D
330
1F
100
AcDbEntity
  8
0
  6
Continuous
 62
     7
370
    15
100
AcDbLine
 10
63.891243155
 20
127.6145927794
 30
0.0
 11
63.891243155
 21
132.5944546796
 31
0.0
  0
ARC
  5
6E
330
1F
100
AcDbEntity
  8
0
  6
Continuous
 62
     7
370
    15
100
AcDbCircle
 10
64.2412430939
 20
127.6145930284
 30
0.0
 40
0.3500000000000014
100
AcDbArc
 50
180.0
 51
322.6431480271
  0
ARC
  5
6F
330
1F
100
AcDbEntity
  8
0
  6
Continuous
 62
     7
370
    15
100
AcDbCircle
 10
65.7912430939
 20
126.4313770718
 30
0.0
 40
1.600000000000012
100
AcDbArc
 50
37.3568519729
 51
142.6431480271
  0
ARC
  5
70
330
1F
100
AcDbEntity
  8
0
  6
Continuous
 62
     7
370
    15
100
AcDbCircle
 10
67.3412430939
 20
127.6145930284
 30
0.0
 40
0.3500000000000227
100
AcDbArc
 50
217.3568519729
 51
0.0
  0
LINE
  5
71
330
1F
100
AcDbEntity
  8
0
  6
Continuous
 62
     7
370
    15
100
AcDbLine
 10
67.6912430328
 20
132.5944546796
 30
0.0
 11
67.6912430328
 21
127.6145927794
 31
0.0
  0
ARC
  5
72
330
1F
100
AcDbEntity
  8
0
  6
Continuous
 62
     7
370
    15
100
AcDbCircle
 10
67.3412430939
 20
132.594454631
 30
0.0
 40
0.3499999999999943
100
AcDbArc
 50
0.0
 51
75.8830194287
  0
ARC
  5
73
330
1F
100
AcDbEntity
  8
0
  6
Continuous
 62
     7
370
    15
100
AcDbCircle
 10
65.7912430939
 20
126.4313770718
 30
0.0
 40
6.705000000000004
100
AcDbArc
 50
75.8830194287
 51
104.1169805713
  0
ARC
  5
74
330
1F
100
AcDbEntity
  8
0
  6
Continuous
 62
     7
370
    15
100
AcDbCircle
 10
64.2412430939
 20
125.2481611152
 30
0.0
 40
0.3500000000000014
100
AcDbArc
 50
37.3568519729
 51
180.0
  0
LINE
  5
75
330
1F
100
AcDbEntity
  8
0
  6
Continuous
 62
     7
370
    15
100
AcDbLine
 10
63.891243155
 20
120.2683001942
 30
0.0
 11
63.891243155
 21
125.2481609769
 31
0.0
  0
ARC
  5
76
330
1F
100
AcDbEntity
  8
0
  6
Continuous
 62
     7
370
    15
100
AcDbCircle
 10
64.2412430939
 20
120.2682995127
 30
0.0
 40
0.3500000000000014
100
AcDbArc
 50
180.0
 51
255.8830194287
  0
ARC
  5
77
330
1F
100
AcDbEntity
  8
0
  6
Continuous
 62
     7
370
    15
100
AcDbCircle
 10
65.7912430939
 20
126.4313770718
 30
0.0
 40
6.704999999999987
100
AcDbArc
 50
255.8830194287
 51
284.1169805713
  0
ARC
  5
78
330
1F
100
AcDbEntity
  8
0
  6
Continuous
 62
     7
370
    15
100
AcDbCircle
 10
67.3412430939
 20
120.2682995127
 30
0.0
 40
0.3499999999999943
100
AcDbArc
 50
284.1169805713
 51
0.0
  0
LINE
  5
79
330
1F
100
AcDbEntity
  8
0
  6
Continuous
 62
     7
370
    15
100
AcDbLine
 10
67.6912430328
 20
125.2481609769
 30
0.0
 11
67.6912430328
 21
120.2683001942
 31
0.0
  0
ARC
  5
7A
330
1F
100
AcDbEntity
  8
0
  6
Continuous
 62
     7
370
    15
100
AcDbCircle
 10
67.3412430939
 20
125.2481611152
 30
0.0
 40
0.3500000000000227
100
AcDbArc
 50
0.0
 51
142.6431480271
  0
ARC
  5
7B
330
1F
100
AcDbEntity
  8
0
  6
Continuous
 62
     7
370
    15
100
AcDbCircle
 10
65.7912430939
 20
126.4313770718
 30
0.0
 40
1.599999999999994
100
AcDbArc
 50
217.3568519729
 51
322.6431480271
  0
ARC
  5
7C
330
1F
100
AcDbEntity
  8
0
  6
Continuous
 62
     7
370
    15
100
AcDbCircle
 10
64.2412430939
 20
116.8256287928
 30
0.0
 40
0.3500000000000014
100
AcDbArc
 50
80.8336663228
 51
180.0
  0
LINE
  5
7D
330
1F
100
AcDbEntity
  8
0
  6
Continuous
 62
     7
370
    15
100
AcDbLine
 10
63.891243155
 20
112.1313765831
 30
0.0
 11
63.891243155
 21
116.8256282992
 31
0.0
  0
ARC
  5
7E
330
1F
100
AcDbEntity
  8
0
  6
Continuous
 62
     7
370
    15
100
AcDbCircle
 10
64.2412430939
 20
112.1313770718
 30
0.0
 40
0.3500000000000085
100
AcDbArc
 50
180.0
 51
270.0
  0
LINE
  5
7F
330
1F
100
AcDbEntity
  8
0
  6
Continuous
 62
     7
370
    15
100
AcDbLine
 10
67.3412430686
 20
111.7813766188
 30
0.0
 11
64.2412431193
 21
111.7813766188
 31
0.0
  0
ARC
  5
80
330
1F
100
AcDbEntity
  8
0
  6
Continuous
 62
     7
370
    15
100
AcDbCircle
 10
67.3412430939
 20
112.1313770718
 30
0.0
 40
0.3500000000000085
100
AcDbArc
 50
270.0
 51
0.0
  0
LINE
  5
81
330
1F
100
AcDbEntity
  8
0
  6
Continuous
 62
     7
370
    15
100
AcDbLine
 10
67.6912430328
 20
116.8256282992
 30
0.0
 11
67.6912430328
 21
112.1313765831
 31
0.0
  0
ARC
  5
82
330
1F
100
AcDbEntity
  8
0
  6
Continuous
 62
     7
370
    15
100
AcDbCircle
 10
67.3412430939
 20
116.8256287928
 30
0.0
 40
0.3499999999999963
100
AcDbArc
 50
0.0
 51
99.1663336772
  0
ARC
  5
83
330
1F
100
AcDbEntity
  8
0
  6
Continuous
 62
     7
370
    15
100
AcDbCircle
 10
65.7912430939
 20
126.4313770718
 30
0.0
 40
9.379999999999995
100
AcDbArc
 50
260.8336663228
 51
279.1663336772
  0
ARC
  5
84
330
1F
100
AcDbEntity
  8
0
  6
Continuous
 62
     7
370
    15
100
AcDbCircle
 10
60.1779044923
 20
107.2065458328
 30
0.0
 40
0.5500000000000211
100
AcDbArc
 50
78.3497584273
 51
173.2068628544
  0
ARC
  5
85
330
1F
100
AcDbEntity
  8
0
  6
Continuous
 62
     7
370
    15
100
AcDbCircle
 10
58.2912430939
 20
107.431287391
 30
0.0
 40
1.350000000000047
100
AcDbArc
 50
322.9613959982
 51
353.2068628544
  0
ARC
  5
86
330
1F
100
AcDbEntity
  8
0
  6
Continuous
 62
     7
370
    15
100
AcDbCircle
 10
59.8078798008
 20
106.2868167277
 30
0.0
 40
0.5499999999999977
100
AcDbArc
 50
142.9613959982
 51
243.7715253189
  0
ARC
  5
87
330
1F
100
AcDbEntity
  8
0
  6
Continuous
 62
     7
370
    15
100
AcDbCircle
 10
65.7912430939
 20
118.4313770718
 30
0.0
 40
14.0885
100
AcDbArc
 50
243.7715253189
 51
260.8623797068
  0
ARC
  5
88
330
1F
100
AcDbEntity
  8
0
  6
Continuous
 62
     7
370
    15
100
AcDbCircle
 10
63.6412430939
 20
105.0646840534
 30
0.0
 40
0.5500000000000006
100
AcDbArc
 50
260.8623797068
 51
0.0
  0
LINE
  5
89
330
1F
100
AcDbEntity
  8
0
  6
Continuous
 62
     7
370
    15
100
AcDbLine
 10
64.1912430179
 20
106.7171484418
 30
0.0
 11
64.1912430179
 21
105.0646841712
 31
0.0
  0
ARC
  5
8A
330
1F
100
AcDbEntity
  8
0
  6
Continuous
 62
     7
370
    15
100
AcDbCircle
 10
63.6412430939
 20
106.7171477618
 30
0.0
 40
0.5500000000000043
100
AcDbArc
 50
0.0
 51
85.564022681
  0
ARC
  5
8B
330
1F
100
AcDbEntity
  8
0
  6
Continuous
 62
     7
370
    15
100
AcDbCircle
 10
65.7912430939
 20
134.4313770718
 30
0.0
 40
27.24749999999998
100
AcDbArc
 50
258.3497584273
 51
265.564022681
  0
ARC
  5
8C
330
1F
100
AcDbEntity
  8
0
  6
Continuous
 62
     7
370
    15
100
AcDbCircle
 10
67.9412430939
 20
106.7171477618
 30
0.0
 40
0.5500000000000177
100
AcDbArc
 50
94.435977319
 51
180.0
  0
LINE
  5
8D
330
1F
100
AcDbEntity
  8
0
  6
Continuous
 62
     7
370
    15
100
AcDbLine
 10
67.3912431699
 20
105.0646841712
 30
0.0
 11
67.3912431699
 21
106.7171484418
 31
0.0
  0
ARC
  5
8E
330
1F
100
AcDbEntity
  8
0
  6
Continuous
 62
     7
370
    15
100
AcDbCircle
 10
67.9412430939
 20
105.0646840534
 30
0.0
 40
0.5500000000000052
100
AcDbArc
 50
180.0
 51
279.1376202932
  0
ARC
  5
8F
330
1F
100
AcDbEntity
  8
0
  6
Continuous
 62
     7
370
    15
100
AcDbCircle
 10
65.7912430939
 20
118.4313770718
 30
0.0
 40
14.0885
100
AcDbArc
 50
279.1376202932
 51
296.2284746811
  0
ARC
  5
90
330
1F
100
AcDbEntity
  8
0
  6
Continuous
 62
     7
370
    15
100
AcDbCircle
 10
71.774606387
 20
106.2868167277
 30
0.0
 40
0.5499999999999983
100
AcDbArc
 50
296.2284746811
 51
37.0386040018
  0
ARC
  5
91
330
1F
100
AcDbEntity
  8
0
  6
Continuous
 62
     7
370
    15
100
AcDbCircle
 10
73.2912430939
 20
107.431287391
 30
0.0
 40
1.349999999999999
100
AcDbArc
 50
186.7931371456
 51
217.0386040018
  0
ARC
  5
92
330
1F
100
AcDbEntity
  8
0
  6
Continuous
 62
     7
370
    15
100
AcDbCircle
 10
71.4045816956
 20
107.2065458328
 30
0.0
 40
0.5500000000000101
100
AcDbArc
 50
6.7931371456
 51
101.6502415727
  0
ARC
  5
93
330
1F
100
AcDbEntity
  8
0
  6
Continuous
 62
     7
370
    15
100
AcDbCircle
 10
65.7912430939
 20
134.4313770718
 30
0.0
 40
27.24749999999998
100
AcDbArc
 50
274.435977319
 51
281.6502415727
  0
CIRCLE
  5
94
330
1F
100
AcDbEntity
  8
0
  6
Continuous
 62
     7
370
    15
100
AcDbCircle
 10
65.7912430939
 20
154.8313770718
 30
0.0
 40
0.5250000000000057
  0
CIRCLE
  5
95
330
1F
100
AcDbEntity
  8
0
  6
Continuous
 62
     7
370
    15
100
AcDbCircle
 10
65.7912430939
 20
150.4313770718
 30
0.0
 40
0.2524999999999835
  0
CIRCLE
  5
96
330
1F
100
AcDbEntity
  8
0
  6
Continuous
 62
     7
370
    15
100
AcDbCircle
 10
65.7912430939
 20
143.1313770718
 30
0.0
 40
0.2524999999999835
  0
CIRCLE
  5
97
330
1F
100
AcDbEntity
  8
0
  6
Continuous
 62
     7
370
    15
100
AcDbCircle
 10
65.7912430939
 20
134.4313770718
 30
0.0
 40
0.2524999999999835
  0
CIRCLE
  5
98
330
1F
100
AcDbEntity
  8
0
  6
Continuous
 62
     7
370
    15
100
AcDbCircle
 10
65.7912430939
 20
126.4313770718
 30
0.0
 40
0.3300000000000125
  0
CIRCLE
  5
99
330
1F
100
AcDbEntity
  8
0
  6
Continuous
 62
     7
370
    15
100
AcDbCircle
 10
65.7912430939
 20
118.4313770718
 30
0.0
 40
0.2524999999999835
  0
CIRCLE
  5
9A
330
1F
100
AcDbEntity
  8
0
  6
Continuous
 62
     7
370
    15
100
AcDbCircle
 10
65.7912430939
 20
110.1813770718
 30
0.0
 40
0.7749999999999915
  0
CIRCLE
  5
9B
330
1F
100
AcDbEntity
  8
0
  6
Continuous
 62
     7
370
    15
100
AcDbCircle
 10
58.2912430939
 20
107.431287391
 30
0.0
 40
0.7750000000000057
  0
CIRCLE
  5
9C
330
1F
100
AcDbEntity
  8
0
  6
Continuous
 62
     7
370
    15
100
AcDbCircle
 10
73.2912430939
 20
107.431287391
 30
0.0
 40
0.7750000000000057
  0
ARC
  5
9D
330
1F
100
AcDbEntity
  8
0
  6
Continuous
 62
     7
370
    15
100
AcDbCircle
 10
67.3412430939
 20
125.2481611152
 30
0.0
 40
0.2000000000000028
100
AcDbArc
 50
0.0
 51
142.6431480271
  0
LWPOLYLINE
  5
9E
330
1F
100
AcDbEntity
  8
0
  6
Continuous
 62
     7
370
    15
100
AcDbPolyline
 90
        9
 70
   128
 43
0.0
 10
67.0630379234
 20
125.4605330712
 10
67.0862987292
 20
125.4427768476
 10
67.1086656515
 20
125.425702352
 10
67.1292789866
 20
125.4099667258
 10
67.1473468308
 20
125.396174956
 10
67.1621746969
 20
125.384856034
 10
67.1731928018
 20
125.3764450736
 10
67.1799777661
 20
125.3712654299
 10
67.1822687265
 20
125.3695167787
  0
LINE
  5
9F
330
1F
100
AcDbEntity
  8
0
  6
Continuous
 62
     7
370
    15
100
AcDbLine
 10
67.5412431014
 20
125.2481609769
 30
0.0
 11
67.6912430328
 21
125.2481609769
 31
0.0
  0
ARC
  5
A0
330
1F
100
AcDbEntity
  8
0
  6
Continuous
 62
     7
370
    15
100
AcDbCircle
 10
64.2412430939
 20
127.6145930284
 30
0.0
 40
0.1999999999999957
100
AcDbArc
 50
180.0
 51
322.6431480271
  0
LWPOLYLINE
  5
A1
330
1F
100
AcDbEntity
  8
0
  6
Continuous
 62
     7
370
    15
100
AcDbPolyline
 90
        9
 70
   128
 43
0.0
 10
64.4002174613
 20
127.4932377226
 10
64.4025084217
 20
127.4914883263
 10
64.4092933861
 20
127.4863094277
 10
64.4203114909
 20
127.4778984673
 10
64.435139357
 20
127.4665795452
 10
64.4532072012
 20
127.4527870304
 10
64.4738205363
 20
127.4370514042
 10
64.4961874586
 20
127.4199776537
 10
64.5194482644
 20
127.402220685
  0
LINE
  5
A2
330
1F
100
AcDbEntity
  8
0
  6
Continuous
 62
     7
370
    15
100
AcDbLine
 10
63.891243155
 20
127.6145927794
 30
0.0
 11
64.0412430865
 21
127.6145927794
 31
0.0
  0
ARC
  5
A3
330
1F
100
AcDbEntity
  8
0
  6
Continuous
 62
     7
370
    15
100
AcDbCircle
 10
65.7912430939
 20
126.4313770718
 30
0.0
 40
1.750000000000016
100
AcDbArc
 50
37.3568519729
 51
142.6431480271
  0
LWPOLYLINE
  5
A4
330
1F
100
AcDbEntity
  8
0
  6
Continuous
 62
     7
370
    15
100
AcDbPolyline
 90
        9
 70
   128
 43
0.0
 10
67.1822687265
 20
127.4932377226
 10
67.1799777661
 20
127.4914883263
 10
67.1731928018
 20
127.4863094277
 10
67.1621746969
 20
127.4778984673
 10
67.1473468308
 20
127.4665795452
 10
67.1292789866
 20
127.4527870304
 10
67.1086656515
 20
127.4370514042
 10
67.0862987292
 20
127.4199776537
 10
67.0630379234
 20
127.402220685
  0
LINE
  5
A5
330
1F
100
AcDbEntity
  8
0
  6
Continuous
 62
     7
370
    15
100
AcDbLine
 10
63.891243155
 20
132.5944546796
 30
0.0
 11
64.0412430865
 21
132.5944546796
 31
0.0
  0
LINE
  5
A6
330
1F
100
AcDbEntity
  8
0
  6
Continuous
 62
     7
370
    15
100
AcDbLine
 10
64.0412430865
 20
132.5944546796
 30
0.0
 11
64.0412430865
 21
127.6145927794
 31
0.0
  0
ARC
  5
A7
330
1F
100
AcDbEntity
  8
0
  6
Continuous
 62
     7
370
    15
100
AcDbCircle
 10
67.3412430939
 20
127.6145930284
 30
0.0
 40
0.2000000000000171
100
AcDbArc
 50
217.3568519729
 51
0.0
  0
LINE
  5
A8
330
1F
100
AcDbEntity
  8
0
  6
Continuous
 62
     7
370
    15
100
AcDbLine
 10
67.5412431014
 20
127.6145927794
 30
0.0
 11
67.6912430328
 21
127.6145927794
 31
0.0
  0
LWPOLYLINE
  5
A9
330
1F
100
AcDbEntity
  8
0
  6
Continuous
 62
     7
370
    15
100
AcDbPolyline
 90
        9
 70
   128
 43
0.0
 10
64.1558771607
 20
132.9338845051
 10
64.1630146307
 20
132.905504778
 10
64.1698779193
 20
132.8782156295
 10
64.1762029034
 20
132.8530658222
 10
64.1817470667
 20
132.8310217894
 10
64.18629695
 20
132.8129306621
 10
64.1896776509
 20
132.7994877658
 10
64.1917597157
 20
132.7912097982
 10
64.192462678
 20
132.7884145267
  0
ARC
  5
AA
330
1F
100
AcDbEntity
  8
0
  6
Continuous
 62
     7
370
    15
100
AcDbCircle
 10
64.2412430939
 20
132.594454631
 30
0.0
 40
0.2000000000000028
100
AcDbArc
 50
104.1169805713
 51
180.0
  0
LINE
  5
AB
330
1F
100
AcDbEntity
  8
0
  6
Continuous
 62
     7
370
    15
100
AcDbLine
 10
67.5412431014
 20
127.6145927794
 30
0.0
 11
67.5412431014
 21
132.5944546796
 31
0.0
  0
LINE
  5
AC
330
1F
100
AcDbEntity
  8
0
  6
Continuous
 62
     7
370
    15
100
AcDbLine
 10
67.5412431014
 20
132.5944546796
 30
0.0
 11
67.6912430328
 21
132.5944546796
 31
0.0
  0
LWPOLYLINE
  5
AD
330
1F
100
AcDbEntity
  8
0
  6
Continuous
 62
     7
370
    15
100
AcDbPolyline
 90
        9
 70
   128
 43
0.0
 10
67.4266090271
 20
132.9338845051
 10
67.4194715572
 20
132.905504778
 10
67.4126082686
 20
132.8782156295
 10
67.4062832844
 20
132.8530658222
 10
67.4007391212
 20
132.8310217894
 10
67.3961892378
 20
132.8129306621
 10
67.3928085369
 20
132.7994877658
 10
67.3907264722
 20
132.7912097982
 10
67.3900235099
 20
132.7884145267
  0
ARC
  5
AE
330
1F
100
AcDbEntity
  8
0
  6
Continuous
 62
     7
370
    15
100
AcDbCircle
 10
65.7912430939
 20
126.4313770718
 30
0.0
 40
6.554999999999999
100
AcDbArc
 50
75.8830194287
 51
104.1169805713
  0
ARC
  5
AF
330
1F
100
AcDbEntity
  8
0
  6
Continuous
 62
     7
370
    15
100
AcDbCircle
 10
67.3412430939
 20
132.594454631
 30
0.0
 40
0.1999999999999886
100
AcDbArc
 50
0.0
 51
75.8830194287
  0
ARC
  5
B0
330
1F
100
AcDbEntity
  8
0
  6
Continuous
 62
     7
370
    15
100
AcDbCircle
 10
64.2412430939
 20
136.0371253508
 30
0.0
 40
0.2000000000000028
100
AcDbArc
 50
180.0
 51
279.1663336772
  0
LWPOLYLINE
  5
B1
330
1F
100
AcDbEntity
  8
0
  6
Continuous
 62
     7
370
    15
100
AcDbPolyline
 90
        9
 70
   128
 43
0.0
 10
64.273103292
 20
135.839679297
 10
64.273562434
 20
135.8368339203
 10
64.2749222581
 20
135.8284071273
 10
64.2771304239
 20
135.814722646
 10
64.280102088
 20
135.796306394
 10
64.2837230702
 20
135.7738661765
 10
64.2878542309
 20
135.7482643052
 10
64.2923367795
 20
135.7204847223
 10
64.2969985147
 20
135.6915948167
  0
LINE
  5
B2
330
1F
100
AcDbEntity
  8
0
  6
Continuous
 62
     7
370
    15
100
AcDbLine
 10
63.891243155
 20
136.0371252707
 30
0.0
 11
64.0412430865
 21
136.0371252707
 31
0.0
  0
ARC
  5
B3
330
1F
100
AcDbEntity
  8
0
  6
Continuous
 62
     7
370
    15
100
AcDbCircle
 10
65.7912430939
 20
126.4313770718
 30
0.0
 40
9.530000000000022
100
AcDbArc
 50
80.8336663228
 51
99.1663336772
  0
LWPOLYLINE
  5
B4
330
1F
100
AcDbEntity
  8
0
  6
Continuous
 62
     7
370
    15
100
AcDbPolyline
 90
        9
 70
   128
 43
0.0
 10
67.3093828958
 20
135.839679297
 10
67.3089237538
 20
135.8368339203
 10
67.3075639297
 20
135.8284071273
 10
67.3053557639
 20
135.814722646
 10
67.3023840998
 20
135.796306394
 10
67.2987631177
 20
135.7738661765
 10
67.294631957
 20
135.7482643052
 10
67.2901494083
 20
135.7204847223
 10
67.2854876731
 20
135.6915948167
  0
LINE
  5
B5
330
1F
100
AcDbEntity
  8
0
  6
Continuous
 62
     7
370
    15
100
AcDbLine
 10
63.891243155
 20
141.3762130029
 30
0.0
 11
64.0412430865
 21
141.3762130029
 31
0.0
  0
LINE
  5
B6
330
1F
100
AcDbEntity
  8
0
  6
Continuous
 62
     7
370
    15
100
AcDbLine
 10
64.0412430865
 20
141.3762130029
 30
0.0
 11
64.0412430865
 21
136.0371252707
 31
0.0
  0
ARC
  5
B7
330
1F
100
AcDbEntity
  8
0
  6
Continuous
 62
     7
370
    15
100
AcDbCircle
 10
67.3412430939
 20
136.0371253508
 30
0.0
 40
0.1999999999999985
100
AcDbArc
 50
260.8336663228
 51
0.0
  0
LINE
  5
B8
330
1F
100
AcDbEntity
  8
0
  6
Continuous
 62
     7
370
    15
100
AcDbLine
 10
67.5412431014
 20
136.0371252707
 30
0.0
 11
67.6912430328
 21
136.0371252707
 31
0.0
  0
LWPOLYLINE
  5
B9
330
1F
100
AcDbEntity
  8
0
  6
Continuous
 62
     7
370
    15
100
AcDbPolyline
 90
        9
 70
   128
 43
0.0
 10
64.2051366744
 20
141.7243458516
 10
64.2081554634
 20
141.6952386684
 10
64.2110583958
 20
141.6672498173
 10
64.2137335268
 20
141.6414551623
 10
64.216078597
 20
141.6188456304
 10
64.2180028957
 20
141.6002907045
 10
64.2194328484
 20
141.5865034051
 10
64.220313507
 20
141.5780127234
 10
64.2206107852
 20
141.57514574
  0
ARC
  5
BA
330
1F
100
AcDbEntity
  8
0
  6
Continuous
 62
     7
370
    15
100
AcDbCircle
 10
64.2412430939
 20
141.3762131365
 30
0.0
 40
0.2000000000000028
100
AcDbArc
 50
95.9212471272
 51
180.0
  0
LINE
  5
BB
330
1F
100
AcDbEntity
  8
0
  6
Continuous
 62
     7
370
    15
100
AcDbLine
 10
67.5412431014
 20
136.0371252707
 30
0.0
 11
67.5412431014
 21
141.3762130029
 31
0.0
  0
LINE
  5
BC
330
1F
100
AcDbEntity
  8
0
  6
Continuous
 62
     7
370
    15
100
AcDbLine
 10
67.5412431014
 20
141.3762130029
 30
0.0
 11
67.6912430328
 21
141.3762130029
 31
0.0
  0
LWPOLYLINE
  5
BD
330
1F
100
AcDbEntity
  8
0
  6
Continuous
 62
     7
370
    15
100
AcDbPolyline
 90
        9
 70
   128
 43
0.0
 10
67.3773495135
 20
141.7243458516
 10
67.3743307245
 20
141.6952386684
 10
67.371427792
 20
141.6672498173
 10
67.3687526611
 20
141.6414551623
 10
67.3664075908
 20
141.6188456304
 10
67.3644832921
 20
141.6002907045
 10
67.3630533394
 20
141.5865034051
 10
67.3621726808
 20
141.5780127234
 10
67.3618754026
 20
141.57514574
  0
ARC
  5
BE
330
1F
100
AcDbEntity
  8
0
  6
Continuous
 62
     7
370
    15
100
AcDbCircle
 10
65.7912430939
 20
126.4313770718
 30
0.0
 40
15.225
100
AcDbArc
 50
84.0787528728
 51
95.9212471272
  0
ARC
  5
BF
330
1F
100
AcDbEntity
  8
0
  6
Continuous
 62
     7
370
    15
100
AcDbCircle
 10
67.3412430939
 20
141.3762131365
 30
0.0
 40
0.1999999999999886
100
AcDbArc
 50
0.0
 51
84.0787528728
  0
ARC
  5
C0
330
1F
100
AcDbEntity
  8
0
  6
Continuous
 62
     7
370
    15
100
AcDbCircle
 10
64.2412430939
 20
144.7873012262
 30
0.0
 40
0.2000000000000369
100
AcDbArc
 50
180.0
 51
274.8266857872
  0
LWPOLYLINE
  5
C1
330
1F
100
AcDbEntity
  8
0
  6
Continuous
 62
     7
370
    15
100
AcDbPolyline
 90
        9
 70
   128
 43
0.0
 10
64.2580714663
 20
144.5880107767
 10
64.2583139827
 20
144.5851385779
 10
64.2590322186
 20
144.5766329951
 10
64.2601985139
 20
144.5628203637
 10
64.2617681649
 20
144.5442326553
 10
64.263680729
 20
144.5215821452
 10
64.2658628178
 20
144.4957412965
 10
64.2682305192
 20
144.4677025265
 10
64.2706927498
 20
144.4385424442
  0
LINE
  5
C2
330
1F
100
AcDbEntity
  8
0
  6
Continuous
 62
     7
370
    15
100
AcDbLine
 10
63.891243155
 20
144.7873011417
 30
0.0
 11
64.0412430865
 21
144.7873011417
 31
0.0
  0
ARC
  5
C3
330
1F
100
AcDbEntity
  8
0
  6
Continuous
 62
     7
370
    15
100
AcDbCircle
 10
65.7912430939
 20
126.4313770718
 30
0.0
 40
18.22124999999999
100
AcDbArc
 50
85.1733142128
 51
94.8266857872
  0
LWPOLYLINE
  5
C4
330
1F
100
AcDbEntity
  8
0
  6
Continuous
 62
     7
370
    15
100
AcDbPolyline
 90
        9
 70
   128
 43
0.0
 10
67.3244147216
 20
144.5880107767
 10
67.3241722052
 20
144.5851385779
 10
67.3234539692
 20
144.5766329951
 10
67.322287674
 20
144.5628203637
 10
67.3207180229
 20
144.5442326553
 10
67.3188054589
 20
144.5215821452
 10
67.3166233701
 20
144.4957412965
 10
67.3142556687
 20
144.4677025265
 10
67.3117934381
 20
144.4385424442
  0
LINE
  5
C5
330
1F
100
AcDbEntity
  8
0
  6
Continuous
 62
     7
370
    15
100
AcDbLine
 10
63.891243155
 20
148.6937329359
 30
0.0
 11
64.0412430865
 21
148.6937329359
 31
0.0
  0
LINE
  5
C6
330
1F
100
AcDbEntity
  8
0
  6
Continuous
 62
     7
370
    15
100
AcDbLine
 10
64.0412430865
 20
148.6937329359
 30
0.0
 11
64.0412430865
 21
144.7873011417
 31
0.0
  0
ARC
  5
C7
330
1F
100
AcDbEntity
  8
0
  6
Continuous
 62
     7
370
    15
100
AcDbCircle
 10
67.3412430939
 20
144.7873012262
 30
0.0
 40
0.2000000000000381
100
AcDbArc
 50
265.1733142128
 51
0.0
  0
LINE
  5
C8
330
1F
100
AcDbEntity
  8
0
  6
Continuous
 62
     7
370
    15
100
AcDbLine
 10
67.5412431014
 20
144.7873011417
 30
0.0
 11
67.6912430328
 21
144.7873011417
 31
0.0
  0
LWPOLYLINE
  5
C9
330
1F
100
AcDbEntity
  8
0
  6
Continuous
 62
     7
370
    15
100
AcDbPolyline
 90
        9
 70
   128
 43
0.0
 10
64.2169333649
 20
149.0428880043
 10
64.2189660695
 20
149.0136951394
 10
64.2209203568
 20
148.9856243319
 10
64.2227215347
 20
148.959754426
 10
64.2243003127
 20
148.9370778389
 10
64.2255959687
 20
148.9184692688
 10
64.22655877
 20
148.9046409912
 10
64.2271516499
 20
148.8961264677
 10
64.2273518843
 20
148.8932505436
  0
ARC
  5
CA
330
1F
100
AcDbEntity
  8
0
  6
Continuous
 62
     7
370
    15
100
AcDbCircle
 10
64.2412430939
 20
148.6937335074
 30
0.0
 40
0.2000000000000169
100
AcDbArc
 50
93.9827488018
 51
180.0
  0
LINE
  5
CB
330
1F
100
AcDbEntity
  8
0
  6
Continuous
 62
     7
370
    15
100
AcDbLine
 10
67.5412431014
 20
144.7873011417
 30
0.0
 11
67.5412431014
 21
148.6937329359
 31
0.0
  0
LINE
  5
CC
330
1F
100
AcDbEntity
  8
0
  6
Continuous
 62
     7
370
    15
100
AcDbLine
 10
67.5412431014
 20
148.6937329359
 30
0.0
 11
67.6912430328
 21
148.6937329359
 31
0.0
  0
LWPOLYLINE
  5
CD
330
1F
100
AcDbEntity
  8
0
  6
Continuous
 62
     7
370
    15
100
AcDbPolyline
 90
        9
 70
   128
 43
0.0
 10
67.365552823
 20
149.0428880043
 10
67.3635201183
 20
149.0136951394
 10
67.361565831
 20
148.9856243319
 10
67.3597646532
 20
148.959754426
 10
67.3581858751
 20
148.9370778389
 10
67.3568902192
 20
148.9184692688
 10
67.3559274179
 20
148.9046409912
 10
67.3553345379
 20
148.8961264677
 10
67.3551343036
 20
148.8932505436
  0
ARC
  5
CE
330
1F
100
AcDbEntity
  8
0
  6
Continuous
 62
     7
370
    15
100
AcDbCircle
 10
65.7912430939
 20
126.4313770718
 30
0.0
 40
22.51625000000002
100
AcDbArc
 50
86.0172511982
 51
93.9827488018
  0
ARC
  5
CF
330
1F
100
AcDbEntity
  8
0
  6
Continuous
 62
     7
370
    15
100
AcDbCircle
 10
67.3412430939
 20
148.6937335074
 30
0.0
 40
0.2000000000000169
100
AcDbArc
 50
0.0
 51
86.0172511982
  0
ARC
  5
D0
330
1F
100
AcDbEntity
  8
0
  6
Continuous
 62
     7
370
    15
100
AcDbCircle
 10
64.2412430939
 20
152.0971160296
 30
0.0
 40
0.1999999999999886
100
AcDbArc
 50
180.0
 51
273.4559974121
  0
LWPOLYLINE
  5
D1
330
1F
100
AcDbEntity
  8
0
  6
Continuous
 62
     7
370
    15
100
AcDbPolyline
 90
        9
 70
   128
 43
0.0
 10
64.2532994625
 20
151.8974796123
 10
64.2534732473
 20
151.8946021981
 10
64.253987803
 20
151.8860817141
 10
64.2548233856
 20
151.872245986
 10
64.2559479576
 20
151.8536254949
 10
64.2573181194
 20
151.8309369869
 10
64.2588814375
 20
151.8050506897
 10
64.2605777484
 20
151.7769634909
 10
64.2623417665
 20
151.7477527446
  0
LINE
  5
D2
330
1F
100
AcDbEntity
  8
0
  6
Continuous
 62
     7
370
    15
100
AcDbLine
 10
63.891243155
 20
152.0971164293
 30
0.0
 11
64.0412430865
 21
152.0971164293
 31
0.0
  0
ARC
  5
D3
330
1F
100
AcDbEntity
  8
0
  6
Continuous
 62
     7
370
    15
100
AcDbCircle
 10
65.7912430939
 20
126.4313770718
 30
0.0
 40
25.51250000000001
100
AcDbArc
 50
86.5440025879
 51
93.4559974121
  0
LWPOLYLINE
  5
D4
330
1F
100
AcDbEntity
  8
0
  6
Continuous
 62
     7
370
    15
100
AcDbPolyline
 90
        9
 70
   128
 43
0.0
 10
67.3291867253
 20
151.8974796123
 10
67.3290129405
 20
151.8946021981
 10
67.3284983848
 20
151.8860817141
 10
67.3276628022
 20
151.872245986
 10
67.3265382302
 20
151.8536254949
 10
67.3251680684
 20
151.8309369869
 10
67.3236047504
 20
151.8050506897
 10
67.3219084394
 20
151.7769634909
 10
67.3201444213
 20
151.7477527446
  0
LINE
  5
D5
330
1F
100
AcDbEntity
  8
0
  6
Continuous
 62
     7
370
    15
100
AcDbLine
 10
63.891243155
 20
153.0738279409
 30
0.0
 11
64.0412430865
 21
153.0738279409
 31
0.0
  0
LINE
  5
D6
330
1F
100
AcDbEntity
  8
0
  6
Continuous
 62
     7
370
    15
100
AcDbLine
 10
64.0412430865
 20
153.0738279409
 30
0.0
 11
64.0412430865
 21
152.0971164293
 31
0.0
  0
ARC
  5
D7
330
1F
100
AcDbEntity
  8
0
  6
Continuous
 62
     7
370
    15
100
AcDbCircle
 10
67.3412430939
 20
152.0971160296
 30
0.0
 40
0.1999999999999886
100
AcDbArc
 50
266.5440025879
 51
0.0
  0
LINE
  5
D8
330
1F
100
AcDbEntity
  8
0
  6
Continuous
 62
     7
370
    15
100
AcDbLine
 10
67.5412431014
 20
152.0971164293
 30
0.0
 11
67.6912430328
 21
152.0971164293
 31
0.0
  0
LWPOLYLINE
  5
D9
330
1F
100
AcDbEntity
  8
0
  6
Continuous
 62
     7
370
    15
100
AcDbPolyline
 90
        9
 70
   128
 43
0.0
 10
64.2209151414
 20
153.423236329
 10
64.2226148051
 20
153.3940226025
 10
64.22424909
 20
153.3659309334
 10
64.2257554111
 20
153.340041656
 10
64.2270754677
 20
153.3173501677
 10
64.2281589684
 20
153.2987266965
 10
64.2289640036
 20
153.2848879881
 10
64.2294597466
 20
153.2763675041
 10
64.2296271984
 20
153.2734900899
  0
ARC
  5
DA
330
1F
100
AcDbEntity
  8
0
  6
Continuous
 62
     7
370
    15
100
AcDbCircle
 10
64.2412430939
 20
153.0738273392
 30
0.0
 40
0.200000000000005
100
AcDbArc
 50
93.3295911171
 51
180.0
  0
LINE
  5
DB
330
1F
100
AcDbEntity
  8
0
  6
Continuous
 62
     7
370
    15
100
AcDbLine
 10
67.5412431014
 20
152.0971164293
 30
0.0
 11
67.5412431014
 21
153.0738279409
 31
0.0
  0
LINE
  5
DC
330
1F
100
AcDbEntity
  8
0
  6
Continuous
 62
     7
370
    15
100
AcDbLine
 10
67.5412431014
 20
153.0738279409
 30
0.0
 11
67.6912430328
 21
153.0738279409
 31
0.0
  0
LWPOLYLINE
  5
DD
330
1F
100
AcDbEntity
  8
0
  6
Continuous
 62
     7
370
    15
100
AcDbPolyline
 90
        9
 70
   128
 43
0.0
 10
67.3615710464
 20
153.423236329
 10
67.3598713827
 20
153.3940226025
 10
67.3582370979
 20
153.3659309334
 10
67.3567307767
 20
153.340041656
 10
67.3554107201
 20
153.3173501677
 10
67.3543272194
 20
153.2987266965
 10
67.3535221842
 20
153.2848879881
 10
67.3530264412
 20
153.2763675041
 10
67.3528589894
 20
153.2734900899
  0
ARC
  5
DE
330
1F
100
AcDbEntity
  8
0
  6
Continuous
 62
     7
370
    15
100
AcDbCircle
 10
65.7912430939
 20
126.4313770718
 30
0.0
 40
26.88750000000002
100
AcDbArc
 50
86.6704088829
 51
93.3295911171
  0
ARC
  5
DF
330
1F
100
AcDbEntity
  8
0
  6
Continuous
 62
     7
370
    15
100
AcDbCircle
 10
67.3412430939
 20
153.0738273392
 30
0.0
 40
0.2000000000000041
100
AcDbArc
 50
0.0
 51
86.6704088829
  0
ARC
  5
E0
330
1F
100
AcDbEntity
  8
0
  6
Continuous
 62
     7
370
    15
100
AcDbCircle
 10
67.2665925441
 20
156.7433770718
 30
0.0
 40
0.3999999999999824
100
AcDbArc
 50
270.0
 51
318.3322395277
  0
LWPOLYLINE
  5
E1
330
1F
100
AcDbEntity
  8
0
  6
Continuous
 62
     7
370
    15
100
AcDbPolyline
 90
        9
 70
   128
 43
0.0
 10
67.5653975111
 20
156.4774528331
 10
67.5675505427
 20
156.4755365438
 10
67.5739269358
 20
156.4698621816
 10
67.5842815665
 20
156.4606473035
 10
67.5982167599
 20
156.4482450671
 10
67.6151966331
 20
156.4331337995
 10
67.6345688877
 20
156.415893156
 10
67.6555892107
 20
156.3971862383
 10
67.6774494004
 20
156.3777312822
  0
LINE
  5
E2
330
1F
100
AcDbEntity
  8
0
  6
Continuous
 62
     7
370
    15
100
AcDbLine
 10
67.2665925351
 20
156.1933770961
 30
0.0
 11
67.2665925351
 21
156.3433766551
 31
0.0
  0
ARC
  5
E3
330
1F
100
AcDbEntity
  8
0
  6
Continuous
 62
     7
370
    15
100
AcDbCircle
 10
65.7912430939
 20
158.0563770718
 30
0.0
 40
2.374999999999998
100
AcDbArc
 50
318.3322395277
 51
221.6677604723
  0
LWPOLYLINE
  5
E4
330
1F
100
AcDbEntity
  8
0
  6
Continuous
 62
     7
370
    15
100
AcDbPolyline
 90
        9
 70
   128
 43
0.0
 10
64.0170886767
 20
156.4774528331
 10
64.0149356452
 20
156.4755365438
 10
64.008559252
 20
156.4698621816
 10
63.9982046214
 20
156.4606473035
 10
63.984269428
 20
156.4482450671
 10
63.9672895548
 20
156.4331337995
 10
63.9479173002
 20
156.415893156
 10
63.9268969771
 20
156.3971862383
 10
63.9050367874
 20
156.3777312822
  0
LINE
  5
E5
330
1F
100
AcDbEntity
  8
0
  6
Continuous
 62
     7
370
    15
100
AcDbLine
 10
64.3158936528
 20
156.1933770961
 30
0.0
 11
64.3158936528
 21
156.3433766551
 31
0.0
  0
LINE
  5
E6
330
1F
100
AcDbEntity
  8
0
  6
Continuous
 62
     7
370
    15
100
AcDbLine
 10
64.3158936528
 20
156.3433766551
 30
0.0
 11
67.2665925351
 21
156.3433766551
 31
0.0
  0
ARC
  5
E7
330
1F
100
AcDbEntity
  8
0
  6
Continuous
 62
     7
370
    15
100
AcDbCircle
 10
67.9412430939
 20
105.0646840534
 30
0.0
 40
0.4000000000000057
100
AcDbArc
 50
180.0
 51
279.1376202932
  0
LWPOLYLINE
  5
E8
330
1F
100
AcDbEntity
  8
0
  6
Continuous
 62
     7
370
    15
100
AcDbPolyline
 90
        9
 70
   128
 43
0.0
 10
68.0047656995
 20
104.669758696
 10
68.0052233514
 20
104.6669155545
 10
68.0065789846
 20
104.6584874577
 10
68.0087802586
 20
104.6448022313
 10
68.0117426095
 20
104.626384396
 10
68.0153524158
 20
104.6039402671
 10
68.0194707242
 20
104.5783370919
 10
68.0239393962
 20
104.550555367
 10
68.0285865095
 20
104.5216649956
  0
LINE
  5
E9
330
1F
100
AcDbEntity
  8
0
  6
Continuous
 62
     7
370
    15
100
AcDbLine
 10
67.3912431699
 20
105.0646841712
 30
0.0
 11
67.5412431014
 21
105.0646841712
 31
0.0
  0
ARC
  5
EA
330
1F
100
AcDbEntity
  8
0
  6
Continuous
 62
     7
370
    15
100
AcDbCircle
 10
65.7912430939
 20
118.4313770718
 30
0.0
 40
13.93849999999999
100
AcDbArc
 50
279.1376202932
 51
296.2284746811
  0
LWPOLYLINE
  5
EB
330
1F
100
AcDbEntity
  8
0
  6
Continuous
 62
     7
370
    15
100
AcDbPolyline
 90
        9
 70
   128
 43
0.0
 10
71.9513872293
 20
105.9280008263
 10
71.952660906
 20
105.925416965
 10
71.956433135
 20
105.9177577681
 10
71.9625593749
 20
105.9053242392
 10
71.9708038148
 20
105.8885902352
 10
71.9808494327
 20
105.8681994862
 10
71.9923106608
 20
105.8449387736
 10
72.0047467974
 20
105.8196962065
 10
72.0176798877
 20
105.793446321
  0
LINE
  5
EC
330
1F
100
AcDbEntity
  8
0
  6
Continuous
 62
     7
370
    15
100
AcDbLine
 10
67.3912431699
 20
106.7171484418
 30
0.0
 11
67.5412431014
 21
106.7171484418
 31
0.0
  0
LINE
  5
ED
330
1F
100
AcDbEntity
  8
0
  6
Continuous
 62
     7
370
    15
100
AcDbLine
 10
67.5412431014
 20
106.7171484418
 30
0.0
 11
67.5412431014
 21
105.0646841712
 31
0.0
  0
ARC
  5
EE
330
1F
100
AcDbEntity
  8
0
  6
Continuous
 62
     7
370
    15
100
AcDbCircle
 10
71.774606387
 20
106.2868167277
 30
0.0
 40
0.4000000000000174
100
AcDbArc
 50
296.2284746811
 51
37.0386040018
  0
LWPOLYLINE
  5
EF
330
1F
100
AcDbEntity
  8
0
  6
Continuous
 62
     7
370
    15
100
AcDbPolyline
 90
        9
 70
   128
 43
0.0
 10
72.0938985822
 20
106.5277576632
 10
72.0961993215
 20
106.5294951386
 10
72.1030128774
 20
106.5346360392
 10
72.1140769896
 20
106.5429836697
 10
72.12896772
 20
106.5542221255
 10
72.1471121189
 20
106.5679133124
 10
72.167812067
 20
106.5835356898
 10
72.1902740774
 20
106.6004842705
 10
72.2136331377
 20
106.6181123442
  0
LWPOLYLINE
  5
F0
330
1F
100
AcDbEntity
  8
0
  6
Continuous
 62
     7
370
    15
100
AcDbPolyline
 90
        9
 70
   128
 43
0.0
 10
67.898703332
 20
107.2654992528
 10
67.9009666321
 20
107.2363257594
 10
67.9031431329
 20
107.2082698531
 10
67.9051488292
 20
107.1824133582
 10
67.90690698
 20
107.1597516722
 10
67.9083497849
 20
107.1411520428
 10
67.9094219235
 20
107.1273327059
 10
67.9100820449
 20
107.1188241429
 10
67.9103050035
 20
107.1159482188
  0
ARC
  5
F1
330
1F
100
AcDbEntity
  8
0
  6
Continuous
 62
     7
370
    15
100
AcDbCircle
 10
67.9412430939
 20
106.7171477618
 30
0.0
 40
0.4000000000000108
100
AcDbArc
 50
94.435977319
 51
180.0
  0
ARC
  5
F2
330
1F
100
AcDbEntity
  8
0
  6
Continuous
 62
     7
370
    15
100
AcDbCircle
 10
73.2912430939
 20
107.431287391
 30
0.0
 40
1.49999999999998
100
AcDbArc
 50
186.7931371456
 51
217.0386040018
  0
LWPOLYLINE
  5
F3
330
1F
100
AcDbEntity
  8
0
  6
Continuous
 62
     7
370
    15
100
AcDbPolyline
 90
        9
 70
   128
 43
0.0
 10
71.8017736104
 20
107.2538584656
 10
71.8046353784
 20
107.2542011923
 10
71.8131115315
 20
107.2552114911
 10
71.826875734
 20
107.2568506188
 10
71.845398995
 20
107.2590559907
 10
71.8679701564
 20
107.2617441601
 10
71.893720853
 20
107.2648137993
 10
71.9216623929
 20
107.2681397385
 10
71.9507204023
 20
107.2716027684
  0
LWPOLYLINE
  5
F4
330
1F
100
AcDbEntity
  8
0
  6
Continuous
 62
     7
370
    15
100
AcDbPolyline
 90
        9
 70
   128
 43
0.0
 10
71.2935166088
 20
107.7452153153
 10
71.2994256643
 20
107.7165544219
 10
71.3051082221
 20
107.6889962144
 10
71.3103448627
 20
107.663595695
 10
71.3149351654
 20
107.6413333602
 10
71.3187021789
 20
107.6230645365
 10
71.321501362
 20
107.6094895787
 10
71.3232250539
 20
107.601127047
 10
71.3238069442
 20
107.5983047671
  0
ARC
  5
F5
330
1F
100
AcDbEntity
  8
0
  6
Continuous
 62
     7
370
    15
100
AcDbCircle
 10
65.7912430939
 20
134.4313770718
 30
0.0
 40
27.39749999999999
100
AcDbArc
 50
274.435977319
 51
281.6502415727
  0
ARC
  5
F6
330
1F
100
AcDbEntity
  8
0
  6
Continuous
 62
     7
370
    15
100
AcDbCircle
 10
71.4045816956
 20
107.2065458328
 30
0.0
 40
0.4000000000000133
100
AcDbArc
 50
6.7931371456
 51
101.6502415727
  0
ARC
  5
F7
330
1F
100
AcDbEntity
  8
0
  6
Continuous
 62
     7
370
    15
100
AcDbCircle
 10
59.8078798008
 20
106.2868167277
 30
0.0
 40
0.4000000000000021
100
AcDbArc
 50
142.9613959982
 51
243.7715253189
  0
LWPOLYLINE
  5
F8
330
1F
100
AcDbEntity
  8
0
  6
Continuous
 62
     7
370
    15
100
AcDbPolyline
 90
        9
 70
   128
 43
0.0
 10
59.6310989586
 20
105.9280008263
 10
59.6298252818
 20
105.925416965
 10
59.6260530529
 20
105.9177577681
 10
59.619926813
 20
105.9053242392
 10
59.611682373
 20
105.8885902352
 10
59.6016367552
 20
105.8681994862
 10
59.5901755271
 20
105.8449387736
 10
59.5777393904
 20
105.8196962065
 10
59.5648063001
 20
105.793446321
  0
LWPOLYLINE
  5
F9
330
1F
100
AcDbEntity
  8
0
  6
Continuous
 62
     7
370
    15
100
AcDbPolyline
 90
        9
 70
   128
 43
0.0
 10
59.3688530502
 20
106.6181123442
 10
59.3922121105
 20
106.6004842705
 10
59.4146741209
 20
106.5835356898
 10
59.4353740689
 20
106.5679133124
 10
59.4535184679
 20
106.5542221255
 10
59.4684091982
 20
106.5429836697
 10
59.4794733104
 20
106.5346360392
 10
59.4862868664
 20
106.5294951386
 10
59.4885876057
 20
106.5277576632
  0
ARC
  5
FA
330
1F
100
AcDbEntity
  8
0
  6
Continuous
 62
     7
370
    15
100
AcDbCircle
 10
65.7912430939
 20
118.4313770718
 30
0.0
 40
13.93849999999999
100
AcDbArc
 50
243.7715253189
 51
260.8623797068
  0
LWPOLYLINE
  5
FB
330
1F
100
AcDbEntity
  8
0
  6
Continuous
 62
     7
370
    15
100
AcDbPolyline
 90
        9
 70
   128
 43
0.0
 10
63.5777204883
 20
104.669758696
 10
63.5772628364
 20
104.6669155545
 10
63.5759072033
 20
104.6584874577
 10
63.5737059292
 20
104.6448022313
 10
63.5707435784
 20
104.626384396
 10
63.5671337721
 20
104.6039402671
 10
63.5630154637
 20
104.5783370919
 10
63.5585467917
 20
104.550555367
 10
63.5538996783
 20
104.5216649956
  0
LWPOLYLINE
  5
FC
330
1F
100
AcDbEntity
  8
0
  6
Continuous
 62
     7
370
    15
100
AcDbPolyline
 90
        9
 70
   128
 43
0.0
 10
59.6317657855
 20
107.2716027684
 10
59.6608237949
 20
107.2681397385
 10
59.6887653348
 20
107.2648137993
 10
59.7145160315
 20
107.2617441601
 10
59.7370871928
 20
107.2590559907
 10
59.7556104538
 20
107.2568506188
 10
59.7693746564
 20
107.2552114911
 10
59.7778508094
 20
107.2542011923
 10
59.7807125774
 20
107.2538584656
  0
ARC
  5
FD
330
1F
100
AcDbEntity
  8
0
  6
Continuous
 62
     7
370
    15
100
AcDbCircle
 10
58.2912430939
 20
107.431287391
 30
0.0
 40
1.500000000000045
100
AcDbArc
 50
322.9613959982
 51
353.2068628544
  0
ARC
  5
FE
330
1F
100
AcDbEntity
  8
0
  6
Continuous
 62
     7
370
    15
100
AcDbCircle
 10
63.6412430939
 20
105.0646840534
 30
0.0
 40
0.3999999999999986
100
AcDbArc
 50
260.8623797068
 51
0.0
  0
LINE
  5
FF
330
1F
100
AcDbEntity
  8
0
  6
Continuous
 62
     7
370
    15
100
AcDbLine
 10
64.0412430865
 20
105.0646841712
 30
0.0
 11
64.1912430179
 21
105.0646841712
 31
0.0
  0
LWPOLYLINE
  5
100
330
1F
100
AcDbEntity
  8
0
  6
Continuous
 62
     7
370
    15
100
AcDbPolyline
 90
        9
 70
   128
 43
0.0
 10
60.2889695791
 20
107.7452153153
 10
60.2830605236
 20
107.7165544219
 10
60.2773779658
 20
107.6889962144
 10
60.2721413252
 20
107.663595695
 10
60.2675510225
 20
107.6413333602
 10
60.2637840089
 20
107.6230645365
 10
60.2609848258
 20
107.6094895787
 10
60.259261134
 20
107.601127047
 10
60.2586792436
 20
107.5983047671
  0
ARC
  5
101
330
1F
100
AcDbEntity
  8
0
  6
Continuous
 62
     7
370
    15
100
AcDbCircle
 10
60.1779044923
 20
107.2065458328
 30
0.0
 40
0.4000000000000026
100
AcDbArc
 50
78.3497584273
 51
173.2068628544
  0
LINE
  5
102
330
1F
100
AcDbEntity
  8
0
  6
Continuous
 62
     7
370
    15
100
AcDbLine
 10
64.0412430865
 20
105.0646841712
 30
0.0
 11
64.0412430865
 21
106.7171484418
 31
0.0
  0
LINE
  5
103
330
1F
100
AcDbEntity
  8
0
  6
Continuous
 62
     7
370
    15
100
AcDbLine
 10
64.0412430865
 20
106.7171484418
 30
0.0
 11
64.1912430179
 21
106.7171484418
 31
0.0
  0
LWPOLYLINE
  5
104
330
1F
100
AcDbEntity
  8
0
  6
Continuous
 62
     7
370
    15
100
AcDbPolyline
 90
        9
 70
   128
 43
0.0
 10
63.6837828559
 20
107.2654992528
 10
63.6815195558
 20
107.2363257594
 10
63.6793430549
 20
107.2082698531
 10
63.6773373586
 20
107.1824133582
 10
63.6755792079
 20
107.1597516722
 10
63.6741364029
 20
107.1411520428
 10
63.6730642644
 20
107.1273327059
 10
63.6724041429
 20
107.1188241429
 10
63.6721811843
 20
107.1159482188
  0
ARC
  5
105
330
1F
100
AcDbEntity
  8
0
  6
Continuous
 62
     7
370
    15
100
AcDbCircle
 10
65.7912430939
 20
134.4313770718
 30
0.0
 40
27.39749999999998
100
AcDbArc
 50
258.3497584273
 51
265.564022681
  0
ARC
  5
106
330
1F
100
AcDbEntity
  8
0
  6
Continuous
 62
     7
370
    15
100
AcDbCircle
 10
63.6412430939
 20
106.7171477618
 30
0.0
 40
0.4000000000000113
100
AcDbArc
 50
0.0
 51
85.564022681
  0
ARC
  5
107
330
1F
100
AcDbEntity
  8
0
  6
Continuous
 62
     7
370
    15
100
AcDbCircle
 10
64.2412430939
 20
112.1313770718
 30
0.0
 40
0.2000000000000171
100
AcDbArc
 50
180.0
 51
270.0
  0
LINE
  5
108
330
1F
100
AcDbEntity
  8
0
  6
Continuous
 62
     7
370
    15
100
AcDbLine
 10
64.2412431193
 20
111.9313776679
 30
0.0
 11
64.2412431193
 21
111.7813766188
 31
0.0
  0
LINE
  5
109
330
1F
100
AcDbEntity
  8
0
  6
Continuous
 62
     7
370
    15
100
AcDbLine
 10
63.891243155
 20
112.1313765831
 30
0.0
 11
64.0412430865
 21
112.1313765831
 31
0.0
  0
LINE
  5
10A
330
1F
100
AcDbEntity
  8
0
  6
Continuous
 62
     7
370
    15
100
AcDbLine
 10
64.2412431193
 20
111.9313776679
 30
0.0
 11
67.3412430686
 21
111.9313776679
 31
0.0
  0
LINE
  5
10B
330
1F
100
AcDbEntity
  8
0
  6
Continuous
 62
     7
370
    15
100
AcDbLine
 10
67.3412430686
 20
111.9313776679
 30
0.0
 11
67.3412430686
 21
111.7813766188
 31
0.0
  0
LINE
  5
10C
330
1F
100
AcDbEntity
  8
0
  6
Continuous
 62
     7
370
    15
100
AcDbLine
 10
63.891243155
 20
116.8256282992
 30
0.0
 11
64.0412430865
 21
116.8256282992
 31
0.0
  0
LINE
  5
10D
330
1F
100
AcDbEntity
  8
0
  6
Continuous
 62
     7
370
    15
100
AcDbLine
 10
64.0412430865
 20
116.8256282992
 30
0.0
 11
64.0412430865
 21
112.1313765831
 31
0.0
  0
ARC
  5
10E
330
1F
100
AcDbEntity
  8
0
  6
Continuous
 62
     7
370
    15
100
AcDbCircle
 10
67.3412430939
 20
112.1313770718
 30
0.0
 40
0.2000000000000171
100
AcDbArc
 50
270.0
 51
0.0
  0
LINE
  5
10F
330
1F
100
AcDbEntity
  8
0
  6
Continuous
 62
     7
370
    15
100
AcDbLine
 10
67.5412431014
 20
112.1313765831
 30
0.0
 11
67.6912430328
 21
112.1313765831
 31
0.0
  0
LWPOLYLINE
  5
110
330
1F
100
AcDbEntity
  8
0
  6
Continuous
 62
     7
370
    15
100
AcDbPolyline
 90
        9
 70
   128
 43
0.0
 10
64.2969985147
 20
117.1711594052
 10
64.2923367795
 20
117.1422690339
 10
64.2878542309
 20
117.1144902892
 10
64.2837230702
 20
117.0888886041
 10
64.280102088
 20
117.0664474554
 10
64.2771304239
 20
117.0480311103
 10
64.2749222581
 20
117.0343473739
 10
64.273562434
 20
117.0259207673
 10
64.273103292
 20
117.0230746455
  0
ARC
  5
111
330
1F
100
AcDbEntity
  8
0
  6
Continuous
 62
     7
370
    15
100
AcDbCircle
 10
64.2412430939
 20
116.8256287928
 30
0.0
 40
0.2000000000000103
100
AcDbArc
 50
80.8336663228
 51
180.0
  0
LINE
  5
112
330
1F
100
AcDbEntity
  8
0
  6
Continuous
 62
     7
370
    15
100
AcDbLine
 10
67.5412431014
 20
112.1313765831
 30
0.0
 11
67.5412431014
 21
116.8256282992
 31
0.0
  0
LINE
  5
113
330
1F
100
AcDbEntity
  8
0
  6
Continuous
 62
     7
370
    15
100
AcDbLine
 10
67.5412431014
 20
116.8256282992
 30
0.0
 11
67.6912430328
 21
116.8256282992
 31
0.0
  0
LWPOLYLINE
  5
114
330
1F
100
AcDbEntity
  8
0
  6
Continuous
 62
     7
370
    15
100
AcDbPolyline
 90
        9
 70
   128
 43
0.0
 10
67.2854876731
 20
117.1711594052
 10
67.2901494083
 20
117.1422690339
 10
67.294631957
 20
117.1144902892
 10
67.2987631177
 20
117.0888886041
 10
67.3023840998
 20
117.0664474554
 10
67.3053557639
 20
117.0480311103
 10
67.3075639297
 20
117.0343473739
 10
67.3089237538
 20
117.0259207673
 10
67.3093828958
 20
117.0230746455
  0
ARC
  5
115
330
1F
100
AcDbEntity
  8
0
  6
Continuous
 62
     7
370
    15
100
AcDbCircle
 10
65.7912430939
 20
126.4313770718
 30
0.0
 40
9.52999999999998
100
AcDbArc
 50
260.8336663228
 51
279.1663336772
  0
ARC
  5
116
330
1F
100
AcDbEntity
  8
0
  6
Continuous
 62
     7
370
    15
100
AcDbCircle
 10
67.3412430939
 20
116.8256287928
 30
0.0
 40
0.1999999999999985
100
AcDbArc
 50
0.0
 51
99.1663336772
  0
ARC
  5
117
330
1F
100
AcDbEntity
  8
0
  6
Continuous
 62
     7
370
    15
100
AcDbCircle
 10
64.2412430939
 20
120.2682995127
 30
0.0
 40
0.2000000000000028
100
AcDbArc
 50
180.0
 51
255.8830194287
  0
LWPOLYLINE
  5
118
330
1F
100
AcDbEntity
  8
0
  6
Continuous
 62
     7
370
    15
100
AcDbPolyline
 90
        9
 70
   128
 43
0.0
 10
64.192462678
 20
120.0743392295
 10
64.1917597157
 20
120.0715437717
 10
64.1896776509
 20
120.0632661767
 10
64.18629695
 20
120.0498238392
 10
64.1817470667
 20
120.0317323393
 10
64.1762029034
 20
120.0096890516
 10
64.1698779193
 20
119.9845388717
 10
64.1630146307
 20
119.9572488851
 10
64.1558771607
 20
119.9288696236
  0
LINE
  5
119
330
1F
100
AcDbEntity
  8
0
  6
Continuous
 62
     7
370
    15
100
AcDbLine
 10
63.891243155
 20
120.2683001942
 30
0.0
 11
64.0412430865
 21
120.2683001942
 31
0.0
  0
ARC
  5
11A
330
1F
100
AcDbEntity
  8
0
  6
Continuous
 62
     7
370
    15
100
AcDbCircle
 10
65.7912430939
 20
126.4313770718
 30
0.0
 40
6.554999999999985
100
AcDbArc
 50
255.8830194287
 51
284.1169805713
  0
LWPOLYLINE
  5
11B
330
1F
100
AcDbEntity
  8
0
  6
Continuous
 62
     7
370
    15
100
AcDbPolyline
 90
        9
 70
   128
 43
0.0
 10
67.3900235099
 20
120.0743392295
 10
67.3907264722
 20
120.0715437717
 10
67.3928085369
 20
120.0632661767
 10
67.3961892378
 20
120.0498238392
 10
67.4007391212
 20
120.0317323393
 10
67.4062832844
 20
120.0096890516
 10
67.4126082686
 20
119.9845388717
 10
67.4194715572
 20
119.9572488851
 10
67.4266090271
 20
119.9288696236
  0
LINE
  5
11C
330
1F
100
AcDbEntity
  8
0
  6
Continuous
 62
     7
370
    15
100
AcDbLine
 10
63.891243155
 20
125.2481609769
 30
0.0
 11
64.0412430865
 21
125.2481609769
 31
0.0
  0
LINE
  5
11D
330
1F
100
AcDbEntity
  8
0
  6
Continuous
 62
     7
370
    15
100
AcDbLine
 10
64.0412430865
 20
125.2481609769
 30
0.0
 11
64.0412430865
 21
120.2683001942
 31
0.0
  0
ARC
  5
11E
330
1F
100
AcDbEntity
  8
0
  6
Continuous
 62
     7
370
    15
100
AcDbCircle
 10
67.3412430939
 20
120.2682995127
 30
0.0
 40
0.1999999999999943
100
AcDbArc
 50
284.1169805713
 51
0.0
  0
LINE
  5
11F
330
1F
100
AcDbEntity
  8
0
  6
Continuous
 62
     7
370
    15
100
AcDbLine
 10
67.5412431014
 20
120.2683001942
 30
0.0
 11
67.6912430328
 21
120.2683001942
 31
0.0
  0
LWPOLYLINE
  5
120
330
1F
100
AcDbEntity
  8
0
  6
Continuous
 62
     7
370
    15
100
AcDbPolyline
 90
        9
 70
   128
 43
0.0
 10
64.5194482644
 20
125.4605330712
 10
64.4961874586
 20
125.4427768476
 10
64.4738205363
 20
125.425702352
 10
64.4532072012
 20
125.4099667258
 10
64.435139357
 20
125.396174956
 10
64.4203114909
 20
125.384856034
 10
64.4092933861
 20
125.3764450736
 10
64.4025084217
 20
125.3712654299
 10
64.4002174613
 20
125.3695167787
  0
ARC
  5
121
330
1F
100
AcDbEntity
  8
0
  6
Continuous
 62
     7
370
    15
100
AcDbCircle
 10
64.2412430939
 20
125.2481611152
 30
0.0
 40
0.2000000000000028
100
AcDbArc
 50
37.3568519729
 51
180.0
  0
LINE
  5
122
330
1F
100
AcDbEntity
  8
0
  6
Continuous
 62
     7
370
    15
100
AcDbLine
 10
67.5412431014
 20
120.2683001942
 30
0.0
 11
67.5412431014
 21
125.2481609769
 31
0.0
  0
ARC
  5
123
330
1F
100
AcDbEntity
  8
0
  6
Continuous
 62
     7
370
    15
100
AcDbCircle
 10
65.7912430939
 20
126.4313770718
 30
0.0
 40
1.74999999999999
100
AcDbArc
 50
217.3568519729
 51
322.6431480271
  0
CIRCLE
  5
124
330
1F
100
AcDbEntity
  8
0
  6
Continuous
 62
     7
370
    15
100
AcDbCircle
 10
65.7912430939
 20
154.8313770718
 30
0.0
 40
0.5
  0
CIRCLE
  5
125
330
1F
100
AcDbEntity
  8
0
  6
Continuous
 62
     7
370
    15
100
AcDbCircle
 10
73.2912430939
 20
107.431287391
 30
0.0
 40
0.7500000000000142
  0
ARC
  5
126
330
1F
100
AcDbEntity
  8
0
  6
Continuous
 62
     7
370
    15
100
AcDbCircle
 10
65.7912430939
 20
158.0563770718
 30
0.0
 40
3.375
100
AcDbArc
 50
326.5572691721
 51
213.4427308279
  0
LWPOLYLINE
  5
127
330
1F
100
AcDbEntity
  8
0
  6
Continuous
 62
     7
370
    15
100
AcDbPolyline
 90
        9
 70
   128
 43
0.0
 10
68.6074683097
 20
156.196403522
 10
68.6050632623
 20
156.1979919858
 10
68.5979405072
 20
156.2026962824
 10
68.5863740397
 20
156.2103361077
 10
68.5708081004
 20
156.2206164188
 10
68.5518409711
 20
156.2331423349
 10
68.5302015048
 20
156.2474340386
 10
68.5067213726
 20
156.2629416771
 10
68.4823026535
 20
156.2790692038
  0
LWPOLYLINE
  5
128
330
1F
100
AcDbEntity
  8
0
  6
Continuous
 62
     7
370
    15
100
AcDbPolyline
 90
        9
 70
   128
 43
0.0
 10
62.9750178781
 20
156.196403522
 10
62.9774229255
 20
156.1979919858
 10
62.9845456806
 20
156.2026962824
 10
62.9961121482
 20
156.2103361077
 10
63.0116780874
 20
156.2206164188
 10
63.0306452167
 20
156.2331423349
 10
63.052284683
 20
156.2474340386
 10
63.0757648152
 20
156.2629416771
 10
63.1001835343
 20
156.2790692038
  0
ARC
  5
129
330
1F
100
AcDbEntity
  8
0
  6
Continuous
 62
     7
370
    15
100
AcDbCircle
 10
64.3158936438
 20
156.7433770718
 30
0.0
 40
0.3999999999999824
100
AcDbArc
 50
221.6677604723
 51
270.0
  0
LWPOLYLINE
  5
12A
330
1F
100
AcDbEntity
  8
0
  6
Continuous
 62
     7
370
    15
100
AcDbPolyline
 90
        9
 70
   128
 43
0.0
 10
61.5663209585
 20
108.4754824824
 10
61.5710222748
 20
108.504363913
 10
61.5755432871
 20
108.5321366973
 10
61.5797096518
 20
108.557733912
 10
61.5833611813
 20
108.5801691003
 10
61.5863581774
 20
108.598580975
 10
61.5885851559
 20
108.6122632212
 10
61.5899568078
 20
108.6206883378
 10
61.5904198614
 20
108.6235314793
  0
ARC
  5
12B
330
1F
100
AcDbEntity
  8
0
  6
Continuous
 62
     7
370
    15
100
AcDbCircle
 10
61.7912430939
 20
109.8572950696
 30
0.0
 40
1.25000000000002
100
AcDbArc
 50
260.75486838
 51
0.0
  0
LINE
  5
12C
330
1F
100
AcDbEntity
  8
0
  6
Continuous
 62
     7
370
    15
100
AcDbLine
 10
63.0412431088
 20
109.8572954721
 30
0.0
 11
63.1912430403
 21
109.8572954721
 31
0.0
  0
LWPOLYLINE
  5
12D
330
1F
100
AcDbEntity
  8
0
  6
Continuous
 62
     7
370
    15
100
AcDbPolyline
 90
        9
 70
   128
 43
0.0
 10
58.7529001412
 20
109.0932578034
 10
58.7607321915
 20
109.1214537806
 10
58.7682639834
 20
109.1485679335
 10
58.7752041993
 20
109.1735542006
 10
58.7812883434
 20
109.1954559273
 10
58.7862809774
 20
109.213429708
 10
58.7899906215
 20
109.2267841286
 10
58.7922757146
 20
109.2350095696
 10
58.7930468497
 20
109.2377871461
  0
ARC
  5
12E
330
1F
100
AcDbEntity
  8
0
  6
Continuous
 62
     7
370
    15
100
AcDbCircle
 10
65.7912430939
 20
134.4313770718
 30
0.0
 40
26.14749999999999
100
AcDbArc
 50
254.4759380798
 51
260.75486838
  0
LINE
  5
12F
330
1F
100
AcDbEntity
  8
0
  6
Continuous
 62
     7
370
    15
100
AcDbLine
 10
63.0412431088
 20
109.8572954721
 30
0.0
 11
63.0412431088
 21
155.9759631939
 31
0.0
  0
LINE
  5
130
330
1F
100
AcDbEntity
  8
0
  6
Continuous
 62
     7
370
    15
100
AcDbLine
 10
63.0412431088
 20
155.9759631939
 30
0.0
 11
63.1912430403
 21
155.9759631939
 31
0.0
  0
LWPOLYLINE
  5
131
330
1F
100
AcDbEntity
  8
0
  6
Continuous
 62
     7
370
    15
100
AcDbPolyline
 90
        9
 70
   128
 43
0.0
 10
57.3195492503
 20
106.0061246342
 10
57.3030640957
 20
105.9819460101
 10
57.2872129855
 20
105.9586972184
 10
57.272603887
 20
105.9372693486
 10
57.2597985742
 20
105.9184909053
 10
57.2492902753
 20
105.9030771441
 10
57.2414813218
 20
105.8916241116
 10
57.236672717
 20
105.8845728821
 10
57.2350492355
 20
105.8821916766
  0
ARC
  5
132
330
1F
100
AcDbEntity
  8
0
  6
Continuous
 62
     7
370
    15
100
AcDbCircle
 10
58.2912430939
 20
107.431287391
 30
0.0
 40
1.874898947476392
100
AcDbArc
 50
74.4759380798
 51
235.7133404404
  0
ARC
  5
133
330
1F
100
AcDbEntity
  8
0
  6
Continuous
 62
     7
370
    15
100
AcDbCircle
 10
62.6412430939
 20
155.9759624497
 30
0.0
 40
0.4000000000000007
100
AcDbArc
 50
0.0
 51
33.4427308279
  0
LWPOLYLINE
  5
134
330
1F
100
AcDbEntity
  8
0
  6
Continuous
 62
     7
370
    15
100
AcDbPolyline
 90
        9
 70
   128
 43
0.0
 10
74.2629369375
 20
106.0061246342
 10
74.2794220922
 20
105.9819460101
 10
74.2952732024
 20
105.9586972184
 10
74.3098823008
 20
105.9372693486
 10
74.3226876137
 20
105.9184909053
 10
74.3331959126
 20
105.9030771441
 10
74.3410048661
 20
105.8916241116
 10
74.3458134708
 20
105.8845728821
 10
74.3474369523
 20
105.8821916766
  0
ARC
  5
135
330
1F
100
AcDbEntity
  8
0
  6
Continuous
 62
     7
370
    15
100
AcDbCircle
 10
65.7912430939
 20
118.4313770718
 30
0.0
 40
15.1885
100
AcDbArc
 50
235.7133404404
 51
304.2866595596
  0
LINE
  5
136
330
1F
100
AcDbEntity
  8
0
  6
Continuous
 62
     7
370
    15
100
AcDbLine
 10
68.541243079
 20
155.9759631939
 30
0.0
 11
68.541243079
 21
109.8572954721
 31
0.0
  0
LINE
  5
137
330
1F
100
AcDbEntity
  8
0
  6
Continuous
 62
     7
370
    15
100
AcDbLine
 10
68.541243079
 20
109.8572954721
 30
0.0
 11
68.3912431476
 21
109.8572954721
 31
0.0
  0
LINE
  5
138
330
1F
100
AcDbEntity
  8
0
  6
Continuous
 62
     7
370
    15
100
AcDbLine
 10
68.541243079
 20
155.9759631939
 30
0.0
 11
68.3912431476
 21
155.9759631939
 31
0.0
  0
LWPOLYLINE
  5
139
330
1F
100
AcDbEntity
  8
0
  6
Continuous
 62
     7
370
    15
100
AcDbPolyline
 90
        9
 70
   128
 43
0.0
 10
72.8295860467
 20
109.0932578034
 10
72.8217539963
 20
109.1214537806
 10
72.8142222044
 20
109.1485679335
 10
72.8072819886
 20
109.1735542006
 10
72.8011978445
 20
109.1954559273
 10
72.7962052104
 20
109.213429708
 10
72.7924955663
 20
109.2267841286
 10
72.7902104733
 20
109.2350095696
 10
72.7894393382
 20
109.2377871461
  0
ARC
  5
13A
330
1F
100
AcDbEntity
  8
0
  6
Continuous
 62
     7
370
    15
100
AcDbCircle
 10
73.2912430939
 20
107.431287391
 30
0.0
 40
1.874898947476384
100
AcDbArc
 50
304.2866595596
 51
105.5240619202
  0
ARC
  5
13B
330
1F
100
AcDbEntity
  8
0
  6
Continuous
 62
     7
370
    15
100
AcDbCircle
 10
68.9412430939
 20
155.9759624497
 30
0.0
 40
0.4000000000000067
100
AcDbArc
 50
146.5572691721
 51
180.0
  0
LWPOLYLINE
  5
13C
330
1F
100
AcDbEntity
  8
0
  6
Continuous
 62
     7
370
    15
100
AcDbPolyline
 90
        9
 70
   128
 43
0.0
 10
70.0161652294
 20
108.4754824824
 10
70.011463913
 20
108.504363913
 10
70.0069429007
 20
108.5321366973
 10
70.0027765361
 20
108.557733912
 10
69.9991250065
 20
108.5801691003
 10
69.9961280105
 20
108.598580975
 10
69.9939010319
 20
108.6122632212
 10
69.99252938
 20
108.6206883378
 10
69.9920663265
 20
108.6235314793
  0
ARC
  5
13D
330
1F
100
AcDbEntity
  8
0
  6
Continuous
 62
     7
370
    15
100
AcDbCircle
 10
65.7912430939
 20
134.4313770718
 30
0.0
 40
26.14749999999999
100
AcDbArc
 50
279.24513162
 51
285.5240619202
  0
ARC
  5
13E
330
1F
100
AcDbEntity
  8
0
  6
Continuous
 62
     7
370
    15
100
AcDbCircle
 10
69.7912430939
 20
109.8572950696
 30
0.0
 40
1.250000000000018
100
AcDbArc
 50
180.0
 51
279.24513162
  0
CIRCLE
  5
13F
330
1F
100
AcDbEntity
  8
0
  6
Continuous
 62
     7
370
    15
100
AcDbCircle
 10
65.7912430939
 20
126.4313770718
 30
0.0
 40
0.3050000000000068
  0
CIRCLE
  5
140
330
1F
100
AcDbEntity
  8
0
  6
Continuous
 62
     7
370
    15
100
AcDbCircle
 10
58.2912430939
 20
107.431287391
 30
0.0
 40
0.75
  0
CIRCLE
  5
141
330
1F
100
AcDbEntity
  8
0
  6
Continuous
 62
     7
370
    15
100
AcDbCircle
 10
65.7912430939
 20
110.1813770718
 30
0.0
 40
0.75
  0
CIRCLE
  5
142
330
1F
100
AcDbEntity
  8
0
  6
Continuous
 62
     7
370
    15
100
AcDbCircle
 10
65.7912430939
 20
118.4313770718
 30
0.0
 40
0.227499999999992
  0
CIRCLE
  5
143
330
1F
100
AcDbEntity
  8
0
  6
Continuous
 62
     7
370
    15
100
AcDbCircle
 10
65.7912430939
 20
143.1313770718
 30
0.0
 40
0.227499999999992
  0
CIRCLE
  5
144
330
1F
100
AcDbEntity
  8
0
  6
Continuous
 62
     7
370
    15
100
AcDbCircle
 10
65.7912430939
 20
134.4313770718
 30
0.0
 40
0.227499999999992
  0
CIRCLE
  5
145
330
1F
100
AcDbEntity
  8
0
  6
Continuous
 62
     7
370
    15
100
AcDbCircle
 10
65.7912430939
 20
150.4313770718
 30
0.0
 40
0.227499999999992
  0
ARC
  5
146
330
1F
100
AcDbEntity
  8
0
  6
Continuous
 62
     7
370
    15
100
AcDbCircle
 10
95.9468232044
 20
109.1561863385
 30
0.0
 40
0.1500000000000057
100
AcDbArc
 50
90.0
 51
180.0
  0
LINE
  5
147
330
1F
100
AcDbEntity
  8
0
  6
Continuous
 62
     7
370
    15
100
AcDbLine
 10
96.4468232178
 20
109.3061864562
 30
0.0
 11
95.9468232057
 21
109.3061864562
 31
0.0
  0
ARC
  5
148
330
1F
100
AcDbEntity
  8
0
  6
Continuous
 62
     7
370
    15
100
AcDbCircle
 10
96.4468232044
 20
109.1561863385
 30
0.0
 40
0.1499999999999915
100
AcDbArc
 50
0.0
 51
90.0
  0
LINE
  5
149
330
1F
100
AcDbEntity
  8
0
  6
Continuous
 62
     7
370
    15
100
AcDbLine
 10
95.9468232057
 20
103.2428771443
 30
0.0
 11
96.4468232178
 21
103.2428771443
 31
0.0
  0
ARC
  5
14A
330
1F
100
AcDbEntity
  8
0
  6
Continuous
 62
     7
370
    15
100
AcDbCircle
 10
95.9468232044
 20
103.3928770718
 30
0.0
 40
0.1500000000000057
100
AcDbArc
 50
180.0
 51
270.0
  0
ARC
  5
14B
330
1F
100
AcDbEntity
  8
0
  6
Continuous
 62
     7
370
    15
100
AcDbCircle
 10
96.4468232044
 20
103.3928770718
 30
0.0
 40
0.1499999999999915
100
AcDbArc
 50
270.0
 51
0.0
  0
ARC
  5
14C
330
1F
100
AcDbEntity
  8
0
  6
Continuous
 62
     7
370
    15
100
AcDbCircle
 10
95.9468232044
 20
161.2813770718
 30
0.0
 40
0.1500000000000057
100
AcDbArc
 50
90.0
 51
180.0
  0
LINE
  5
14D
330
1F
100
AcDbEntity
  8
0
  6
Continuous
 62
     7
370
    15
100
AcDbLine
 10
96.4468232178
 20
161.4313781447
 30
0.0
 11
95.9468232057
 21
161.4313781447
 31
0.0
  0
ARC
  5
14E
330
1F
100
AcDbEntity
  8
0
  6
Continuous
 62
     7
370
    15
100
AcDbCircle
 10
96.4468232044
 20
161.2813770718
 30
0.0
 40
0.1499999999999915
100
AcDbArc
 50
0.0
 51
90.0
  0
ARC
  5
14F
330
1F
100
AcDbEntity
  8
0
  6
Continuous
 62
     7
370
    15
100
AcDbCircle
 10
95.9349207122
 20
106.0205270756
 30
0.0
 40
0.1388465050578098
100
AcDbArc
 50
185.9539571256
 51
274.9176654993
  0
LINE
  5
150
330
1F
100
AcDbEntity
  8
0
  6
Continuous
 62
     7
370
    15
100
AcDbLine
 10
95.7968232044
 20
106.0061246342
 30
0.0
 11
95.7968232044
 21
109.1561854071
 31
0.0
  0
LINE
  5
151
330
1F
100
AcDbEntity
  8
0
  6
Continuous
 62
     7
370
    15
100
AcDbLine
 10
96.4468232178
 20
105.8821916766
 30
0.0
 11
95.9468232057
 21
105.8821916766
 31
0.0
  0
LINE
  5
152
330
1F
100
AcDbEntity
  8
0
  6
Continuous
 62
     7
370
    15
100
AcDbLine
 10
96.5968232424
 20
109.1561854071
 30
0.0
 11
96.5968232424
 21
106.0061246342
 31
0.0
  0
ARC
  5
153
330
1F
100
AcDbEntity
  8
0
  6
Continuous
 62
     7
370
    15
100
AcDbCircle
 10
96.4587256583
 20
106.0205271658
 30
0.0
 40
0.138846590373051
100
AcDbArc
 50
265.0823595178
 51
354.0460091234
  0
LINE
  5
154
330
1F
100
AcDbEntity
  8
0
  6
Continuous
 62
     7
370
    15
100
AcDbLine
 10
95.7968232044
 20
103.3928781933
 30
0.0
 11
95.7968232044
 21
106.0061246342
 31
0.0
  0
LINE
  5
155
330
1F
100
AcDbEntity
  8
0
  6
Continuous
 62
     7
370
    15
100
AcDbLine
 10
96.5968232424
 20
106.0061246342
 30
0.0
 11
96.5968232424
 21
103.3928781933
 31
0.0
  0
LINE
  5
156
330
1F
100
AcDbEntity
  8
0
  6
Continuous
 62
     7
370
    15
100
AcDbLine
 10
95.7968232044
 20
109.8572954721
 30
0.0
 11
95.9468232057
 21
109.8572954721
 31
0.0
  0
LINE
  5
157
330
1F
100
AcDbEntity
  8
0
  6
Continuous
 62
     7
370
    15
100
AcDbLine
 10
95.7968232044
 20
109.1561854071
 30
0.0
 11
95.7968232044
 21
109.8572954721
 31
0.0
  0
LINE
  5
158
330
1F
100
AcDbEntity
  8
0
  6
Continuous
 62
     7
370
    15
100
AcDbLine
 10
96.4468232178
 20
109.8572954721
 30
0.0
 11
96.5968232424
 21
109.8572954721
 31
0.0
  0
LINE
  5
159
330
1F
100
AcDbEntity
  8
0
  6
Continuous
 62
     7
370
    15
100
AcDbLine
 10
96.5968232424
 20
109.8572954721
 30
0.0
 11
96.5968232424
 21
109.1561854071
 31
0.0
  0
LINE
  5
15A
330
1F
100
AcDbEntity
  8
0
  6
Continuous
 62
     7
370
    15
100
AcDbLine
 10
96.4468232178
 20
109.8572954721
 30
0.0
 11
95.9468232057
 21
109.8572954721
 31
0.0
  0
LWPOLYLINE
  5
15B
330
1F
100
AcDbEntity
  8
0
  6
Continuous
 62
     7
370
    15
100
AcDbPolyline
 90
        9
 70
   128
 43
0.0
 10
95.7968232044
 20
156.2790692038
 10
95.7997054124
 20
156.2629416771
 10
95.8082412745
 20
156.2474340386
 10
95.8221027625
 20
156.2331423349
 10
95.8407571885
 20
156.2206164188
 10
95.8634876701
 20
156.2103361077
 10
95.8894206906
 20
156.2026962824
 10
95.9175596534
 20
156.1979919858
 10
95.9468232057
 20
156.196403522
  0
LINE
  5
15C
330
1F
100
AcDbEntity
  8
0
  6
Continuous
 62
     7
370
    15
100
AcDbLine
 10
95.7968232044
 20
156.2790692038
 30
0.0
 11
95.7968232044
 21
161.2813770957
 31
0.0
  0
LINE
  5
15D
330
1F
100
AcDbEntity
  8
0
  6
Continuous
 62
     7
370
    15
100
AcDbLine
 10
96.4468232178
 20
156.196403522
 30
0.0
 11
95.9468232057
 21
156.196403522
 31
0.0
  0
LWPOLYLINE
  5
15E
330
1F
100
AcDbEntity
  8
0
  6
Continuous
 62
     7
370
    15
100
AcDbPolyline
 90
        9
 70
   128
 43
0.0
 10
96.4468232178
 20
156.196403522
 10
96.4760867701
 20
156.1979919858
 10
96.5042257038
 20
156.2026962824
 10
96.5301587534
 20
156.2103361077
 10
96.5528892175
 20
156.2206164188
 10
96.5715436553
 20
156.2331423349
 10
96.5854051345
 20
156.2474340386
 10
96.5939409853
 20
156.2629416771
 10
96.5968232424
 20
156.2790692038
  0
LINE
  5
15F
330
1F
100
AcDbEntity
  8
0
  6
Continuous
 62
     7
370
    15
100
AcDbLine
 10
96.5968232424
 20
161.2813770957
 30
0.0
 11
96.5968232424
 21
156.2790692038
 31
0.0
  0
LINE
  5
160
330
1F
100
AcDbEntity
  8
0
  6
Continuous
 62
     7
370
    15
100
AcDbLine
 10
95.9468232057
 20
156.196403522
 30
0.0
 11
95.9468232057
 21
155.9759631939
 31
0.0
  0
LINE
  5
161
330
1F
100
AcDbEntity
  8
0
  6
Continuous
 62
     7
370
    15
100
AcDbLine
 10
95.7968232044
 20
155.9759631939
 30
0.0
 11
95.9468232057
 21
155.9759631939
 31
0.0
  0
LINE
  5
162
330
1F
100
AcDbEntity
  8
0
  6
Continuous
 62
     7
370
    15
100
AcDbLine
 10
95.7968232044
 20
155.9759631939
 30
0.0
 11
95.7968232044
 21
156.2790692038
 31
0.0
  0
LINE
  5
163
330
1F
100
AcDbEntity
  8
0
  6
Continuous
 62
     7
370
    15
100
AcDbLine
 10
96.4468232178
 20
155.9759631939
 30
0.0
 11
96.4468232178
 21
156.196403522
 31
0.0
  0
LINE
  5
164
330
1F
100
AcDbEntity
  8
0
  6
Continuous
 62
     7
370
    15
100
AcDbLine
 10
96.4468232178
 20
155.9759631939
 30
0.0
 11
95.9468232057
 21
155.9759631939
 31
0.0
  0
LINE
  5
165
330
1F
100
AcDbEntity
  8
0
  6
Continuous
 62
     7
370
    15
100
AcDbLine
 10
96.4468232178
 20
155.9759631939
 30
0.0
 11
96.5968232424
 21
155.9759631939
 31
0.0
  0
LINE
  5
166
330
1F
100
AcDbEntity
  8
0
  6
Continuous
 62
     7
370
    15
100
AcDbLine
 10
96.5968232424
 20
156.2790692038
 30
0.0
 11
96.5968232424
 21
155.9759631939
 31
0.0
  0
LINE
  5
167
330
1F
100
AcDbEntity
  8
0
  6
Continuous
 62
     7
370
    15
100
AcDbLine
 10
95.9468232057
 20
155.9759631939
 30
0.0
 11
95.9468232057
 21
109.8572954721
 31
0.0
  0
LINE
  5
168
330
1F
100
AcDbEntity
  8
0
  6
Continuous
 62
     7
370
    15
100
AcDbLine
 10
95.7968232044
 20
109.8572954721
 30
0.0
 11
95.7968232044
 21
155.9759631939
 31
0.0
  0
LINE
  5
169
330
1F
100
AcDbEntity
  8
0
  6
Continuous
 62
     7
370
    15
100
AcDbLine
 10
96.4468232178
 20
109.8572954721
 30
0.0
 11
96.4468232178
 21
155.9759631939
 31
0.0
  0
LINE
  5
16A
330
1F
100
AcDbEntity
  8
0
  6
Continuous
 62
     7
370
    15
100
AcDbLine
 10
96.5968232424
 20
155.9759631939
 30
0.0
 11
96.5968232424
 21
109.8572954721
 31
0.0
  0
LINE
  5
16B
330
1F
100
AcDbEntity
  8
0
  6
Continuous
 62
     8
370
    15
100
AcDbLine
 10
95.9468232057
 20
109.3061864562
 30
0.0
 11
95.9468232057
 21
105.8821916766
 31
0.0
  0
LINE
  5
16C
330
1F
100
AcDbEntity
  8
0
  6
Continuous
 62
     8
370
    15
100
AcDbLine
 10
96.4468232178
 20
105.8821916766
 30
0.0
 11
96.4468232178
 21
109.3061864562
 31
0.0
  0
LINE
  5
16D
330
1F
100
AcDbEntity
  8
0
  6
Continuous
 62
     8
370
    15
100
AcDbLine
 10
96.4468232178
 20
103.2428771443
 30
0.0
 11
96.4468232178
 21
105.8821916766
 31
0.0
  0
LINE
  5
16E
330
1F
100
AcDbEntity
  8
0
  6
Continuous
 62
     8
370
    15
100
AcDbLine
 10
95.9468232057
 20
105.8821916766
 30
0.0
 11
95.9468232057
 21
103.2428771443
 31
0.0
  0
LINE
  5
16F
330
1F
100
AcDbEntity
  8
0
  6
Continuous
 62
     8
370
    15
100
AcDbLine
 10
95.9468232057
 20
109.8572954721
 30
0.0
 11
95.9468232057
 21
109.3061864562
 31
0.0
  0
LINE
  5
170
330
1F
100
AcDbEntity
  8
0
  6
Continuous
 62
     8
370
    15
100
AcDbLine
 10
96.4468232178
 20
109.3061864562
 30
0.0
 11
96.4468232178
 21
109.8572954721
 31
0.0
  0
LINE
  5
171
330
1F
100
AcDbEntity
  8
0
  6
Continuous
 62
     8
370
    15
100
AcDbLine
 10
95.9468232057
 20
161.4313781447
 30
0.0
 11
95.9468232057
 21
156.196403522
 31
0.0
  0
LINE
  5
172
330
1F
100
AcDbEntity
  8
0
  6
Continuous
 62
     8
370
    15
100
AcDbLine
 10
96.4468232178
 20
156.196403522
 30
0.0
 11
96.4468232178
 21
161.4313781447
 31
0.0
  0
ENDSEC
  0
SECTION
  2
OBJECTS
  0
DICTIONARY
  5
C
330
0
100
AcDbDictionary
281
     1
  3
ACAD_GROUP
350
D
  3
ACAD_LAYOUT
350
1A
  3
ACAD_MLINESTYLE
350
17
  3
ACAD_PLOTSETTINGS
350
19
  3
ACAD_PLOTSTYLENAME
350
E
  0
DICTIONARY
  5
D
102
{ACAD_REACTORS
330
C
102
}
330
C
100
AcDbDictionary
281
     1
  0
DICTIONARY
  5
1A
102
{ACAD_REACTORS
330
C
102
}
330
C
100
AcDbDictionary
281
     1
  3
Layout1
350
1E
  3
Layout2
350
26
  3
Model
350
22
  0
DICTIONARY
  5
17
102
{ACAD_REACTORS
330
C
102
}
330
C
100
AcDbDictionary
281
     1
  3
Standard
350
18
  0
DICTIONARY
  5
19
102
{ACAD_REACTORS
330
C
102
}
330
C
100
AcDbDictionary
281
     1
  0
ACDBDICTIONARYWDFLT
  5
E
102
{ACAD_REACTORS
330
C
102
}
330
C
100
AcDbDictionary
281
     1
  3
Normal
350
F
100
AcDbDictionaryWithDefault
340
F
  0
LAYOUT
  5
1E
102
{ACAD_REACTORS
330
1A
102
}
330
1A
100
AcDbPlotSettings
  1

  2
none_device
  4

  6

 40
0.0
 41
0.0
 42
0.0
 43
0.0
 44
0.0
 45
0.0
 46
0.0
 47
0.0
 48
0.0
 49
0.0
140
0.0
141
0.0
142
1.0
143
1.0
 70
   688
 72
     0
 73
     0
 74
     5
  7

 75
    16
147
1.0
148
0.0
149
0.0
100
AcDbLayout
  1
Layout1
 70
     1
 71
     1
 10
0.0
 20
0.0
 11
420.0
 21
297.0
 12
0.0
 22
0.0
 32
0.0
 14
1.0000000000E+20
 24
1.0000000000E+20
 34
1.0000000000E+20
 15
-1.0000000000E+20
 25
-1.0000000000E+20
 35
-1.0000000000E+20
146
0.0
 13
0.0
 23
0.0
 33
0.0
 16
1.0
 26
0.0
 36
0.0
 17
0.0
 27
1.0
 37
0.0
 76
     0
330
1B
  0
LAYOUT
  5
26
102
{ACAD_REACTORS
330
1A
102
}
330
1A
100
AcDbPlotSettings
  1

  2
none_device
  4

  6

 40
0.0
 41
0.0
 42
0.0
 43
0.0
 44
0.0
 45
0.0
 46
0.0
 47
0.0
 48
0.0
 49
0.0
140
0.0
141
0.0
142
1.0
143
1.0
 70
   688
 72
     0
 73
     0
 74
     5
  7

 75
    16
147
1.0
148
0.0
149
0.0
100
AcDbLayout
  1
Layout2
 70
     1
 71
     2
 10
0.0
 20
0.0
 11
0.0
 21
0.0
 12
0.0
 22
0.0
 32
0.0
 14
0.0
 24
0.0
 34
0.0
 15
0.0
 25
0.0
 35
0.0
146
0.0
 13
0.0
 23
0.0
 33
0.0
 16
1.0
 26
0.0
 36
0.0
 17
0.0
 27
1.0
 37
0.0
 76
     0
330
23
  0
LAYOUT
  5
22
102
{ACAD_REACTORS
330
1A
102
}
330
1A
100
AcDbPlotSettings
  1

  2
none_device
  4

  6

 40
0.0
 41
0.0
 42
0.0
 43
0.0
 44
0.0
 45
0.0
 46
0.0
 47
0.0
 48
0.0
 49
0.0
140
0.0
141
0.0
142
1.0
143
1.0
 70
  1712
 72
     0
 73
     0
 74
     0
  7

 75
     0
147
1.0
148
0.0
149
0.0
100
AcDbLayout
  1
Model
 70
     1
 71
     0
 10
0.0
 20
0.0
 11
297.0
 21
210.0
 12
0.0
 22
0.0
 32
0.0
 14
0.0
 24
0.0
 34
0.0
 15
297.0
 25
210.0
 35
0.0
146
0.0
 13
0.0
 23
0.0
 33
0.0
 16
1.0
 26
0.0
 36
0.0
 17
0.0
 27
1.0
 37
0.0
 76
     0
330
1F
331
29
  0
MLINESTYLE
  5
18
102
{ACAD_REACTORS
330
17
102
}
330
17
100
AcDbMlineStyle
  2
Standard
 70
     0
  3

 62
   256
 51
90.0
 52
90.0
 71
     2
 49
0.5
 62
   256
  6
BYLAYER
 49
-0.5
 62
   256
  6
BYLAYER
  0
ACDBPLACEHOLDER
  5
F
102
{ACAD_REACTORS
330
E
102
}
330
E
  0
ENDSEC
  0
EOF
