  0
SECTION
  2
HEADER
  9
$ACADVER
  1
AC1018
  9
$ACADMAINTVER
 70
     0
  9
$DWGCODEPAGE
  3
ANSI_1252
  9
$INSBASE
 10
0.0
 20
0.0
 30
0.0
  9
$EXTMIN
 10
1.000000000000000E+20
 20
1.000000000000000E+20
 30
1.000000000000000E+20
  9
$EXTMAX
 10
-1.000000000000000E+20
 20
-1.000000000000000E+20
 30
-1.000000000000000E+20
  9
$LIMMIN
 10
0.0
 20
0.0
  9
$LIMMAX
 10
12.0
 20
9.0
  9
$ORTHOMODE
 70
     0
  9
$REGENMODE
 70
     1
  9
$FILLMODE
 70
     1
  9
$QTEXTMODE
 70
     0
  9
$MIRRTEXT
 70
     1
  9
$LTSCALE
 40
1.0
  9
$ATTMODE
 70
     1
  9
$TEXTSIZE
 40
0.2
  9
$TRACEWID
 40
0.05
  9
$TEXTSTYLE
  7
Standard
  9
$CLAYER
  8
0
  9
$CELTYPE
  6
ByLayer
  9
$CECOLOR
 62
   256
  9
$CELTSCALE
 40
1.0
  9
$DISPSILH
 70
     0
  9
$DIMSCALE
 40
1.0
  9
$DIMASZ
 40
0.18
  9
$DIMEXO
 40
0.0625
  9
$DIMDLI
 40
0.38
  9
$DIMRND
 40
0.0
  9
$DIMDLE
 40
0.0
  9
$DIMEXE
 40
0.18
  9
$DIMTP
 40
0.0
  9
$DIMTM
 40
0.0
  9
$DIMTXT
 40
0.18
  9
$DIMCEN
 40
0.09
  9
$DIMTSZ
 40
0.0
  9
$DIMTOL
 70
     0
  9
$DIMLIM
 70
     0
  9
$DIMTIH
 70
     1
  9
$DIMTOH
 70
     1
  9
$DIMSE1
 70
     0
  9
$DIMSE2
 70
     0
  9
$DIMTAD
 70
     0
  9
$DIMZIN
 70
     0
  9
$DIMBLK
  1

  9
$DIMASO
 70
     1
  9
$DIMSHO
 70
     1
  9
$DIMPOST
  1

  9
$DIMAPOST
  1

  9
$DIMALT
 70
     0
  9
$DIMALTD
 70
     2
  9
$DIMALTF
 40
25.4
  9
$DIMLFAC
 40
1.0
  9
$DIMTOFL
 70
     0
  9
$DIMTVP
 40
0.0
  9
$DIMTIX
 70
     0
  9
$DIMSOXD
 70
     0
  9
$DIMSAH
 70
     0
  9
$DIMBLK1
  1

  9
$DIMBLK2
  1

  9
$DIMSTYLE
  2
Standard
  9
$DIMCLRD
 70
     0
  9
$DIMCLRE
 70
     0
  9
$DIMCLRT
 70
     0
  9
$DIMTFAC
 40
1.0
  9
$DIMGAP
 40
0.09
  9
$DIMJUST
 70
     0
  9
$DIMSD1
 70
     0
  9
$DIMSD2
 70
     0
  9
$DIMTOLJ
 70
     1
  9
$DIMTZIN
 70
     0
  9
$DIMALTZ
 70
     0
  9
$DIMALTTZ
 70
     0
  9
$DIMUPT
 70
     0
  9
$DIMDEC
 70
     4
  9
$DIMTDEC
 70
     4
  9
$DIMALTU
 70
     2
  9
$DIMALTTD
 70
     2
  9
$DIMTXSTY
  7
Standard
  9
$DIMAUNIT
 70
     0
  9
$DIMADEC
 70
     0
  9
$DIMALTRND
 40
0.0
  9
$DIMAZIN
 70
     0
  9
$DIMDSEP
 70
    46
  9
$DIMATFIT
 70
     3
  9
$DIMFRAC
 70
     0
  9
$DIMLDRBLK
  1

  9
$DIMLUNIT
 70
     2
  9
$DIMLWD
 70
    -2
  9
$DIMLWE
 70
    -2
  9
$DIMTMOVE
 70
     0
  9
$LUNITS
 70
     2
  9
$LUPREC
 70
     4
  9
$SKETCHINC
 40
0.1
  9
$FILLETRAD
 40
0.5
  9
$AUNITS
 70
     0
  9
$AUPREC
 70
     0
  9
$MENU
  1
.
  9
$ELEVATION
 40
0.0
  9
$PELEVATION
 40
0.0
  9
$THICKNESS
 40
0.0
  9
$LIMCHECK
 70
     0
  9
$CHAMFERA
 40
0.5
  9
$CHAMFERB
 40
0.5
  9
$CHAMFERC
 40
1.0
  9
$CHAMFERD
 40
0.0
  9
$SKPOLY
 70
     0
  9
$TDCREATE
 40
2457870.949236644
  9
$TDUCREATE
 40
2457870.720069977
  9
$TDUPDATE
 40
2457870.949236655
  9
$TDUUPDATE
 40
2457870.720069989
  9
$TDINDWG
 40
0.0000000116
  9
$TDUSRTIMER
 40
0.0000000116
  9
$USRTIMER
 70
     1
  9
$ANGBASE
 50
0.0
  9
$ANGDIR
 70
     0
  9
$PDMODE
 70
     0
  9
$PDSIZE
 40
0.0
  9
$PLINEWID
 40
0.0
  9
$SPLFRAME
 70
     0
  9
$SPLINETYPE
 70
     6
  9
$SPLINESEGS
 70
     8
  9
$HANDSEED
  5
74
  9
$SURFTAB1
 70
     6
  9
$SURFTAB2
 70
     6
  9
$SURFTYPE
 70
     6
  9
$SURFU
 70
     6
  9
$SURFV
 70
     6
  9
$UCSBASE
  2

  9
$UCSNAME
  2

  9
$UCSORG
 10
0.0
 20
0.0
 30
0.0
  9
$UCSXDIR
 10
1.0
 20
0.0
 30
0.0
  9
$UCSYDIR
 10
0.0
 20
1.0
 30
0.0
  9
$UCSORTHOREF
  2

  9
$UCSORTHOVIEW
 70
     0
  9
$UCSORGTOP
 10
0.0
 20
0.0
 30
0.0
  9
$UCSORGBOTTOM
 10
0.0
 20
0.0
 30
0.0
  9
$UCSORGLEFT
 10
0.0
 20
0.0
 30
0.0
  9
$UCSORGRIGHT
 10
0.0
 20
0.0
 30
0.0
  9
$UCSORGFRONT
 10
0.0
 20
0.0
 30
0.0
  9
$UCSORGBACK
 10
0.0
 20
0.0
 30
0.0
  9
$PUCSBASE
  2

  9
$PUCSNAME
  2

  9
$PUCSORG
 10
0.0
 20
0.0
 30
0.0
  9
$PUCSXDIR
 10
1.0
 20
0.0
 30
0.0
  9
$PUCSYDIR
 10
0.0
 20
1.0
 30
0.0
  9
$PUCSORTHOREF
  2

  9
$PUCSORTHOVIEW
 70
     0
  9
$PUCSORGTOP
 10
0.0
 20
0.0
 30
0.0
  9
$PUCSORGBOTTOM
 10
0.0
 20
0.0
 30
0.0
  9
$PUCSORGLEFT
 10
0.0
 20
0.0
 30
0.0
  9
$PUCSORGRIGHT
 10
0.0
 20
0.0
 30
0.0
  9
$PUCSORGFRONT
 10
0.0
 20
0.0
 30
0.0
  9
$PUCSORGBACK
 10
0.0
 20
0.0
 30
0.0
  9
$USERI1
 70
     0
  9
$USERI2
 70
     0
  9
$USERI3
 70
     0
  9
$USERI4
 70
     0
  9
$USERI5
 70
     0
  9
$USERR1
 40
0.0
  9
$USERR2
 40
0.0
  9
$USERR3
 40
0.0
  9
$USERR4
 40
0.0
  9
$USERR5
 40
0.0
  9
$WORLDVIEW
 70
     1
  9
$SHADEDGE
 70
     3
  9
$SHADEDIF
 70
    70
  9
$TILEMODE
 70
     1
  9
$MAXACTVP
 70
    64
  9
$PINSBASE
 10
0.0
 20
0.0
 30
0.0
  9
$PLIMCHECK
 70
     0
  9
$PEXTMIN
 10
1.000000000000000E+20
 20
1.000000000000000E+20
 30
1.000000000000000E+20
  9
$PEXTMAX
 10
-1.000000000000000E+20
 20
-1.000000000000000E+20
 30
-1.000000000000000E+20
  9
$PLIMMIN
 10
0.0
 20
0.0
  9
$PLIMMAX
 10
12.0
 20
9.0
  9
$UNITMODE
 70
     0
  9
$VISRETAIN
 70
     1
  9
$PLINEGEN
 70
     0
  9
$PSLTSCALE
 70
     1
  9
$TREEDEPTH
 70
  3020
  9
$CMLSTYLE
  2
Standard
  9
$CMLJUST
 70
     0
  9
$CMLSCALE
 40
1.0
  9
$PROXYGRAPHICS
 70
     1
  9
$MEASUREMENT
 70
     0
  9
$CELWEIGHT
370
    -1
  9
$ENDCAPS
280
     0
  9
$JOINSTYLE
280
     0
  9
$LWDISPLAY
290
     1
  9
$INSUNITS
 70
     1
  9
$HYPERLINKBASE
  1

  9
$STYLESHEET
  1

  9
$XEDIT
290
     1
  9
$CEPSNTYPE
380
     0
  9
$PSTYLEMODE
290
     1
  9
$FINGERPRINTGUID
  2
{81D15339-077E-4961-B321-8050BD87C248}
  9
$VERSIONGUID
  2
{FAEB1C32-E019-11D5-929B-00C0DF256EC4}
  9
$EXTNAMES
290
     1
  9
$PSVPSCALE
 40
0.0
  9
$OLESTARTUP
290
     0
  9
$SORTENTS
280
   127
  9
$INDEXCTL
280
     0
  9
$HIDETEXT
280
     1
  9
$XCLIPFRAME
290
     0
  9
$HALOGAP
280
     0
  9
$OBSCOLOR
 70
   257
  9
$OBSLTYPE
280
     0
  9
$INTERSECTIONDISPLAY
280
     0
  9
$INTERSECTIONCOLOR
 70
   257
  9
$DIMASSOC
280
     2
  9
$PROJECTNAME
  1

  0
ENDSEC
  0
SECTION
  2
CLASSES
  0
CLASS
  1
ACDBDICTIONARYWDFLT
  2
AcDbDictionaryWithDefault
  3
ObjectDBX Classes
 90
        0
 91
        3
280
     0
281
     0
  0
CLASS
  1
VISUALSTYLE
  2
AcDbVisualStyle
  3
ObjectDBX Classes
 90
     4095
 91
        3
280
     0
281
     0
  0
ENDSEC
  0
SECTION
  2
TABLES
  0
TABLE
  2
VPORT
  5
8
330
0
100
AcDbSymbolTable
 70
     1
  0
VPORT
  5
29
330
8
100
AcDbSymbolTableRecord
100
AcDbViewportTableRecord
  2
*Active
 70
     0
 10
0.0
 20
0.0
 11
1.0
 21
1.0
 12
0.0
 22
0.0
 13
0.0
 23
0.0
 14
0.5
 24
0.5
 15
0.5
 25
0.5
 16
0.0
 26
0.0
 36
1.0
 17
500.0
 27
-500.0
 37
0.0
 40
1000.0
 41
1.0
 42
50.0
 43
0.0
 44
0.0
 50
0.0
 51
0.0
 71
     0
 72
   100
 73
     1
 74
     3
 75
     0
 76
     0
 77
     0
 78
     0
281
     0
 65
     1
110
0.0
120
0.0
130
0.0
111
1.0
121
0.0
131
0.0
112
0.0
122
1.0
132
0.0
 79
     0
146
0.0
  0
ENDTAB
  0
TABLE
  2
LTYPE
  5
5
330
0
100
AcDbSymbolTable
 70
     1
  0
LTYPE
  5
14
330
5
100
AcDbSymbolTableRecord
100
AcDbLinetypeTableRecord
  2
ByBlock
 70
     0
  3

 72
    65
 73
     0
 40
0.0
  0
LTYPE
  5
15
330
5
100
AcDbSymbolTableRecord
100
AcDbLinetypeTableRecord
  2
ByLayer
 70
     0
  3

 72
    65
 73
     0
 40
0.0
  0
LTYPE
  5
16
330
5
100
AcDbSymbolTableRecord
100
AcDbLinetypeTableRecord
  2
Continuous
 70
     0
  3
Solid line
 72
    65
 73
     0
 40
0.0
  0
ENDTAB
  0
TABLE
  2
LAYER
  5
2
330
0
100
AcDbSymbolTable
 70
     2
  0
LAYER
  5
10
330
2
100
AcDbSymbolTableRecord
100
AcDbLayerTableRecord
  2
0
 70
     0
 62
     7
  6
Continuous
370
    -3
390
F
  0
LAYER
  5
3B
330
2
100
AcDbSymbolTableRecord
100
AcDbLayerTableRecord
  2
Layer 1
 70
     0
 62
     7
  6
Continuous
370
    -3
390
F
  0
ENDTAB
  0
TABLE
  2
STYLE
  5
3
330
0
100
AcDbSymbolTable
 70
     1
  0
STYLE
  5
11
330
3
100
AcDbSymbolTableRecord
100
AcDbTextStyleTableRecord
  2
Standard
 70
     0
 40
0.0
 41
1.0
 50
0.0
 71
     0
 42
0.2
  3
txt
  4

  0
ENDTAB
  0
TABLE
  2
VIEW
  5
6
330
0
100
AcDbSymbolTable
 70
     0
  0
ENDTAB
  0
TABLE
  2
UCS
  5
7
330
0
100
AcDbSymbolTable
 70
     0
  0
ENDTAB
  0
TABLE
  2
APPID
  5
9
330
0
100
AcDbSymbolTable
 70
     1
  0
APPID
  5
12
330
9
100
AcDbSymbolTableRecord
100
AcDbRegAppTableRecord
  2
ACAD
 70
     0
  0
ENDTAB
  0
TABLE
  2
DIMSTYLE
  5
A
330
0
100
AcDbSymbolTable
 70
     1
100
AcDbDimStyleTable
  0
DIMSTYLE
105
27
330
A
100
AcDbSymbolTableRecord
100
AcDbDimStyleTableRecord
  2
Standard
 70
     0
340
11
  0
ENDTAB
  0
TABLE
  2
BLOCK_RECORD
  5
1
330
0
100
AcDbSymbolTable
 70
     2
  0
BLOCK_RECORD
  5
1F
330
1
100
AcDbSymbolTableRecord
100
AcDbBlockTableRecord
  2
*Model_Space
340
22
  0
BLOCK_RECORD
  5
1B
330
1
100
AcDbSymbolTableRecord
100
AcDbBlockTableRecord
  2
*Paper_Space
340
1E
  0
BLOCK_RECORD
  5
23
330
1
100
AcDbSymbolTableRecord
100
AcDbBlockTableRecord
  2
*Paper_Space0
340
26
  0
BLOCK_RECORD
  5
3C
330
1
100
AcDbSymbolTableRecord
100
AcDbBlockTableRecord
  2
block 2
340
0
102
{BLKREFS
331
3D
102
}
  0
ENDTAB
  0
ENDSEC
  0
SECTION
  2
BLOCKS
  0
BLOCK
  5
20
330
1F
100
AcDbEntity
  8
0
100
AcDbBlockBegin
  2
*Model_Space
 70
     0
 71
     0
 10
0.0
 20
0.0
 30
0.0
  3
*Model_Space
  1

  0
ENDBLK
  5
21
330
1F
100
AcDbEntity
  8
0
100
AcDbBlockEnd
  0
BLOCK
  5
1C
330
1B
100
AcDbEntity
 67
     1
  8
0
100
AcDbBlockBegin
  2
*Paper_Space
 70
     0
 71
     0
 10
0.0
 20
0.0
 30
0.0
  3
*Paper_Space
  1

  0
ENDBLK
  5
1D
330
1B
100
AcDbEntity
 67
     1
  8
0
100
AcDbBlockEnd
  0
BLOCK
  5
24
330
23
100
AcDbEntity
  8
0
100
AcDbBlockBegin
  2
*Paper_Space0
 70
     0
 71
     0
 10
0.0
 20
0.0
 30
0.0
  3
*Paper_Space0
  1

  0
ENDBLK
  5
25
330
23
100
AcDbEntity
  8
0
100
AcDbBlockEnd
  0
BLOCK
  5
3E
330
3C
100
AcDbEntity
  8
0
100
AcDbBlockBegin
  2
block 2
 70
     0
 71
     0
 10
0.0
 20
0.0
 30
0.0
  3
block 2
  1

  0
SPLINE
  5
40
330
3C
100
AcDbEntity
  8
Layer 1
370
     0
100
AcDbSpline
210
0.0
220
0.0
230
1.0
 70
    11
 71
     3
 72
    14
 73
    10
 74
     0
 42
0.0000000001
 43
0.0000000001
 40
0.0
 40
0.0
 40
0.0
 40
0.0
 40
1.0
 40
1.0
 40
1.0
 40
2.0
 40
2.0
 40
2.0
 40
3.0
 40
3.0
 40
3.0
 40
3.0
 10
813.052734375
 20
-371.00927734375
 30
0.0
 10
815.7080078125
 20
-366.30517578125
 30
0.0
 10
820.34765625
 20
-363.58544921875
 30
0.0
 10
825.53125
 20
-361.41015625
 30
0.0
 10
826.7587890625
 20
-361.38916015625
 30
0.0
 10
826.1171875
 20
-361.7666015625
 30
0.0
 10
826.01171875
 20
-362.3701171875
 30
0.0
 10
820.8994140625
 20
-364.45751953125
 30
0.0
 10
818.595703125
 20
-369.3525390625
 30
0.0
 10
813.052734375
 20
-371.00927734375
 30
0.0
  0
SPLINE
  5
41
330
3C
100
AcDbEntity
  8
Layer 1
370
     0
100
AcDbSpline
210
0.0
220
0.0
230
1.0
 70
    11
 71
     3
 72
    14
 73
    10
 74
     0
 42
0.0000000001
 43
0.0000000001
 40
0.0
 40
0.0
 40
0.0
 40
0.0
 40
1.0
 40
1.0
 40
1.0
 40
2.0
 40
2.0
 40
2.0
 40
3.0
 40
3.0
 40
3.0
 40
3.0
 10
764.576171875
 20
-372.92919921875
 30
0.0
 10
765.4345703125
 20
-372.7939453125
 30
0.0
 10
765.5615234375
 20
-373.3828125
 30
0.0
 10
765.056640625
 20
-373.4091796875
 30
0.0
 10
762.68359375
 20
-379.8359375
 30
0.0
 10
759.505859375
 20
-385.45654296875
 30
0.0
 10
756.4169921875
 20
-391.16748046875
 30
0.0
 10
754.6025390625
 20
-382.47119140625
 30
0.0
 10
759.2978515625
 20
-376.130859375
 30
0.0
 10
764.576171875
 20
-372.92919921875
 30
0.0
  0
SPLINE
  5
42
330
3C
100
AcDbEntity
  8
Layer 1
370
     0
100
AcDbSpline
210
0.0
220
0.0
230
1.0
 70
    11
 71
     3
 72
    14
 73
    10
 74
     0
 42
0.0000000001
 43
0.0000000001
 40
0.0
 40
0.0
 40
0.0
 40
0.0
 40
1.0
 40
1.0
 40
1.0
 40
2.0
 40
2.0
 40
2.0
 40
3.0
 40
3.0
 40
3.0
 40
3.0
 10
950.3212890625
 20
-386.84814453125
 30
0.0
 10
937.8251953125
 20
-385.87109375
 30
0.0
 10
928.7158203125
 20
-388.2802734375
 30
0.0
 10
920.5634765625
 20
-391.6474609375
 30
0.0
 10
921.71875
 20
-387.96484375
 30
0.0
 10
927.9599609375
 20
-388.02587890625
 30
0.0
 10
933.04296875
 20
-386.84814453125
 30
0.0
 10
939.4619140625
 20
-385.35986328125
 30
0.0
 10
946.8173828125
 20
-381.66845703125
 30
0.0
 10
950.3212890625
 20
-386.84814453125
 30
0.0
  0
SPLINE
  5
43
330
3C
100
AcDbEntity
  8
Layer 1
370
     0
100
AcDbSpline
210
0.0
220
0.0
230
1.0
 70
    11
 71
     3
 72
    11
 73
     7
 74
     0
 42
0.0000000001
 43
0.0000000001
 40
0.0
 40
0.0
 40
0.0
 40
0.0
 40
1.0
 40
1.0
 40
1.0
 40
2.0
 40
2.0
 40
2.0
 40
2.0
 10
970.0
 20
-411.8056640625
 30
0.0
 10
962.529296875
 20
-409.435546875
 30
0.0
 10
949.037109375
 20
-407.79931640625
 30
0.0
 10
938.8017578125
 20
-410.3662109375
 30
0.0
 10
947.0322265625
 20
-405.623046875
 30
0.0
 10
964.076171875
 20
-403.99755859375
 30
0.0
 10
970.0
 20
-411.8056640625
 30
0.0
  0
SPLINE
  5
44
330
3C
100
AcDbEntity
  8
Layer 1
370
     0
100
AcDbSpline
210
0.0
220
0.0
230
1.0
 70
    11
 71
     3
 72
    11
 73
     7
 74
     0
 42
0.0000000001
 43
0.0000000001
 40
0.0
 40
0.0
 40
0.0
 40
0.0
 40
1.0
 40
1.0
 40
1.0
 40
2.0
 40
2.0
 40
2.0
 40
2.0
 10
903.28515625
 20
-369.08935546875
 30
0.0
 10
899.896484375
 20
-371.140625
 30
0.0
 10
895.2578125
 20
-371.94091796875
 30
0.0
 10
891.2861328125
 20
-373.4091796875
 30
0.0
 10
893.21875
 20
-372.09765625
 30
0.0
 10
898.6220703125
 20
-367.68359375
 30
0.0
 10
903.28515625
 20
-369.08935546875
 30
0.0
  0
SPLINE
  5
45
330
3C
100
AcDbEntity
  8
Layer 1
370
     0
100
AcDbSpline
210
0.0
220
0.0
230
1.0
 70
    11
 71
     3
 72
    50
 73
    46
 74
     0
 42
0.0000000001
 43
0.0000000001
 40
0.0
 40
0.0
 40
0.0
 40
0.0
 40
1.0
 40
1.0
 40
1.0
 40
2.0
 40
2.0
 40
2.0
 40
3.0
 40
3.0
 40
3.0
 40
4.0
 40
4.0
 40
4.0
 40
5.0
 40
5.0
 40
5.0
 40
6.0
 40
6.0
 40
6.0
 40
7.0
 40
7.0
 40
7.0
 40
8.0
 40
8.0
 40
8.0
 40
9.0
 40
9.0
 40
9.0
 40
10.0
 40
10.0
 40
10.0
 40
11.0
 40
11.0
 40
11.0
 40
12.0
 40
12.0
 40
12.0
 40
13.0
 40
13.0
 40
13.0
 40
14.0
 40
14.0
 40
14.0
 40
15.0
 40
15.0
 40
15.0
 40
15.0
 10
496.7587890625
 20
0.0
 30
0.0
 10
509.078125
 20
0.0
 30
0.0
 10
521.396484375
 20
0.0
 30
0.0
 10
533.7158203125
 20
0.0
 30
0.0
 10
654.7900390625
 20
-6.72802734375
 30
0.0
 10
742.7216796875
 20
-43.810546875
 30
0.0
 10
817.8525390625
 20
-98.3916015625
 30
0.0
 10
891.8330078125
 20
-152.13818359375
 30
0.0
 10
949.1318359375
 20
-222.09716796875
 30
0.0
 10
987.7578125
 20
-310.05419921875
 30
0.0
 10
1007.330078125
 20
-354.62158203125
 30
0.0
 10
1022.001953125
 20
-402.74072265625
 30
0.0
 10
1027.5947265625
 20
-461.24169921875
 30
0.0
 10
1033.2919921875
 20
-520.830078125
 30
0.0
 10
1029.396484375
 20
-581.705078125
 30
0.0
 10
1016.5556640625
 20
-634.9873046875
 30
0.0
 10
992.2998046875
 20
-735.634765625
 30
0.0
 10
943.72265625
 20
-815.8125
 30
0.0
 10
879.7666015625
 20
-879.7666015625
 30
0.0
 10
816.140625
 20
-943.392578125
 30
0.0
 10
735.1123046875
 20
-992.4267578125
 30
0.0
 10
634.9873046875
 20
-1016.5556640625
 30
0.0
 10
580.8798828125
 20
-1029.5947265625
 30
0.0
 10
520.6591796875
 20
-1033.3662109375
 30
0.0
 10
460.76171875
 20
-1027.5947265625
 30
0.0
 10
403.48681640625
 20
-1022.076171875
 30
0.0
 10
353.7197265625
 20
-1006.9345703125
 30
0.0
 10
310.05419921875
 20
-987.7578125
 30
0.0
 10
222.103515625
 20
-949.1328125
 30
0.0
 10
152.1748046875
 20
-891.88671875
 30
0.0
 10
98.3916015625
 20
-817.8525390625
 30
0.0
 10
57.23974609375
 20
-761.205078125
 30
0.0
 10
27.31640625
 20
-698.6240234375
 30
0.0
 10
10.55908203125
 20
-619.1484375
 30
0.0
 10
5.0048828125
 20
-592.8056640625
 30
0.0
 10
1.50830078125
 20
-564.259765625
 30
0.0
 10
0.0
 20
-533.7158203125
 30
0.0
 10
0.0
 20
-521.396484375
 30
0.0
 10
0.0
 20
-509.078125
 30
0.0
 10
0.0
 20
-496.7587890625
 30
0.0
 10
9.31103515625
 20
-342.01611328125
 30
0.0
 10
68.7412109375
 20
-232.67333984375
 30
0.0
 10
151.1875
 20
-150.2275390625
 30
0.0
 10
233.6767578125
 20
-67.73828125
 30
0.0
 10
343.74072265625
 20
-9.2080078125
 30
0.0
 10
496.7587890625
 20
0.0
 30
0.0
  0
SPLINE
  5
46
330
3C
100
AcDbEntity
  8
Layer 1
370
     0
100
AcDbSpline
210
0.0
220
0.0
230
1.0
 70
    11
 71
     3
 72
    65
 73
    61
 74
     0
 42
0.0000000001
 43
0.0000000001
 40
0.0
 40
0.0
 40
0.0
 40
0.0
 40
1.0
 40
1.0
 40
1.0
 40
2.0
 40
2.0
 40
2.0
 40
3.0
 40
3.0
 40
3.0
 40
4.0
 40
4.0
 40
4.0
 40
5.0
 40
5.0
 40
5.0
 40
6.0
 40
6.0
 40
6.0
 40
7.0
 40
7.0
 40
7.0
 40
8.0
 40
8.0
 40
8.0
 40
9.0
 40
9.0
 40
9.0
 40
10.0
 40
10.0
 40
10.0
 40
11.0
 40
11.0
 40
11.0
 40
12.0
 40
12.0
 40
12.0
 40
13.0
 40
13.0
 40
13.0
 40
14.0
 40
14.0
 40
14.0
 40
15.0
 40
15.0
 40
15.0
 40
16.0
 40
16.0
 40
16.0
 40
17.0
 40
17.0
 40
17.0
 40
18.0
 40
18.0
 40
18.0
 40
19.0
 40
19.0
 40
19.0
 40
20.0
 40
20.0
 40
20.0
 40
20.0
 10
492.9189453125
 20
-29.75732421875
 30
0.0
 10
460.10595703125
 20
-31.2841796875
 30
0.0
 10
432.12109375
 20
-35.21826171875
 30
0.0
 10
403.646484375
 20
-41.75634765625
 30
0.0
 10
410.224609375
 20
-44.77880859375
 30
0.0
 10
412.109375
 20
-56.65087890625
 30
0.0
 10
415.16552734375
 20
-64.79443359375
 30
0.0
 10
426.328125
 20
-59.8857421875
 30
0.0
 10
440.45068359375
 20
-59.607421875
 30
0.0
 10
446.36279296875
 20
-70.07421875
 30
0.0
 10
449.9013671875
 20
-76.33837890625
 30
0.0
 10
451.19970703125
 20
-84.89599609375
 30
0.0
 10
453.5625
 20
-92.63232421875
 30
0.0
 10
469.4462890625
 20
-144.64111328125
 30
0.0
 10
488.85107421875
 20
-199.68603515625
 30
0.0
 10
505.3984375
 20
-249.09912109375
 30
0.0
 10
510.689453125
 20
-233.3046875
 30
0.0
 10
511.8427734375
 20
-217.93212890625
 30
0.0
 10
520.7568359375
 20
-207.82275390625
 30
0.0
 10
532.1162109375
 20
-194.93994140625
 30
0.0
 10
557.697265625
 20
-187.4716796875
 30
0.0
 10
582.19140625
 20
-192.4638671875
 30
0.0
 10
586.654296875
 20
-179.96826171875
 30
0.0
 10
589.4765625
 20
-165.83203125
 30
0.0
 10
594.6708984375
 20
-154.0673828125
 30
0.0
 10
600.650390625
 20
-154.806640625
 30
0.0
 10
604.2119140625
 20
-157.96484375
 30
0.0
 10
610.9892578125
 20
-157.90673828125
 30
0.0
 10
609.1845703125
 20
-154.11181640625
 30
0.0
 10
602.509765625
 20
-155.1875
 30
0.0
 10
599.470703125
 20
-152.62744140625
 30
0.0
 10
601.1650390625
 20
-149.68212890625
 30
0.0
 10
601.06640625
 20
-144.94482421875
 30
0.0
 10
603.3095703125
 20
-142.54833984375
 30
0.0
 10
605.0263671875
 20
-142.751953125
 30
0.0
 10
605.87109375
 20
-143.82666015625
 30
0.0
 10
608.109375
 20
-143.50830078125
 30
0.0
 10
609.4814453125
 20
-137.041015625
 30
0.0
 10
611.71875
 20
-131.43896484375
 30
0.0
 10
613.388671875
 20
-125.26953125
 30
0.0
 10
612.064453125
 20
-122.1142578125
 30
0.0
 10
608.8720703125
 20
-120.82763671875
 30
0.0
 10
607.1494140625
 20
-118.0703125
 30
0.0
 10
599.14453125
 20
-115.8984375
 30
0.0
 10
590.8798828125
 20
-113.38720703125
 30
0.0
 10
582.671875
 20
-110.87060546875
 30
0.0
 10
574.65234375
 20
-108.41259765625
 30
0.0
 10
565.916015625
 20
-106.9306640625
 30
0.0
 10
559.6337890625
 20
-102.2314453125
 30
0.0
 10
562.341796875
 20
-93.42041015625
 30
0.0
 10
564.072265625
 20
-83.63232421875
 30
0.0
 10
568.2724609375
 20
-76.3134765625
 30
0.0
 10
584.6005859375
 20
-78.70849609375
 30
0.0
 10
600.8671875
 20
-85.3125
 30
0.0
 10
616.2685546875
 20
-90.232421875
 30
0.0
 10
656.796875
 20
-86.1728515625
 30
0.0
 10
702.95703125
 20
-88.12744140625
 30
0.0
 10
743.9384765625
 20
-85.9130859375
 30
0.0
 10
678.189453125
 20
-51.533203125
 30
0.0
 10
595.23046875
 20
-24.998046875
 30
0.0
 10
492.9189453125
 20
-29.75732421875
 30
0.0
  0
SPLINE
  5
47
330
3C
100
AcDbEntity
  8
Layer 1
370
     0
100
AcDbSpline
210
0.0
220
0.0
230
1.0
 70
    11
 71
     3
 72
    32
 73
    28
 74
     0
 42
0.0000000001
 43
0.0000000001
 40
0.0
 40
0.0
 40
0.0
 40
0.0
 40
1.0
 40
1.0
 40
1.0
 40
2.0
 40
2.0
 40
2.0
 40
3.0
 40
3.0
 40
3.0
 40
4.0
 40
4.0
 40
4.0
 40
5.0
 40
5.0
 40
5.0
 40
6.0
 40
6.0
 40
6.0
 40
7.0
 40
7.0
 40
7.0
 40
8.0
 40
8.0
 40
8.0
 40
9.0
 40
9.0
 40
9.0
 40
9.0
 10
151.1875
 20
-193.90380859375
 30
0.0
 10
180.9775390625
 20
-198.02880859375
 30
0.0
 10
193.72607421875
 20
-219.0302734375
 30
0.0
 10
205.90283203125
 20
-241.419921875
 30
0.0
 10
222.8125
 20
-272.51171875
 30
0.0
 10
240.48193359375
 20
-306.31591796875
 30
0.0
 10
257.73876953125
 20
-335.01220703125
 30
0.0
 10
283.7421875
 20
-335.7265625
 30
0.0
 10
304.5244140625
 20
-341.662109375
 30
0.0
 10
330.6923828125
 20
-342.21142578125
 30
0.0
 10
322.0
 20
-327.8310546875
 30
0.0
 10
328.4208984375
 20
-305.4404296875
 30
0.0
 10
343.17138671875
 20
-301.89501953125
 30
0.0
 10
326.4716796875
 20
-251.005859375
 30
0.0
 10
309.57470703125
 20
-193.8818359375
 30
0.0
 10
291.3359375
 20
-142.068359375
 30
0.0
 10
288.86328125
 20
-135.04443359375
 30
0.0
 10
284.35546875
 20
-125.16357421875
 30
0.0
 10
285.09619140625
 20
-117.59033203125
 30
0.0
 10
286.1611328125
 20
-106.70654296875
 30
0.0
 10
297.3486328125
 20
-103.2099609375
 30
0.0
 10
307.17431640625
 20
-100.3115234375
 30
0.0
 10
306.09619140625
 20
-92.11083984375
 30
0.0
 10
301.748046875
 20
-87.1796875
 30
0.0
 10
301.4150390625
 20
-78.2333984375
 30
0.0
 10
242.68115234375
 20
-108.134765625
 30
0.0
 10
191.68017578125
 20
-145.76318359375
 30
0.0
 10
151.1875
 20
-193.90380859375
 30
0.0
  0
SPLINE
  5
48
330
3C
100
AcDbEntity
  8
Layer 1
370
     0
100
AcDbSpline
210
0.0
220
0.0
230
1.0
 70
    11
 71
     3
 72
    65
 73
    61
 74
     0
 42
0.0000000001
 43
0.0000000001
 40
0.0
 40
0.0
 40
0.0
 40
0.0
 40
1.0
 40
1.0
 40
1.0
 40
2.0
 40
2.0
 40
2.0
 40
3.0
 40
3.0
 40
3.0
 40
4.0
 40
4.0
 40
4.0
 40
5.0
 40
5.0
 40
5.0
 40
6.0
 40
6.0
 40
6.0
 40
7.0
 40
7.0
 40
7.0
 40
8.0
 40
8.0
 40
8.0
 40
9.0
 40
9.0
 40
9.0
 40
10.0
 40
10.0
 40
10.0
 40
11.0
 40
11.0
 40
11.0
 40
12.0
 40
12.0
 40
12.0
 40
13.0
 40
13.0
 40
13.0
 40
14.0
 40
14.0
 40
14.0
 40
15.0
 40
15.0
 40
15.0
 40
16.0
 40
16.0
 40
16.0
 40
17.0
 40
17.0
 40
17.0
 40
18.0
 40
18.0
 40
18.0
 40
19.0
 40
19.0
 40
19.0
 40
20.0
 40
20.0
 40
20.0
 40
20.0
 10
752.5771484375
 20
-109.43115234375
 30
0.0
 10
741.4619140625
 20
-110.6337890625
 30
0.0
 10
731.3173828125
 20
-112.80859375
 30
0.0
 10
719.9404296875
 20
-113.75048828125
 30
0.0
 10
719.4111328125
 20
-119.83203125
 30
0.0
 10
714.7236328125
 20
-125.64990234375
 30
0.0
 10
714.6611328125
 20
-131.9892578125
 30
0.0
 10
714.6005859375
 20
-138.05712890625
 30
0.0
 10
717.3310546875
 20
-144.52587890625
 30
0.0
 10
718.5
 20
-150.70751953125
 30
0.0
 10
722.6484375
 20
-172.630859375
 30
0.0
 10
726.677734375
 20
-197.07958984375
 30
0.0
 10
730.9794921875
 20
-217.90185546875
 30
0.0
 10
729.05078125
 20
-219.013671875
 30
0.0
 10
727.0205078125
 20
-220.02294921875
 30
0.0
 10
724.740234375
 20
-220.78173828125
 30
0.0
 10
713.61328125
 20
-194.16064453125
 30
0.0
 10
700.34765625
 20
-167.591796875
 30
0.0
 10
681.5439453125
 20
-148.78759765625
 30
0.0
 10
675.1201171875
 20
-142.3642578125
 30
0.0
 10
667.5869140625
 20
-135.16552734375
 30
0.0
 10
656.10546875
 20
-135.82861328125
 30
0.0
 10
653.142578125
 20
-141.9853515625
 30
0.0
 10
651.6357421875
 20
-149.59765625
 30
0.0
 10
649.3857421875
 20
-156.466796875
 30
0.0
 10
650.263671875
 20
-157.6689453125
 30
0.0
 10
653.4228515625
 20
-156.58984375
 30
0.0
 10
653.2255859375
 20
-158.86669921875
 30
0.0
 10
652.65234375
 20
-162.453125
 30
0.0
 10
651.482421875
 20
-165.443359375
 30
0.0
 10
650.345703125
 20
-168.4658203125
 30
0.0
 10
646.5361328125
 20
-168.37646484375
 30
0.0
 10
641.927734375
 20
-164.166015625
 30
0.0
 10
638.8271484375
 20
-166.54638671875
 30
0.0
 10
643.068359375
 20
-169.82421875
 30
0.0
 10
650.666015625
 20
-169.74609375
 30
0.0
 10
655.1455078125
 20
-172.78564453125
 30
0.0
 10
651.40625
 20
-185.6845703125
 30
0.0
 10
647.197265625
 20
-198.11474609375
 30
0.0
 10
643.626953125
 20
-211.1826171875
 30
0.0
 10
661.0810546875
 20
-220.75341796875
 30
0.0
 10
682.6943359375
 20
-234.025390625
 30
0.0
 10
684.9033203125
 20
-257.73876953125
 30
0.0
 10
686.21875
 20
-271.8623046875
 30
0.0
 10
681.2216796875
 20
-281.78076171875
 30
0.0
 10
677.7041015625
 20
-293.255859375
 30
0.0
 10
669.865234375
 20
-318.8251953125
 30
0.0
 10
664.734375
 20
-351.51708984375
 30
0.0
 10
638.8271484375
 20
-357.09033203125
 30
0.0
 10
638.8154296875
 20
-359.4384765625
 30
0.0
 10
643.2822265625
 20
-361.203125
 30
0.0
 10
645.06640625
 20
-363.330078125
 30
0.0
 10
711.271484375
 20
-294.51220703125
 30
0.0
 10
778.4228515625
 20
-226.6259765625
 30
0.0
 10
844.25
 20
-157.4267578125
 30
0.0
 10
816.3603515625
 20
-131.56201171875
 30
0.0
 10
785.1748046875
 20
-108.9912109375
 30
0.0
 10
750.658203125
 20
-89.75244140625
 30
0.0
 10
750.8857421875
 20
-96.7236328125
 30
0.0
 10
752.087890625
 20
-102.72119140625
 30
0.0
 10
752.5771484375
 20
-109.43115234375
 30
0.0
  0
SPLINE
  5
49
330
3C
100
AcDbEntity
  8
Layer 1
370
     0
100
AcDbSpline
210
0.0
220
0.0
230
1.0
 70
    11
 71
     3
 72
    83
 73
    79
 74
     0
 42
0.0000000001
 43
0.0000000001
 40
0.0
 40
0.0
 40
0.0
 40
0.0
 40
1.0
 40
1.0
 40
1.0
 40
2.0
 40
2.0
 40
2.0
 40
3.0
 40
3.0
 40
3.0
 40
4.0
 40
4.0
 40
4.0
 40
5.0
 40
5.0
 40
5.0
 40
6.0
 40
6.0
 40
6.0
 40
7.0
 40
7.0
 40
7.0
 40
8.0
 40
8.0
 40
8.0
 40
9.0
 40
9.0
 40
9.0
 40
10.0
 40
10.0
 40
10.0
 40
11.0
 40
11.0
 40
11.0
 40
12.0
 40
12.0
 40
12.0
 40
13.0
 40
13.0
 40
13.0
 40
14.0
 40
14.0
 40
14.0
 40
15.0
 40
15.0
 40
15.0
 40
16.0
 40
16.0
 40
16.0
 40
17.0
 40
17.0
 40
17.0
 40
18.0
 40
18.0
 40
18.0
 40
19.0
 40
19.0
 40
19.0
 40
20.0
 40
20.0
 40
20.0
 40
21.0
 40
21.0
 40
21.0
 40
22.0
 40
22.0
 40
22.0
 40
23.0
 40
23.0
 40
23.0
 40
24.0
 40
24.0
 40
24.0
 40
25.0
 40
25.0
 40
25.0
 40
26.0
 40
26.0
 40
26.0
 40
26.0
 10
352.7705078125
 20
-100.79150390625
 30
0.0
 10
354.96240234375
 20
-110.279296875
 30
0.0
 10
358.5595703125
 20
-118.36083984375
 30
0.0
 10
360.93017578125
 20
-127.66943359375
 30
0.0
 10
356.71044921875
 20
-129.20947265625
 30
0.0
 10
352.39208984375
 20
-130.650390625
 30
0.0
 10
347.97119140625
 20
-131.9892578125
 30
0.0
 10
349.19921875
 20
-136.3603515625
 30
0.0
 10
350.8427734375
 20
-140.31689453125
 30
0.0
 10
351.81103515625
 20
-144.94775390625
 30
0.0
 10
357.08349609375
 20
-144.30126953125
 30
0.0
 10
360.48193359375
 20
-141.7802734375
 30
0.0
 10
365.7294921875
 20
-141.1083984375
 30
0.0
 10
368.65478515625
 20
-151.4619140625
 30
0.0
 10
372.17822265625
 20
-161.21728515625
 30
0.0
 10
375.3291015625
 20
-171.345703125
 30
0.0
 10
360.82470703125
 20
-186.80322265625
 30
0.0
 10
371.25390625
 20
-215.826171875
 30
0.0
 10
390.6875
 20
-218.3818359375
 30
0.0
 10
393.84716796875
 20
-228.50146484375
 30
0.0
 10
397.42138671875
 20
-238.2060546875
 30
0.0
 10
400.28662109375
 20
-248.619140625
 30
0.0
 10
395.74951171875
 20
-249.681640625
 30
0.0
 10
392.2626953125
 20
-251.79443359375
 30
0.0
 10
387.328125
 20
-252.458984375
 30
0.0
 10
388.3505859375
 20
-257.03564453125
 30
0.0
 10
389.953125
 20
-261.03271484375
 30
0.0
 10
391.16748046875
 20
-265.41796875
 30
0.0
 10
396.52294921875
 20
-265.013671875
 30
0.0
 10
400.193359375
 20
-262.9248046875
 30
0.0
 10
404.6064453125
 20
-261.578125
 30
0.0
 10
407.677734375
 20
-270.345703125
 30
0.0
 10
410.59912109375
 20
-279.263671875
 30
0.0
 10
413.24560546875
 20
-288.4560546875
 30
0.0
 10
422.1064453125
 20
-285.3173828125
 30
0.0
 10
431.7734375
 20
-282.98583984375
 30
0.0
 10
440.12353515625
 20
-279.3369140625
 30
0.0
 10
437.09375
 20
-270.6875
 30
0.0
 10
434.14892578125
 20
-261.95361328125
 30
0.0
 10
431.484375
 20
-252.93896484375
 30
0.0
 10
435.990234375
 20
-251.36572265625
 30
0.0
 10
441.01611328125
 20
-250.31201171875
 30
0.0
 10
444.9228515625
 20
-248.1396484375
 30
0.0
 10
442.96337890625
 20
-244.49951171875
 30
0.0
 10
442.3369140625
 20
-239.5263671875
 30
0.0
 10
440.603515625
 20
-235.66064453125
 30
0.0
 10
435.54541015625
 20
-236.52197265625
 30
0.0
 10
432.103515625
 20
-238.99951171875
 30
0.0
 10
426.6845703125
 20
-239.5
 30
0.0
 10
423.93896484375
 20
-228.966796875
 30
0.0
 10
420.27392578125
 20
-219.35302734375
 30
0.0
 10
417.08544921875
 20
-209.2626953125
 30
0.0
 10
430.96533203125
 20
-196.31494140625
 30
0.0
 10
422.5791015625
 20
-171.84423828125
 30
0.0
 10
409.88623046875
 20
-165.58642578125
 30
0.0
 10
407.75341796875
 20
-164.53466796875
 30
0.0
 10
403.4658203125
 20
-164.21240234375
 30
0.0
 10
401.7265625
 20
-162.2265625
 30
0.0
 10
399.2109375
 20
-159.3544921875
 30
0.0
 10
398.3212890625
 20
-151.5
 30
0.0
 10
396.92724609375
 20
-147.34765625
 30
0.0
 10
395.09619140625
 20
-141.8935546875
 30
0.0
 10
393.3828125
 20
-137.10693359375
 30
0.0
 10
392.607421875
 20
-131.9892578125
 30
0.0
 10
396.91357421875
 20
-130.37548828125
 30
0.0
 10
402.0595703125
 20
-129.6025390625
 30
0.0
 10
405.56640625
 20
-127.189453125
 30
0.0
 10
403.60693359375
 20
-123.54931640625
 30
0.0
 10
402.97998046875
 20
-118.57666015625
 30
0.0
 10
401.24658203125
 20
-114.71044921875
 30
0.0
 10
396.6572265625
 20
-116.04052734375
 30
0.0
 10
392.3837890625
 20
-117.6865234375
 30
0.0
 10
387.8076171875
 20
-119.0302734375
 30
0.0
 10
384.7060546875
 20
-110.1328125
 30
0.0
 10
382.2138671875
 20
-100.6259765625
 30
0.0
 10
378.6884765625
 20
-92.15234375
 30
0.0
 10
370.50830078125
 20
-95.4912109375
 30
0.0
 10
361.34326171875
 20
-97.84521484375
 30
0.0
 10
352.7705078125
 20
-100.79150390625
 30
0.0
  0
SPLINE
  5
4A
330
3C
100
AcDbEntity
  8
Layer 1
370
     0
100
AcDbSpline
210
0.0
220
0.0
230
1.0
 70
    11
 71
     3
 72
    17
 73
    13
 74
     0
 42
0.0000000001
 43
0.0000000001
 40
0.0
 40
0.0
 40
0.0
 40
0.0
 40
1.0
 40
1.0
 40
1.0
 40
2.0
 40
2.0
 40
2.0
 40
3.0
 40
3.0
 40
3.0
 40
4.0
 40
4.0
 40
4.0
 40
4.0
 10
616.2685546875
 20
-98.3916015625
 30
0.0
 10
615.103515625
 20
-102.9853515625
 30
0.0
 10
613.466796875
 20
-107.10888671875
 30
0.0
 10
612.4296875
 20
-111.83056640625
 30
0.0
 10
613.56640625
 20
-113.09375
 30
0.0
 10
614.3359375
 20
-114.72412109375
 30
0.0
 10
616.2685546875
 20
-115.1904296875
 30
0.0
 10
618.2548828125
 20
-109.49755859375
 30
0.0
 10
620.2607421875
 20
-103.82373046875
 30
0.0
 10
621.548828125
 20
-97.43212890625
 30
0.0
 10
619.314453125
 20
-97.27783203125
 30
0.0
 10
618.345703125
 20
-98.388671875
 30
0.0
 10
616.2685546875
 20
-98.3916015625
 30
0.0
  0
SPLINE
  5
4B
330
3C
100
AcDbEntity
  8
Layer 1
370
     0
100
AcDbSpline
210
0.0
220
0.0
230
1.0
 70
    11
 71
     3
 72
    23
 73
    19
 74
     0
 42
0.0000000001
 43
0.0000000001
 40
0.0
 40
0.0
 40
0.0
 40
0.0
 40
1.0
 40
1.0
 40
1.0
 40
2.0
 40
2.0
 40
2.0
 40
3.0
 40
3.0
 40
3.0
 40
4.0
 40
4.0
 40
4.0
 40
5.0
 40
5.0
 40
5.0
 40
6.0
 40
6.0
 40
6.0
 40
6.0
 10
701.2216796875
 20
-153.107421875
 30
0.0
 10
692.12890625
 20
-138.1455078125
 30
0.0
 10
681.9658203125
 20
-123.7431640625
 30
0.0
 10
666.1845703125
 20
-116.150390625
 30
0.0
 10
666.1572265625
 20
-115.857421875
 30
0.0
 10
666.11328125
 20
-115.58203125
 30
0.0
 10
665.705078125
 20
-115.67041015625
 30
0.0
 10
664.2763671875
 20
-116.32177734375
 30
0.0
 10
663.7119140625
 20
-117.8369140625
 30
0.0
 10
662.8251953125
 20
-119.0302734375
 30
0.0
 10
681.2978515625
 20
-128.19873046875
 30
0.0
 10
693.7861328125
 20
-145.65966796875
 30
0.0
 10
704.1015625
 20
-162.70654296875
 30
0.0
 10
705.546875
 20
-165.095703125
 30
0.0
 10
707.2548828125
 20
-168.98291015625
 30
0.0
 10
708.9013671875
 20
-168.4658203125
 30
0.0
 10
708.5048828125
 20
-162.66162109375
 30
0.0
 10
704.1298828125
 20
-157.89208984375
 30
0.0
 10
701.2216796875
 20
-153.107421875
 30
0.0
  0
SPLINE
  5
4C
330
3C
100
AcDbEntity
  8
Layer 1
370
     0
100
AcDbSpline
210
0.0
220
0.0
230
1.0
 70
    11
 71
     3
 72
    17
 73
    13
 74
     0
 42
0.0000000001
 43
0.0000000001
 40
0.0
 40
0.0
 40
0.0
 40
0.0
 40
1.0
 40
1.0
 40
1.0
 40
2.0
 40
2.0
 40
2.0
 40
3.0
 40
3.0
 40
3.0
 40
4.0
 40
4.0
 40
4.0
 40
4.0
 10
614.8291015625
 20
-145.427734375
 30
0.0
 10
623.6904296875
 20
-148.5654296875
 30
0.0
 10
633.3056640625
 20
-150.94921875
 30
0.0
 10
642.1865234375
 20
-154.0673828125
 30
0.0
 10
642.7578125
 20
-152.71826171875
 30
0.0
 10
643.2666015625
 20
-151.3076171875
 30
0.0
 10
643.626953125
 20
-149.74755859375
 30
0.0
 10
634.2900390625
 20
-147.0849609375
 30
0.0
 10
625.55078125
 20
-143.8251953125
 30
0.0
 10
615.7890625
 20
-141.58837890625
 30
0.0
 10
615.7158203125
 20
-143.11474609375
 30
0.0
 10
614.701171875
 20
-143.69970703125
 30
0.0
 10
614.8291015625
 20
-145.427734375
 30
0.0
  0
SPLINE
  5
4D
330
3C
100
AcDbEntity
  8
Layer 1
370
     0
100
AcDbSpline
210
0.0
220
0.0
230
1.0
 70
    11
 71
     3
 72
    14
 73
    10
 74
     0
 42
0.0000000001
 43
0.0000000001
 40
0.0
 40
0.0
 40
0.0
 40
0.0
 40
1.0
 40
1.0
 40
1.0
 40
2.0
 40
2.0
 40
2.0
 40
3.0
 40
3.0
 40
3.0
 40
3.0
 10
146.3876953125
 20
-198.2236328125
 30
0.0
 10
113.77685546875
 20
-236.9658203125
 30
0.0
 10
85.67236328125
 20
-280.21630859375
 30
0.0
 10
65.2744140625
 20
-331.17236328125
 30
0.0
 10
116.47021484375
 20
-331.8134765625
 30
0.0
 10
166.77197265625
 20
-333.34619140625
 30
0.0
 10
217.90185546875
 20
-334.05224609375
 30
0.0
 10
195.56298828125
 20
-289.1982421875
 30
0.0
 10
170.42822265625
 20
-242.97705078125
 30
0.0
 10
146.3876953125
 20
-198.2236328125
 30
0.0
  0
SPLINE
  5
4E
330
3C
100
AcDbEntity
  8
Layer 1
370
     0
100
AcDbSpline
210
0.0
220
0.0
230
1.0
 70
    11
 71
     3
 72
    44
 73
    40
 74
     0
 42
0.0000000001
 43
0.0000000001
 40
0.0
 40
0.0
 40
0.0
 40
0.0
 40
1.0
 40
1.0
 40
1.0
 40
2.0
 40
2.0
 40
2.0
 40
3.0
 40
3.0
 40
3.0
 40
4.0
 40
4.0
 40
4.0
 40
5.0
 40
5.0
 40
5.0
 40
6.0
 40
6.0
 40
6.0
 40
7.0
 40
7.0
 40
7.0
 40
8.0
 40
8.0
 40
8.0
 40
9.0
 40
9.0
 40
9.0
 40
10.0
 40
10.0
 40
10.0
 40
11.0
 40
11.0
 40
11.0
 40
12.0
 40
12.0
 40
12.0
 40
13.0
 40
13.0
 40
13.0
 40
13.0
 10
543.314453125
 20
-227.5009765625
 30
0.0
 10
537.5869140625
 20
-234.337890625
 30
0.0
 10
535.1884765625
 20
-247.32958984375
 30
0.0
 10
532.275390625
 20
-256.77880859375
 30
0.0
 10
529.01171875
 20
-267.36767578125
 30
0.0
 10
522.9423828125
 20
-277.9140625
 30
0.0
 10
524.5966796875
 20
-289.89599609375
 30
0.0
 10
525.9609375
 20
-299.77685546875
 30
0.0
 10
536.501953125
 20
-313.38720703125
 30
0.0
 10
545.234375
 20
-316.77392578125
 30
0.0
 10
549.8720703125
 20
-318.57177734375
 30
0.0
 10
555.9716796875
 20
-318.919921875
 30
0.0
 10
561.0732421875
 20
-320.13330078125
 30
0.0
 10
571.4677734375
 20
-322.6064453125
 30
0.0
 10
581.09375
 20
-325.97412109375
 30
0.0
 10
590.3515625
 20
-329.732421875
 30
0.0
 10
595.2275390625
 20
-331.71240234375
 30
0.0
 10
600.5517578125
 20
-334.8251953125
 30
0.0
 10
604.26953125
 20
-335.4921875
 30
0.0
 10
620.14453125
 20
-338.33935546875
 30
0.0
 10
635.158203125
 20
-330.64990234375
 30
0.0
 10
640.7470703125
 20
-323.4931640625
 30
0.0
 10
645.6220703125
 20
-317.25
 30
0.0
 10
648.357421875
 20
-304.77880859375
 30
0.0
 10
651.3056640625
 20
-294.6953125
 30
0.0
 10
654.4765625
 20
-283.85498046875
 30
0.0
 10
659.8837890625
 20
-274.32470703125
 30
0.0
 10
658.505859375
 20
-262.05810546875
 30
0.0
 10
657.826171875
 20
-256.01708984375
 30
0.0
 10
653.7470703125
 20
-248.46728515625
 30
0.0
 10
648.90625
 20
-243.33984375
 30
0.0
 10
638.189453125
 20
-231.98828125
 30
0.0
 10
623.3857421875
 20
-227.84619140625
 30
0.0
 10
606.189453125
 20
-222.70166015625
 30
0.0
 10
593.119140625
 20
-218.791015625
 30
0.0
 10
582.9951171875
 20
-215.06640625
 30
0.0
 10
568.7529296875
 20
-216.4619140625
 30
0.0
 10
557.2001953125
 20
-217.59375
 30
0.0
 10
548.740234375
 20
-221.0263671875
 30
0.0
 10
543.314453125
 20
-227.5009765625
 30
0.0
  0
SPLINE
  5
4F
330
3C
100
AcDbEntity
  8
Layer 1
370
     0
100
AcDbSpline
210
0.0
220
0.0
230
1.0
 70
    11
 71
     3
 72
    26
 73
    22
 74
     0
 42
0.0000000001
 43
0.0000000001
 40
0.0
 40
0.0
 40
0.0
 40
0.0
 40
1.0
 40
1.0
 40
1.0
 40
2.0
 40
2.0
 40
2.0
 40
3.0
 40
3.0
 40
3.0
 40
4.0
 40
4.0
 40
4.0
 40
5.0
 40
5.0
 40
5.0
 40
6.0
 40
6.0
 40
6.0
 40
7.0
 40
7.0
 40
7.0
 40
7.0
 10
485.23974609375
 20
-280.77685546875
 30
0.0
 10
487.384765625
 20
-289.3779296875
 30
0.0
 10
494.29541015625
 20
-299.81103515625
 30
0.0
 10
488.599609375
 20
-307.17431640625
 30
0.0
 10
485.65966796875
 20
-310.974609375
 30
0.0
 10
476.36962890625
 20
-313.447265625
 30
0.0
 10
469.880859375
 20
-315.333984375
 30
0.0
 10
448.583984375
 20
-321.5263671875
 30
0.0
 10
426.39990234375
 20
-329.22705078125
 30
0.0
 10
408.4462890625
 20
-335.01220703125
 30
0.0
 10
408.9169921875
 20
-338.373046875
 30
0.0
 10
409.03564453125
 20
-342.455078125
 30
0.0
 10
409.40625
 20
-344.611328125
 30
0.0
 10
434.51025390625
 20
-328.7587890625
 30
0.0
 10
463.95068359375
 20
-317.2431640625
 30
0.0
 10
502.5185546875
 20
-314.85400390625
 30
0.0
 10
495.51806640625
 20
-306.73828125
 30
0.0
 10
492.046875
 20
-288.65869140625
 30
0.0
 10
496.27880859375
 20
-276.45703125
 30
0.0
 10
493.05859375
 20
-278.3564453125
 30
0.0
 10
488.26318359375
 20
-278.6806640625
 30
0.0
 10
485.23974609375
 20
-280.77685546875
 30
0.0
  0
SPLINE
  5
50
330
3C
100
AcDbEntity
  8
Layer 1
370
     0
100
AcDbSpline
210
0.0
220
0.0
230
1.0
 70
    11
 71
     3
 72
    17
 73
    13
 74
     0
 42
0.0000000001
 43
0.0000000001
 40
0.0
 40
0.0
 40
0.0
 40
0.0
 40
1.0
 40
1.0
 40
1.0
 40
2.0
 40
2.0
 40
2.0
 40
3.0
 40
3.0
 40
3.0
 40
4.0
 40
4.0
 40
4.0
 40
4.0
 10
352.7705078125
 20
-317.7333984375
 30
0.0
 10
333.35595703125
 20
-329.33837890625
 30
0.0
 10
347.3876953125
 20
-354.26513671875
 30
0.0
 10
367.6494140625
 20
-356.13037109375
 30
0.0
 10
378.6181640625
 20
-357.14013671875
 30
0.0
 10
392.287109375
 20
-351.80419921875
 30
0.0
 10
391.6474609375
 20
-339.33203125
 30
0.0
 10
383.43994140625
 20
-337.30029296875
 30
0.0
 10
381.15771484375
 20
-329.34326171875
 30
0.0
 10
379.6484375
 20
-320.61328125
 30
0.0
 10
373.5703125
 20
-314.1318359375
 30
0.0
 10
361.93310546875
 20
-322.330078125
 30
0.0
 10
352.7705078125
 20
-317.7333984375
 30
0.0
  0
SPLINE
  5
51
330
3C
100
AcDbEntity
  8
Layer 1
370
     0
100
AcDbSpline
210
0.0
220
0.0
230
1.0
 70
    11
 71
     3
 72
    14
 73
    10
 74
     0
 42
0.0000000001
 43
0.0000000001
 40
0.0
 40
0.0
 40
0.0
 40
0.0
 40
1.0
 40
1.0
 40
1.0
 40
2.0
 40
2.0
 40
2.0
 40
3.0
 40
3.0
 40
3.0
 40
3.0
 10
234.70068359375
 20
-357.5703125
 30
0.0
 10
239.9423828125
 20
-371.7724609375
 30
0.0
 10
263.4951171875
 20
-368.72998046875
 30
0.0
 10
263.01806640625
 20
-351.81103515625
 30
0.0
 10
262.7607421875
 20
-342.6767578125
 30
0.0
 10
255.56298828125
 20
-336.69677734375
 30
0.0
 10
245.73974609375
 20
-338.3720703125
 30
0.0
 10
236.423828125
 20
-339.96044921875
 30
0.0
 10
231.3447265625
 20
-348.478515625
 30
0.0
 10
234.70068359375
 20
-357.5703125
 30
0.0
  0
SPLINE
  5
52
330
3C
100
AcDbEntity
  8
Layer 1
370
     0
100
AcDbSpline
210
0.0
220
0.0
230
1.0
 70
    11
 71
     3
 72
   215
 73
   211
 74
     0
 42
0.0000000001
 43
0.0000000001
 40
0.0
 40
0.0
 40
0.0
 40
0.0
 40
1.0
 40
1.0
 40
1.0
 40
2.0
 40
2.0
 40
2.0
 40
3.0
 40
3.0
 40
3.0
 40
4.0
 40
4.0
 40
4.0
 40
5.0
 40
5.0
 40
5.0
 40
6.0
 40
6.0
 40
6.0
 40
7.0
 40
7.0
 40
7.0
 40
8.0
 40
8.0
 40
8.0
 40
9.0
 40
9.0
 40
9.0
 40
10.0
 40
10.0
 40
10.0
 40
11.0
 40
11.0
 40
11.0
 40
12.0
 40
12.0
 40
12.0
 40
13.0
 40
13.0
 40
13.0
 40
14.0
 40
14.0
 40
14.0
 40
15.0
 40
15.0
 40
15.0
 40
16.0
 40
16.0
 40
16.0
 40
17.0
 40
17.0
 40
17.0
 40
18.0
 40
18.0
 40
18.0
 40
19.0
 40
19.0
 40
19.0
 40
20.0
 40
20.0
 40
20.0
 40
21.0
 40
21.0
 40
21.0
 40
22.0
 40
22.0
 40
22.0
 40
23.0
 40
23.0
 40
23.0
 40
24.0
 40
24.0
 40
24.0
 40
25.0
 40
25.0
 40
25.0
 40
26.0
 40
26.0
 40
26.0
 40
27.0
 40
27.0
 40
27.0
 40
28.0
 40
28.0
 40
28.0
 40
29.0
 40
29.0
 40
29.0
 40
30.0
 40
30.0
 40
30.0
 40
31.0
 40
31.0
 40
31.0
 40
32.0
 40
32.0
 40
32.0
 40
33.0
 40
33.0
 40
33.0
 40
34.0
 40
34.0
 40
34.0
 40
35.0
 40
35.0
 40
35.0
 40
36.0
 40
36.0
 40
36.0
 40
37.0
 40
37.0
 40
37.0
 40
38.0
 40
38.0
 40
38.0
 40
39.0
 40
39.0
 40
39.0
 40
40.0
 40
40.0
 40
40.0
 40
41.0
 40
41.0
 40
41.0
 40
42.0
 40
42.0
 40
42.0
 40
43.0
 40
43.0
 40
43.0
 40
44.0
 40
44.0
 40
44.0
 40
45.0
 40
45.0
 40
45.0
 40
46.0
 40
46.0
 40
46.0
 40
47.0
 40
47.0
 40
47.0
 40
48.0
 40
48.0
 40
48.0
 40
49.0
 40
49.0
 40
49.0
 40
50.0
 40
50.0
 40
50.0
 40
51.0
 40
51.0
 40
51.0
 40
52.0
 40
52.0
 40
52.0
 40
53.0
 40
53.0
 40
53.0
 40
54.0
 40
54.0
 40
54.0
 40
55.0
 40
55.0
 40
55.0
 40
56.0
 40
56.0
 40
56.0
 40
57.0
 40
57.0
 40
57.0
 40
58.0
 40
58.0
 40
58.0
 40
59.0
 40
59.0
 40
59.0
 40
60.0
 40
60.0
 40
60.0
 40
61.0
 40
61.0
 40
61.0
 40
62.0
 40
62.0
 40
62.0
 40
63.0
 40
63.0
 40
63.0
 40
64.0
 40
64.0
 40
64.0
 40
65.0
 40
65.0
 40
65.0
 40
66.0
 40
66.0
 40
66.0
 40
67.0
 40
67.0
 40
67.0
 40
68.0
 40
68.0
 40
68.0
 40
69.0
 40
69.0
 40
69.0
 40
70.0
 40
70.0
 40
70.0
 40
70.0
 10
32.63720703125
 20
-461.7216796875
 30
0.0
 10
37.017578125
 20
-451.6552734375
 30
0.0
 10
37.92626953125
 20
-436.9697265625
 30
0.0
 10
47.0361328125
 20
-431.484375
 30
0.0
 10
45.12939453125
 20
-468.935546875
 30
0.0
 10
37.3291015625
 20
-503.048828125
 30
0.0
 10
35.037109375
 20
-538.515625
 30
0.0
 10
36.96728515625
 20
-538.1845703125
 30
0.0
 10
37.77685546875
 20
-538.9755859375
 30
0.0
 10
39.35693359375
 20
-538.9951171875
 30
0.0
 10
47.65771484375
 20
-511.0341796875
 30
0.0
 10
50.46337890625
 20
-474.06640625
 30
0.0
 10
57.115234375
 20
-444.9228515625
 30
0.0
 10
58.05712890625
 20
-440.79736328125
 30
0.0
 10
57.671875
 20
-435.49609375
 30
0.0
 10
61.43505859375
 20
-432.92431640625
 30
0.0
 10
65.6826171875
 20
-435.421875
 30
0.0
 10
63.376953125
 20
-440.68798828125
 30
0.0
 10
62.875
 20
-444.443359375
 30
0.0
 10
62.29931640625
 20
-448.74462890625
 30
0.0
 10
61.82177734375
 20
-453.5615234375
 30
0.0
 10
61.43505859375
 20
-457.8818359375
 30
0.0
 10
59.0
 20
-485.06396484375
 30
0.0
 10
54.9853515625
 20
-514.02734375
 30
0.0
 10
55.67529296875
 20
-539.955078125
 30
0.0
 10
63.37744140625
 20
-511.265625
 30
0.0
 10
67.10009765625
 20
-476.2646484375
 30
0.0
 10
73.43408203125
 20
-446.36279296875
 30
0.0
 10
74.134765625
 20
-443.05517578125
 30
0.0
 10
73.3251953125
 20
-435.6015625
 30
0.0
 10
78.71337890625
 20
-435.32373046875
 30
0.0
 10
79.79248046875
 20
-471.27734375
 30
0.0
 10
70.63232421875
 20
-505.3037109375
 30
0.0
 10
71.0341796875
 20
-543.314453125
 30
0.0
 10
73.626953125
 20
-542.873046875
 30
0.0
 10
73.06005859375
 20
-539.7998046875
 30
0.0
 10
73.43408203125
 20
-538.03515625
 30
0.0
 10
79.49658203125
 20
-509.4140625
 30
0.0
 10
84.85546875
 20
-478.345703125
 30
0.0
 10
89.2724609375
 20
-449.72265625
 30
0.0
 10
89.888671875
 20
-445.7294921875
 30
0.0
 10
89.58984375
 20
-440.12060546875
 30
0.0
 10
93.59228515625
 20
-437.7236328125
 30
0.0
 10
98.14013671875
 20
-440.14208984375
 30
0.0
 10
95.08056640625
 20
-446.54931640625
 30
0.0
 10
94.55224609375
 20
-450.20263671875
 30
0.0
 10
92.427734375
 20
-464.89501953125
 30
0.0
 10
92.2724609375
 20
-480.97021484375
 30
0.0
 10
90.71240234375
 20
-496.7587890625
 30
0.0
 10
89.154296875
 20
-512.53125
 30
0.0
 10
86.27685546875
 20
-528.2958984375
 30
0.0
 10
87.83251953125
 20
-543.794921875
 30
0.0
 10
95.0166015625
 20
-515.328125
 30
0.0
 10
99.517578125
 20
-481.07470703125
 30
0.0
 10
105.59130859375
 20
-451.16259765625
 30
0.0
 10
105.87744140625
 20
-449.751953125
 30
0.0
 10
106.22607421875
 20
-439.09228515625
 30
0.0
 10
109.9111328125
 20
-439.6435546875
 30
0.0
 10
112.693359375
 20
-440.06005859375
 30
0.0
 10
111.4296875
 20
-449.12353515625
 30
0.0
 10
111.3505859375
 20
-451.642578125
 30
0.0
 10
110.29541015625
 20
-485.29150390625
 30
0.0
 10
102.6640625
 20
-513.8701171875
 30
0.0
 10
103.19140625
 20
-547.634765625
 30
0.0
 10
106.3388671875
 20
-544.5166015625
 30
0.0
 10
105.70751953125
 20
-539.2529296875
 30
0.0
 10
106.55126953125
 20
-535.1552734375
 30
0.0
 10
111.974609375
 20
-508.82421875
 30
0.0
 10
117.38330078125
 20
-480.0888671875
 30
0.0
 10
121.4296875
 20
-453.5625
 30
0.0
 10
122.02001953125
 20
-449.6923828125
 30
0.0
 10
121.44873046875
 20
-443.50048828125
 30
0.0
 10
126.2294921875
 20
-442.04345703125
 30
0.0
 10
129.8544921875
 20
-445.03515625
 30
0.0
 10
127.22998046875
 20
-449.87451171875
 30
0.0
 10
126.70947265625
 20
-453.5625
 30
0.0
 10
122.32861328125
 20
-484.60595703125
 30
0.0
 10
121.5849609375
 20
-519.6455078125
 30
0.0
 10
119.0302734375
 20
-550.0341796875
 30
0.0
 10
123.14990234375
 20
-542.486328125
 30
0.0
 10
123.25537109375
 20
-532.8974609375
 30
0.0
 10
124.78955078125
 20
-524.1162109375
 30
0.0
 10
128.68896484375
 20
-501.7978515625
 30
0.0
 10
133.12939453125
 20
-478.28125
 30
0.0
 10
137.2685546875
 20
-457.40185546875
 30
0.0
 10
138.12451171875
 20
-453.08544921875
 30
0.0
 10
137.63720703125
 20
-447.93994140625
 30
0.0
 10
140.62841796875
 20
-444.443359375
 30
0.0
 10
146.13037109375
 20
-445.263671875
 30
0.0
 10
143.45361328125
 20
-451.59423828125
 30
0.0
 10
143.0283203125
 20
-455.00244140625
 30
0.0
 10
138.974609375
 20
-487.47998046875
 30
0.0
 10
137.28662109375
 20
-520.126953125
 30
0.0
 10
134.86865234375
 20
-552.4345703125
 30
0.0
 10
138.220703125
 20
-549.662109375
 30
0.0
 10
137.85107421875
 20
-544.4638671875
 30
0.0
 10
138.70849609375
 20
-540.435546875
 30
0.0
 10
144.35546875
 20
-513.8984375
 30
0.0
 10
149.50048828125
 20
-484.75244140625
 30
0.0
 10
153.58740234375
 20
-457.8818359375
 30
0.0
 10
154.1376953125
 20
-454.2646484375
 30
0.0
 10
153.27294921875
 20
-447.138671875
 30
0.0
 10
158.86669921875
 20
-446.8427734375
 30
0.0
 10
159.484375
 20
-482.33349609375
 30
0.0
 10
151.43896484375
 20
-517.4814453125
 30
0.0
 10
150.70751953125
 20
-554.3544921875
 30
0.0
 10
154.68115234375
 20
-551.880859375
 30
0.0
 10
153.95263671875
 20
-546.357421875
 30
0.0
 10
154.54736328125
 20
-542.35546875
 30
0.0
 10
158.5966796875
 20
-515.095703125
 30
0.0
 10
164.56494140625
 20
-487.806640625
 30
0.0
 10
169.42578125
 20
-461.7216796875
 30
0.0
 10
170.2431640625
 20
-457.33544921875
 30
0.0
 10
169.66455078125
 20
-452.208984375
 30
0.0
 10
172.78564453125
 20
-448.7626953125
 30
0.0
 10
178.1328125
 20
-449.806640625
 30
0.0
 10
175.60986328125
 20
-455.931640625
 30
0.0
 10
175.185546875
 20
-459.32177734375
 30
0.0
 10
173.44677734375
 20
-473.2060546875
 30
0.0
 10
172.65869140625
 20
-487.51318359375
 30
0.0
 10
171.345703125
 20
-501.078125
 30
0.0
 10
169.53076171875
 20
-519.8330078125
 30
0.0
 10
166.1416015625
 20
-539.2314453125
 30
0.0
 10
167.505859375
 20
-556.2734375
 30
0.0
 10
173.79931640625
 20
-527.109375
 30
0.0
 10
180.93603515625
 20
-493.396484375
 30
0.0
 10
185.74462890625
 20
-462.681640625
 30
0.0
 10
186.33642578125
 20
-458.90185546875
 30
0.0
 10
185.1123046875
 20
-452.31005859375
 30
0.0
 10
190.54443359375
 20
-451.16259765625
 30
0.0
 10
193.0595703125
 20
-454.65380859375
 30
0.0
 10
191.2900390625
 20
-459.19775390625
 30
0.0
 10
191.02392578125
 20
-463.16162109375
 30
0.0
 10
188.8427734375
 20
-495.69287109375
 30
0.0
 10
183.83544921875
 20
-525.6474609375
 30
0.0
 10
182.86474609375
 20
-558.673828125
 30
0.0
 10
186.7421875
 20
-556.171875
 30
0.0
 10
186.15283203125
 20
-550.6220703125
 30
0.0
 10
186.70458984375
 20
-546.6748046875
 30
0.0
 10
190.4677734375
 20
-519.759765625
 30
0.0
 10
196.15234375
 20
-492.01611328125
 30
0.0
 10
201.103515625
 20
-466.04150390625
 30
0.0
 10
201.88134765625
 20
-461.958984375
 30
0.0
 10
201.87451171875
 20
-457.0205078125
 30
0.0
 10
204.462890625
 20
-453.5625
 30
0.0
 10
210.31396484375
 20
-454.18359375
 30
0.0
 10
207.26025390625
 20
-460.859375
 30
0.0
 10
206.86279296875
 20
-464.12158203125
 30
0.0
 10
203.92333984375
 20
-488.24462890625
 30
0.0
 10
202.96630859375
 20
-511.046875
 30
0.0
 10
200.62353515625
 20
-534.1953125
 30
0.0
 10
199.68798828125
 20
-543.435546875
 30
0.0
 10
196.8974609375
 20
-552.9189453125
 30
0.0
 10
199.66357421875
 20
-561.0732421875
 30
0.0
 10
207.71337890625
 20
-533.0654296875
 30
0.0
 10
210.326171875
 20
-496.61474609375
 30
0.0
 10
217.421875
 20
-467.4814453125
 30
0.0
 10
218.39111328125
 20
-463.501953125
 30
0.0
 10
218.63525390625
 20
-455.4345703125
 30
0.0
 10
221.74169921875
 20
-455.482421875
 30
0.0
 10
226.19091796875
 20
-455.55078125
 30
0.0
 10
223.30810546875
 20
-463.44921875
 30
0.0
 10
223.181640625
 20
-465.08154296875
 30
0.0
 10
220.8369140625
 20
-495.36083984375
 30
0.0
 10
216.095703125
 20
-530.7880859375
 30
0.0
 10
215.02197265625
 20
-563.4736328125
 30
0.0
 10
218.95263671875
 20
-560.5615234375
 30
0.0
 10
217.7861328125
 20
-555.15234375
 30
0.0
 10
218.3818359375
 20
-550.994140625
 30
0.0
 10
222.3212890625
 20
-523.5029296875
 30
0.0
 10
229.78271484375
 20
-496.6015625
 30
0.0
 10
233.74072265625
 20
-469.880859375
 30
0.0
 10
234.31103515625
 20
-466.0302734375
 30
0.0
 10
233.1943359375
 20
-459.74072265625
 30
0.0
 10
238.06005859375
 20
-457.8818359375
 30
0.0
 10
241.29443359375
 20
-464.33349609375
 30
0.0
 10
238.732421875
 20
-472.45703125
 30
0.0
 10
238.06005859375
 20
-479.9599609375
 30
0.0
 10
235.978515625
 20
-503.19921875
 30
0.0
 10
234.93017578125
 20
-530.251953125
 30
0.0
 10
231.82080078125
 20
-552.9140625
 30
0.0
 10
231.2470703125
 20
-557.095703125
 30
0.0
 10
228.85693359375
 20
-561.484375
 30
0.0
 10
231.3408203125
 20
-565.3935546875
 30
0.0
 10
237.76953125
 20
-546.5380859375
 30
0.0
 10
240.65576171875
 20
-519.3564453125
 30
0.0
 10
244.2998046875
 20
-496.27880859375
 30
0.0
 10
245.54296875
 20
-488.404296875
 30
0.0
 10
249.02587890625
 20
-479.3798828125
 30
0.0
 10
248.619140625
 20
-472.7607421875
 30
0.0
 10
248.24072265625
 20
-466.59326171875
 30
0.0
 10
245.2451171875
 20
-462.6865234375
 30
0.0
 10
245.73974609375
 20
-456.4423828125
 30
0.0
 10
246.8740234375
 20
-442.11328125
 30
0.0
 10
259.62451171875
 20
-432.38037109375
 30
0.0
 10
275.97705078125
 20
-431.96435546875
 30
0.0
 10
264.42333984375
 20
-409.28125
 30
0.0
 10
248.24169921875
 20
-391.22509765625
 30
0.0
 10
236.62060546875
 20
-368.609375
 30
0.0
 10
206.0771484375
 20
-367.5244140625
 30
0.0
 10
170.806640625
 20
-365.44921875
 30
0.0
 10
138.70849609375
 20
-364.76953125
 30
0.0
 10
104.916015625
 20
-364.0546875
 30
0.0
 10
76.6806640625
 20
-360.17236328125
 30
0.0
 10
62.39501953125
 20
-338.85205078125
 30
0.0
 10
62.36767578125
 20
-338.55908203125
 30
0.0
 10
62.3232421875
 20
-338.28369140625
 30
0.0
 10
61.9150390625
 20
-338.3720703125
 30
0.0
 10
48.48095703125
 20
-375.49462890625
 30
0.0
 10
35.947265625
 20
-416.0751953125
 30
0.0
 10
32.63720703125
 20
-461.7216796875
 30
0.0
  0
SPLINE
  5
53
330
3C
100
AcDbEntity
  8
Layer 1
370
     0
100
AcDbSpline
210
0.0
220
0.0
230
1.0
 70
    11
 71
     3
 72
   197
 73
   193
 74
     0
 42
0.0000000001
 43
0.0000000001
 40
0.0
 40
0.0
 40
0.0
 40
0.0
 40
1.0
 40
1.0
 40
1.0
 40
2.0
 40
2.0
 40
2.0
 40
3.0
 40
3.0
 40
3.0
 40
4.0
 40
4.0
 40
4.0
 40
5.0
 40
5.0
 40
5.0
 40
6.0
 40
6.0
 40
6.0
 40
7.0
 40
7.0
 40
7.0
 40
8.0
 40
8.0
 40
8.0
 40
9.0
 40
9.0
 40
9.0
 40
10.0
 40
10.0
 40
10.0
 40
11.0
 40
11.0
 40
11.0
 40
12.0
 40
12.0
 40
12.0
 40
13.0
 40
13.0
 40
13.0
 40
14.0
 40
14.0
 40
14.0
 40
15.0
 40
15.0
 40
15.0
 40
16.0
 40
16.0
 40
16.0
 40
17.0
 40
17.0
 40
17.0
 40
18.0
 40
18.0
 40
18.0
 40
19.0
 40
19.0
 40
19.0
 40
20.0
 40
20.0
 40
20.0
 40
21.0
 40
21.0
 40
21.0
 40
22.0
 40
22.0
 40
22.0
 40
23.0
 40
23.0
 40
23.0
 40
24.0
 40
24.0
 40
24.0
 40
25.0
 40
25.0
 40
25.0
 40
26.0
 40
26.0
 40
26.0
 40
27.0
 40
27.0
 40
27.0
 40
28.0
 40
28.0
 40
28.0
 40
29.0
 40
29.0
 40
29.0
 40
30.0
 40
30.0
 40
30.0
 40
31.0
 40
31.0
 40
31.0
 40
32.0
 40
32.0
 40
32.0
 40
33.0
 40
33.0
 40
33.0
 40
34.0
 40
34.0
 40
34.0
 40
35.0
 40
35.0
 40
35.0
 40
36.0
 40
36.0
 40
36.0
 40
37.0
 40
37.0
 40
37.0
 40
38.0
 40
38.0
 40
38.0
 40
39.0
 40
39.0
 40
39.0
 40
40.0
 40
40.0
 40
40.0
 40
41.0
 40
41.0
 40
41.0
 40
42.0
 40
42.0
 40
42.0
 40
43.0
 40
43.0
 40
43.0
 40
44.0
 40
44.0
 40
44.0
 40
45.0
 40
45.0
 40
45.0
 40
46.0
 40
46.0
 40
46.0
 40
47.0
 40
47.0
 40
47.0
 40
48.0
 40
48.0
 40
48.0
 40
49.0
 40
49.0
 40
49.0
 40
50.0
 40
50.0
 40
50.0
 40
51.0
 40
51.0
 40
51.0
 40
52.0
 40
52.0
 40
52.0
 40
53.0
 40
53.0
 40
53.0
 40
54.0
 40
54.0
 40
54.0
 40
55.0
 40
55.0
 40
55.0
 40
56.0
 40
56.0
 40
56.0
 40
57.0
 40
57.0
 40
57.0
 40
58.0
 40
58.0
 40
58.0
 40
59.0
 40
59.0
 40
59.0
 40
60.0
 40
60.0
 40
60.0
 40
61.0
 40
61.0
 40
61.0
 40
62.0
 40
62.0
 40
62.0
 40
63.0
 40
63.0
 40
63.0
 40
64.0
 40
64.0
 40
64.0
 40
64.0
 10
746.337890625
 20
-387.328125
 30
0.0
 10
746.2490234375
 20
-383.3994140625
 30
0.0
 10
747.8798828125
 20
-381.1904296875
 30
0.0
 10
749.2177734375
 20
-378.6884765625
 30
0.0
 10
743.4619140625
 20
-379.8125
 30
0.0
 10
742.927734375
 20
-386.1572265625
 30
0.0
 10
740.0986328125
 20
-390.20751953125
 30
0.0
 10
737.201171875
 20
-383.201171875
 30
0.0
 10
743.3369140625
 20
-378.5068359375
 30
0.0
 10
748.2578125
 20
-376.28857421875
 30
0.0
 10
732.1611328125
 20
-374.791015625
 30
0.0
 10
732.4453125
 20
-393.7236328125
 30
0.0
 10
726.1796875
 20
-403.646484375
 30
0.0
 10
724.3798828125
 20
-397.861328125
 30
0.0
 10
728.01171875
 20
-393.74609375
 30
0.0
 10
727.6201171875
 20
-387.8076171875
 30
0.0
 10
724.4072265625
 20
-392.29638671875
 30
0.0
 10
722.7314453125
 20
-400.26611328125
 30
0.0
 10
722.33984375
 20
-406.04638671875
 30
0.0
 10
718.423828125
 20
-405.3232421875
 30
0.0
 10
721.73828125
 20
-397.369140625
 30
0.0
 10
719.9404296875
 20
-394.52734375
 30
0.0
 10
715.6767578125
 20
-399.3828125
 30
0.0
 10
715.255859375
 20
-408.0810546875
 30
0.0
 10
714.6611328125
 20
-416.60546875
 30
0.0
 10
713.1708984375
 20
-415.21484375
 30
0.0
 10
714.01171875
 20
-411.49560546875
 30
0.0
 10
712.2607421875
 20
-410.3662109375
 30
0.0
 10
708.7314453125
 20
-413.23583984375
 30
0.0
 10
710.9111328125
 20
-421.81494140625
 30
0.0
 10
708.4208984375
 20
-425.724609375
 30
0.0
 10
707.1484375
 20
-425.8779296875
 30
0.0
 10
708.8701171875
 20
-423.0361328125
 30
0.0
 10
706.9814453125
 20
-423.8046875
 30
0.0
 10
703.78125
 20
-429.85302734375
 30
0.0
 10
708.755859375
 20
-435.3310546875
 30
0.0
 10
707.94140625
 20
-442.5234375
 30
0.0
 10
707.5224609375
 20
-446.22119140625
 30
0.0
 10
703.7705078125
 20
-449.11865234375
 30
0.0
 10
703.6220703125
 20
-452.6025390625
 30
0.0
 10
703.53125
 20
-454.7255859375
 30
0.0
 10
705.517578125
 20
-459.1962890625
 30
0.0
 10
706.5009765625
 20
-463.16162109375
 30
0.0
 10
712.6318359375
 20
-487.85986328125
 30
0.0
 10
714.611328125
 20
-521.1416015625
 30
0.0
 10
709.861328125
 20
-548.1142578125
 30
0.0
 10
708.947265625
 20
-553.3017578125
 30
0.0
 10
704.6279296875
 20
-564.9697265625
 30
0.0
 10
705.0615234375
 20
-569.232421875
 30
0.0
 10
705.3662109375
 20
-572.2265625
 30
0.0
 10
710.005859375
 20
-578.4677734375
 30
0.0
 10
711.78125
 20
-581.7119140625
 30
0.0
 10
718.9384765625
 20
-594.7958984375
 30
0.0
 10
724.6787109375
 20
-608.2109375
 30
0.0
 10
727.1396484375
 20
-623.9482421875
 30
0.0
 10
747.6640625
 20
-615.5146484375
 30
0.0
 10
758.86328125
 20
-597.7568359375
 30
0.0
 10
778.4951171875
 20
-588.431640625
 30
0.0
 10
776.0888671875
 20
-577.341796875
 30
0.0
 10
767.095703125
 20
-565.21484375
 30
0.0
 10
766.0166015625
 20
-550.994140625
 30
0.0
 10
764.671875
 20
-533.27734375
 30
0.0
 10
770.26171875
 20
-518.1875
 30
0.0
 10
787.6142578125
 20
-516.4375
 30
0.0
 10
809.5849609375
 20
-514.2216796875
 30
0.0
 10
821.4833984375
 20
-529.5595703125
 30
0.0
 10
825.53125
 20
-546.6748046875
 30
0.0
 10
833.53125
 20
-546.6748046875
 30
0.0
 10
841.5302734375
 20
-546.6748046875
 30
0.0
 10
849.529296875
 20
-546.6748046875
 30
0.0
 10
852.208984375
 20
-516.716796875
 30
0.0
 10
863.7490234375
 20
-495.6201171875
 30
0.0
 10
886.0068359375
 20
-485.23974609375
 30
0.0
 10
881.9912109375
 20
-469.73681640625
 30
0.0
 10
874.3798828125
 20
-457.830078125
 30
0.0
 10
873.52734375
 20
-439.16357421875
 30
0.0
 10
839.568359375
 20
-434.72119140625
 30
0.0
 10
800.8466796875
 20
-431.0263671875
 30
0.0
 10
763.6171875
 20
-432.92431640625
 30
0.0
 10
793.515625
 20
-428.10498046875
 30
0.0
 10
824.5810546875
 20
-427.90625
 30
0.0
 10
855.76953125
 20
-429.564453125
 30
0.0
 10
879.169921875
 20
-430.80859375
 30
0.0
 10
905.4248046875
 20
-440.65478515625
 30
0.0
 10
924.8828125
 20
-441.08349609375
 30
0.0
 10
938.63671875
 20
-441.38623046875
 30
0.0
 10
942.5986328125
 20
-431.533203125
 30
0.0
 10
954.1611328125
 20
-434.36376953125
 30
0.0
 10
953.77734375
 20
-438.93994140625
 30
0.0
 10
952.0654296875
 20
-442.18798828125
 30
0.0
 10
949.8408203125
 20
-444.9228515625
 30
0.0
 10
955.087890625
 20
-444.56689453125
 30
0.0
 10
956.6484375
 20
-437.97509765625
 30
0.0
 10
960.400390625
 20
-437.7236328125
 30
0.0
 10
959.5068359375
 20
-440.60498046875
 30
0.0
 10
958.125
 20
-443.9169921875
 30
0.0
 10
956.0810546875
 20
-446.36279296875
 30
0.0
 10
954.5556640625
 20
-448.18798828125
 30
0.0
 10
950.9091796875
 20
-449.64306640625
 30
0.0
 10
951.7607421875
 20
-451.16259765625
 30
0.0
 10
960.857421875
 20
-449.37939453125
 30
0.0
 10
963.869140625
 20
-441.5126953125
 30
0.0
 10
967.599609375
 20
-434.36376953125
 30
0.0
 10
975.166015625
 20
-445.76318359375
 30
0.0
 10
965.736328125
 20
-459.9580078125
 30
0.0
 10
956.0810546875
 20
-463.16162109375
 30
0.0
 10
967.1953125
 20
-464.8037109375
 30
0.0
 10
971.134765625
 20
-455.63818359375
 30
0.0
 10
974.798828125
 20
-448.28271484375
 30
0.0
 10
976.0302734375
 20
-462.31689453125
 30
0.0
 10
973.826171875
 20
-476.6279296875
 30
0.0
 10
962.3203125
 20
-479.48046875
 30
0.0
 10
962.6025390625
 20
-481.4375
 30
0.0
 10
965.7646484375
 20
-480.515625
 30
0.0
 10
966.6396484375
 20
-481.8798828125
 30
0.0
 10
964.62890625
 20
-482.908203125
 30
0.0
 10
962.984375
 20
-484.3037109375
 30
0.0
 10
960.8798828125
 20
-485.23974609375
 30
0.0
 10
966.0322265625
 20
-486.79443359375
 30
0.0
 10
972.435546875
 20
-480.69140625
 30
0.0
 10
975.279296875
 20
-477.560546875
 30
0.0
 10
981.1259765625
 20
-471.12255859375
 30
0.0
 10
985.13671875
 20
-458.55078125
 30
0.0
 10
985.837890625
 20
-448.7626953125
 30
0.0
 10
987.3544921875
 20
-427.59326171875
 30
0.0
 10
975.0791015625
 20
-408.11328125
 30
0.0
 10
963.2802734375
 20
-399.3271484375
 30
0.0
 10
962.9873046875
 20
-394.5
 30
0.0
 10
961.1435546875
 20
-391.224609375
 30
0.0
 10
957.041015625
 20
-390.20751953125
 30
0.0
 10
955.47265625
 20
-372.7373046875
 30
0.0
 10
935.68359375
 20
-373.48779296875
 30
0.0
 10
919.603515625
 20
-370.529296875
 30
0.0
 10
922.2216796875
 20
-368.27734375
 30
0.0
 10
927.3212890625
 20
-371.29443359375
 30
0.0
 10
930.642578125
 20
-369.5693359375
 30
0.0
 10
920.392578125
 20
-361.38525390625
 30
0.0
 10
898.455078125
 20
-356.8837890625
 30
0.0
 10
882.646484375
 20
-362.85009765625
 30
0.0
 10
883.0205078125
 20
-361.3037109375
 30
0.0
 10
884.81640625
 20
-361.1796875
 30
0.0
 10
886.0068359375
 20
-360.4501953125
 30
0.0
 10
880.080078125
 20
-356.9609375
 30
0.0
 10
873.900390625
 20
-363.1240234375
 30
0.0
 10
870.6474609375
 20
-363.81005859375
 30
0.0
 10
871.671875
 20
-359.87451171875
 30
0.0
 10
875.8095703125
 20
-359.05224609375
 30
0.0
 10
879.287109375
 20
-357.5703125
 30
0.0
 10
866.453125
 20
-356.73681640625
 30
0.0
 10
858.6279296875
 20
-363.46826171875
 30
0.0
 10
850.9697265625
 20
-366.20947265625
 30
0.0
 10
853.470703125
 20
-360.0712890625
 30
0.0
 10
859.3779296875
 20
-357.33935546875
 30
0.0
 10
864.408203125
 20
-353.73046875
 30
0.0
 10
853.544921875
 20
-352.7861328125
 30
0.0
 10
850.3623046875
 20
-359.52294921875
 30
0.0
 10
843.76953125
 20
-362.85009765625
 30
0.0
 10
843.7431640625
 20
-359.5283203125
 30
0.0
 10
848.2265625
 20
-358.47705078125
 30
0.0
 10
847.609375
 20
-356.13037109375
 30
0.0
 10
842.927734375
 20
-357.2080078125
 30
0.0
 10
841.8193359375
 20
-361.859375
 30
0.0
 10
837.05078125
 20
-362.85009765625
 30
0.0
 10
839.724609375
 20
-356.56494140625
 30
0.0
 10
846.11328125
 20
-353.994140625
 30
0.0
 10
850.9697265625
 20
-349.89111328125
 30
0.0
 10
844.1357421875
 20
-349.2744140625
 30
0.0
 10
839.369140625
 20
-356.76416015625
 30
0.0
 10
833.2109375
 20
-358.05029296875
 30
0.0
 10
830.8642578125
 20
-358.54052734375
 30
0.0
 10
828.392578125
 20
-357.8681640625
 30
0.0
 10
826.01171875
 20
-358.05029296875
 30
0.0
 10
809.4423828125
 20
-359.31787109375
 30
0.0
 10
798.828125
 20
-368.1572265625
 30
0.0
 10
789.0546875
 20
-375.3291015625
 30
0.0
 10
791.794921875
 20
-366.5498046875
 30
0.0
 10
798.4404296875
 20
-361.6767578125
 30
0.0
 10
808.2529296875
 20
-359.97021484375
 30
0.0
 10
789.783203125
 20
-355.3271484375
 30
0.0
 10
782.4150390625
 20
-373.671875
 30
0.0
 10
773.6962890625
 20
-379.6484375
 30
0.0
 10
772.5458984375
 20
-376.28662109375
 30
0.0
 10
774.9365234375
 20
-373.9580078125
 30
0.0
 10
776.095703125
 20
-371.4892578125
 30
0.0
 10
773.71484375
 20
-370.888671875
 30
0.0
 10
773.158203125
 20
-374.60302734375
 30
0.0
 10
772.255859375
 20
-373.88916015625
 30
0.0
 10
772.17578125
 20
-368.84521484375
 30
0.0
 10
776.6572265625
 20
-365.81689453125
 30
0.0
 10
777.53515625
 20
-363.330078125
 30
0.0
 10
764.99609375
 20
-368.86962890625
 30
0.0
 10
752.349609375
 20
-376.8603515625
 30
0.0
 10
746.337890625
 20
-387.328125
 30
0.0
  0
SPLINE
  5
54
330
3C
100
AcDbEntity
  8
Layer 1
370
     0
100
AcDbSpline
210
0.0
220
0.0
230
1.0
 70
    11
 71
     3
 72
    17
 73
    13
 74
     0
 42
0.0000000001
 43
0.0000000001
 40
0.0
 40
0.0
 40
0.0
 40
0.0
 40
1.0
 40
1.0
 40
1.0
 40
2.0
 40
2.0
 40
2.0
 40
3.0
 40
3.0
 40
3.0
 40
4.0
 40
4.0
 40
4.0
 40
4.0
 10
268.77783203125
 20
-365.7294921875
 30
0.0
 10
274.28076171875
 20
-409.66162109375
 30
0.0
 10
302.29345703125
 20
-431.08642578125
 30
0.0
 10
323.4931640625
 20
-459.32177734375
 30
0.0
 10
332.287109375
 20
-425.45751953125
 30
0.0
 10
350.06884765625
 20
-397.8447265625
 30
0.0
 10
370.529296875
 20
-376.28857421875
 30
0.0
 10
371.5546875
 20
-375.20849609375
 30
0.0
 10
373.69189453125
 20
-373.736328125
 30
0.0
 10
373.4091796875
 20
-371.96923828125
 30
0.0
 10
342.771484375
 20
-364.533203125
 30
0.0
 10
300.98193359375
 20
-351.21435546875
 30
0.0
 10
268.77783203125
 20
-365.7294921875
 30
0.0
  0
SPLINE
  5
55
330
3C
100
AcDbEntity
  8
Layer 1
370
     0
100
AcDbSpline
210
0.0
220
0.0
230
1.0
 70
    11
 71
     3
 72
    38
 73
    34
 74
     0
 42
0.0000000001
 43
0.0000000001
 40
0.0
 40
0.0
 40
0.0
 40
0.0
 40
1.0
 40
1.0
 40
1.0
 40
2.0
 40
2.0
 40
2.0
 40
3.0
 40
3.0
 40
3.0
 40
4.0
 40
4.0
 40
4.0
 40
5.0
 40
5.0
 40
5.0
 40
6.0
 40
6.0
 40
6.0
 40
7.0
 40
7.0
 40
7.0
 40
8.0
 40
8.0
 40
8.0
 40
9.0
 40
9.0
 40
9.0
 40
10.0
 40
10.0
 40
10.0
 40
11.0
 40
11.0
 40
11.0
 40
11.0
 10
309.57421875
 20
-474.20068359375
 30
0.0
 10
309.87060546875
 20
-454.6318359375
 30
0.0
 10
284.875
 20
-436.74755859375
 30
0.0
 10
269.73779296875
 20
-450.20263671875
 30
0.0
 10
265.68310546875
 20
-453.806640625
 30
0.0
 10
262.1943359375
 20
-461.99072265625
 30
0.0
 10
265.89794921875
 20
-470.36083984375
 30
0.0
 10
266.76416015625
 20
-467.2275390625
 30
0.0
 10
266.388671875
 20
-462.8525390625
 30
0.0
 10
270.2177734375
 20
-462.681640625
 30
0.0
 10
274.5302734375
 20
-465.99609375
 30
0.0
 10
269.87353515625
 20
-472.3603515625
 30
0.0
 10
270.69775390625
 20
-478.04052734375
 30
0.0
 10
273.119140625
 20
-480.8984375
 30
0.0
 10
275.66015625
 20
-483.63720703125
 30
0.0
 10
279.3369140625
 20
-485.23974609375
 30
0.0
 10
281.703125
 20
-481.60302734375
 30
0.0
 10
280.7822265625
 20
-460.57421875
 30
0.0
 10
287.97607421875
 20
-465.5615234375
 30
0.0
 10
287.39453125
 20
-473.138671875
 30
0.0
 10
286.849609375
 20
-480.75341796875
 30
0.0
 10
286.5361328125
 20
-488.599609375
 30
0.0
 10
288.68994140625
 20
-489.8056640625
 30
0.0
 10
292.2890625
 20
-489.56591796875
 30
0.0
 10
295.6552734375
 20
-489.5595703125
 30
0.0
 10
298.5546875
 20
-482.859375
 30
0.0
 10
295.73095703125
 20
-470.43603515625
 30
0.0
 10
301.89501953125
 20
-467.00146484375
 30
0.0
 10
306.7822265625
 20
-471.00146484375
 30
0.0
 10
301.4755859375
 20
-480.2548828125
 30
0.0
 10
301.89501953125
 20
-487.15966796875
 30
0.0
 10
306.90478515625
 20
-484.8486328125
 30
0.0
 10
309.4794921875
 20
-480.45751953125
 30
0.0
 10
309.57421875
 20
-474.20068359375
 30
0.0
  0
SPLINE
  5
56
330
3C
100
AcDbEntity
  8
Layer 1
370
     0
100
AcDbSpline
210
0.0
220
0.0
230
1.0
 70
    11
 71
     3
 72
    17
 73
    13
 74
     0
 42
0.0000000001
 43
0.0000000001
 40
0.0
 40
0.0
 40
0.0
 40
0.0
 40
1.0
 40
1.0
 40
1.0
 40
2.0
 40
2.0
 40
2.0
 40
3.0
 40
3.0
 40
3.0
 40
4.0
 40
4.0
 40
4.0
 40
4.0
 10
463.16162109375
 20
-489.07958984375
 30
0.0
 10
449.89208984375
 20
-526.1923828125
 30
0.0
 10
478.46240234375
 20
-560.068359375
 30
0.0
 10
510.197265625
 20
-562.513671875
 30
0.0
 10
553.998046875
 20
-565.8876953125
 30
0.0
 10
585.60546875
 20
-519.587890625
 30
0.0
 10
562.9931640625
 20
-479.9599609375
 30
0.0
 10
554.609375
 20
-465.26708984375
 30
0.0
 10
534.4296875
 20
-451.025390625
 30
0.0
 10
511.1572265625
 20
-453.08251953125
 30
0.0
 10
487.1533203125
 20
-455.2041015625
 30
0.0
 10
469.5966796875
 20
-471.08154296875
 30
0.0
 10
463.16162109375
 20
-489.07958984375
 30
0.0
  0
SPLINE
  5
57
330
3C
100
AcDbEntity
  8
Layer 1
370
     0
100
AcDbSpline
210
0.0
220
0.0
230
1.0
 70
    11
 71
     3
 72
    17
 73
    13
 74
     0
 42
0.0000000001
 43
0.0000000001
 40
0.0
 40
0.0
 40
0.0
 40
0.0
 40
1.0
 40
1.0
 40
1.0
 40
2.0
 40
2.0
 40
2.0
 40
3.0
 40
3.0
 40
3.0
 40
4.0
 40
4.0
 40
4.0
 40
4.0
 10
247.1796875
 20
-567.79296875
 30
0.0
 10
250.76953125
 20
-565.5380859375
 30
0.0
 10
249.57861328125
 20
-560.7138671875
 30
0.0
 10
250.05908203125
 20
-556.75390625
 30
0.0
 10
252.64013671875
 20
-535.5
 30
0.0
 10
259.7041015625
 20
-512.9453125
 30
0.0
 10
262.5380859375
 20
-491.4794921875
 30
0.0
 10
259.7392578125
 20
-488.6787109375
 30
0.0
 10
257.12939453125
 20
-485.68896484375
 30
0.0
 10
254.37890625
 20
-482.83984375
 30
0.0
 10
252.70166015625
 20
-511.5595703125
 30
0.0
 10
246.6787109375
 20
-538.494140625
 30
0.0
 10
247.1796875
 20
-567.79296875
 30
0.0
  0
SPLINE
  5
58
330
3C
100
AcDbEntity
  8
Layer 1
370
     0
100
AcDbSpline
210
0.0
220
0.0
230
1.0
 70
    11
 71
     3
 72
    17
 73
    13
 74
     0
 42
0.0000000001
 43
0.0000000001
 40
0.0
 40
0.0
 40
0.0
 40
0.0
 40
1.0
 40
1.0
 40
1.0
 40
2.0
 40
2.0
 40
2.0
 40
3.0
 40
3.0
 40
3.0
 40
4.0
 40
4.0
 40
4.0
 40
4.0
 10
263.97802734375
 20
-553.39453125
 30
0.0
 10
263.423828125
 20
-559.0517578125
 30
0.0
 10
260.94091796875
 20
-565.1826171875
 30
0.0
 10
263.498046875
 20
-570.1923828125
 30
0.0
 10
269.75146484375
 20
-549.087890625
 30
0.0
 10
272.67822265625
 20
-524.6572265625
 30
0.0
 10
276.45703125
 20
-501.078125
 30
0.0
 10
274.39111328125
 20
-498.984375
 30
0.0
 10
271.27392578125
 20
-497.9423828125
 30
0.0
 10
268.77783203125
 20
-496.27880859375
 30
0.0
 10
267.13525390625
 20
-514.802734375
 30
0.0
 10
265.7724609375
 20
-535.083984375
 30
0.0
 10
263.97802734375
 20
-553.39453125
 30
0.0
  0
SPLINE
  5
59
330
3C
100
AcDbEntity
  8
Layer 1
370
     0
100
AcDbSpline
210
0.0
220
0.0
230
1.0
 70
    11
 71
     3
 72
    17
 73
    13
 74
     0
 42
0.0000000001
 43
0.0000000001
 40
0.0
 40
0.0
 40
0.0
 40
0.0
 40
1.0
 40
1.0
 40
1.0
 40
2.0
 40
2.0
 40
2.0
 40
3.0
 40
3.0
 40
3.0
 40
4.0
 40
4.0
 40
4.0
 40
4.0
 10
300.455078125
 20
-505.3984375
 30
0.0
 10
299.09716796875
 20
-527.9521484375
 30
0.0
 10
294.02685546875
 20
-551.6640625
 30
0.0
 10
295.6552734375
 20
-574.0322265625
 30
0.0
 10
301.52880859375
 20
-551.908203125
 30
0.0
 10
305.14453125
 20
-527.5263671875
 30
0.0
 10
309.09423828125
 20
-503.478515625
 30
0.0
 10
308.7744140625
 20
-503.478515625
 30
0.0
 10
308.45458984375
 20
-503.478515625
 30
0.0
 10
308.13427734375
 20
-503.478515625
 30
0.0
 10
306.146484375
 20
-504.689453125
 30
0.0
 10
302.7685546875
 20
-504.51171875
 30
0.0
 10
300.455078125
 20
-505.3984375
 30
0.0
  0
SPLINE
  5
5A
330
3C
100
AcDbEntity
  8
Layer 1
370
     0
100
AcDbSpline
210
0.0
220
0.0
230
1.0
 70
    11
 71
     3
 72
    17
 73
    13
 74
     0
 42
0.0000000001
 43
0.0000000001
 40
0.0
 40
0.0
 40
0.0
 40
0.0
 40
1.0
 40
1.0
 40
1.0
 40
2.0
 40
2.0
 40
2.0
 40
3.0
 40
3.0
 40
3.0
 40
4.0
 40
4.0
 40
4.0
 40
4.0
 10
285.09619140625
 20
-503.9580078125
 30
0.0
 10
282.55322265625
 20
-526.0537109375
 30
0.0
 10
278.9423828125
 20
-549.6396484375
 30
0.0
 10
278.85693359375
 20
-572.5927734375
 30
0.0
 10
282.7412109375
 20
-568.681640625
 30
0.0
 10
282.18896484375
 20
-562.1904296875
 30
0.0
 10
283.1767578125
 20
-556.75390625
 30
0.0
 10
286.29931640625
 20
-539.5634765625
 30
0.0
 10
289.72705078125
 20
-521.818359375
 30
0.0
 10
292.77587890625
 20
-504.91796875
 30
0.0
 10
289.57421875
 20
-505.240234375
 30
0.0
 10
287.94580078125
 20
-503.98828125
 30
0.0
 10
285.09619140625
 20
-503.9580078125
 30
0.0
  0
SPLINE
  5
5B
330
3C
100
AcDbEntity
  8
Layer 1
370
     0
100
AcDbSpline
210
0.0
220
0.0
230
1.0
 70
    11
 71
     3
 72
    11
 73
     7
 74
     0
 42
0.0000000001
 43
0.0000000001
 40
0.0
 40
0.0
 40
0.0
 40
0.0
 40
1.0
 40
1.0
 40
1.0
 40
2.0
 40
2.0
 40
2.0
 40
2.0
 10
917.2041015625
 20
-523.15625
 30
0.0
 10
927.87109375
 20
-518.26171875
 30
0.0
 10
944.8984375
 20
-520.486328125
 30
0.0
 10
955.12109375
 20
-524.1162109375
 30
0.0
 10
966.697265625
 20
-498.75634765625
 30
0.0
 10
914.1396484375
 20
-505.89453125
 30
0.0
 10
917.2041015625
 20
-523.15625
 30
0.0
  0
SPLINE
  5
5C
330
3C
100
AcDbEntity
  8
Layer 1
370
     0
100
AcDbSpline
210
0.0
220
0.0
230
1.0
 70
    11
 71
     3
 72
    17
 73
    13
 74
     0
 42
0.0000000001
 43
0.0000000001
 40
0.0
 40
0.0
 40
0.0
 40
0.0
 40
1.0
 40
1.0
 40
1.0
 40
2.0
 40
2.0
 40
2.0
 40
3.0
 40
3.0
 40
3.0
 40
4.0
 40
4.0
 40
4.0
 40
4.0
 10
310.5341796875
 20
-576.912109375
 30
0.0
 10
314.79052734375
 20
-574.2138671875
 30
0.0
 10
314.38623046875
 20
-567.755859375
 30
0.0
 10
315.333984375
 20
-562.513671875
 30
0.0
 10
316.263671875
 20
-557.3701171875
 30
0.0
 10
318.001953125
 20
-551.642578125
 30
0.0
 10
318.2138671875
 20
-546.1943359375
 30
0.0
 10
318.59521484375
 20
-536.359375
 30
0.0
 10
315.33935546875
 20
-525.4111328125
 30
0.0
 10
315.333984375
 20
-516.9169921875
 30
0.0
 10
313.67626953125
 20
-536.857421875
 30
0.0
 10
311.91552734375
 20
-556.6953125
 30
0.0
 10
310.5341796875
 20
-576.912109375
 30
0.0
  0
SPLINE
  5
5D
330
3C
100
AcDbEntity
  8
Layer 1
370
     0
100
AcDbSpline
210
0.0
220
0.0
230
1.0
 70
    11
 71
     3
 72
    95
 73
    91
 74
     0
 42
0.0000000001
 43
0.0000000001
 40
0.0
 40
0.0
 40
0.0
 40
0.0
 40
1.0
 40
1.0
 40
1.0
 40
2.0
 40
2.0
 40
2.0
 40
3.0
 40
3.0
 40
3.0
 40
4.0
 40
4.0
 40
4.0
 40
5.0
 40
5.0
 40
5.0
 40
6.0
 40
6.0
 40
6.0
 40
7.0
 40
7.0
 40
7.0
 40
8.0
 40
8.0
 40
8.0
 40
9.0
 40
9.0
 40
9.0
 40
10.0
 40
10.0
 40
10.0
 40
11.0
 40
11.0
 40
11.0
 40
12.0
 40
12.0
 40
12.0
 40
13.0
 40
13.0
 40
13.0
 40
14.0
 40
14.0
 40
14.0
 40
15.0
 40
15.0
 40
15.0
 40
16.0
 40
16.0
 40
16.0
 40
17.0
 40
17.0
 40
17.0
 40
18.0
 40
18.0
 40
18.0
 40
19.0
 40
19.0
 40
19.0
 40
20.0
 40
20.0
 40
20.0
 40
21.0
 40
21.0
 40
21.0
 40
22.0
 40
22.0
 40
22.0
 40
23.0
 40
23.0
 40
23.0
 40
24.0
 40
24.0
 40
24.0
 40
25.0
 40
25.0
 40
25.0
 40
26.0
 40
26.0
 40
26.0
 40
27.0
 40
27.0
 40
27.0
 40
28.0
 40
28.0
 40
28.0
 40
29.0
 40
29.0
 40
29.0
 40
30.0
 40
30.0
 40
30.0
 40
30.0
 10
822.6513671875
 20
-557.2333984375
 30
0.0
 10
822.6005859375
 20
-561.822265625
 30
0.0
 10
822.4501953125
 20
-565.3896484375
 30
0.0
 10
822.171875
 20
-569.232421875
 30
0.0
 10
821.3408203125
 20
-580.705078125
 30
0.0
 10
816.845703125
 20
-596.3974609375
 30
0.0
 10
817.8525390625
 20
-603.7900390625
 30
0.0
 10
818.0478515625
 20
-605.2294921875
 30
0.0
 10
819.3486328125
 20
-606.7529296875
 30
0.0
 10
819.7724609375
 20
-608.109375
 30
0.0
 10
821.8466796875
 20
-614.751953125
 30
0.0
 10
820.0322265625
 20
-622.62890625
 30
0.0
 10
823.1318359375
 20
-629.2275390625
 30
0.0
 10
823.9921875
 20
-630.126953125
 30
0.0
 10
826.078125
 20
-629.8017578125
 30
0.0
 10
826.4912109375
 20
-631.1474609375
 30
0.0
 10
826.4912109375
 20
-635.1474609375
 30
0.0
 10
826.4912109375
 20
-639.146484375
 30
0.0
 10
826.4912109375
 20
-643.146484375
 30
0.0
 10
829.7666015625
 20
-642.3671875
 30
0.0
 10
831.052734375
 20
-647.0400390625
 30
0.0
 10
835.6103515625
 20
-646.5068359375
 30
0.0
 10
843.173828125
 20
-661.8212890625
 30
0.0
 10
859.2412109375
 20
-668.6318359375
 30
0.0
 10
870.6474609375
 20
-680.103515625
 30
0.0
 10
870.513671875
 20
-679.009765625
 30
0.0
 10
870.763671875
 20
-678.2998046875
 30
0.0
 10
871.607421875
 20
-678.18359375
 30
0.0
 10
884.4267578125
 20
-693.0419921875
 30
0.0
 10
906.8349609375
 20
-698.3125
 30
0.0
 10
927.7626953125
 20
-705.0615234375
 30
0.0
 10
928.6318359375
 20
-704.330078125
 30
0.0
 10
927.671875
 20
-701.7705078125
 30
0.0
 10
929.6826171875
 20
-702.181640625
 30
0.0
 10
933.8642578125
 20
-701.8408203125
 30
0.0
 10
935.2998046875
 20
-704.244140625
 30
0.0
 10
938.322265625
 20
-705.0615234375
 30
0.0
 10
944.2744140625
 20
-703.1748046875
 30
0.0
 10
946.0546875
 20
-697.115234375
 30
0.0
 10
953.6806640625
 20
-696.90234375
 30
0.0
 10
956.859375
 20
-694.48046875
 30
0.0
 10
956.955078125
 20
-688.9765625
 30
0.0
 10
958.0009765625
 20
-684.4228515625
 30
0.0
 10
959.3134765625
 20
-684.8701171875
 30
0.0
 10
959.126953125
 20
-686.8173828125
 30
0.0
 10
959.919921875
 20
-687.783203125
 30
0.0
 10
963.83984375
 20
-672.80078125
 30
0.0
 10
959.9140625
 20
-654.9853515625
 30
0.0
 10
949.361328125
 20
-649.8662109375
 30
0.0
 10
949.6962890625
 20
-658.51953125
 30
0.0
 10
941.6416015625
 20
-658.78515625
 30
0.0
 10
940.2421875
 20
-665.705078125
 30
0.0
 10
934.521484375
 20
-666.255859375
 30
0.0
 10
931.443359375
 20
-661.97265625
 30
0.0
 10
927.283203125
 20
-663.78515625
 30
0.0
 10
926.7373046875
 20
-661.611328125
 30
0.0
 10
925.9765625
 20
-659.65234375
 30
0.0
 10
924.8828125
 20
-658.025390625
 30
0.0
 10
923.8330078125
 20
-656.4296875
 30
0.0
 10
922.2998046875
 20
-659.4912109375
 30
0.0
 10
921.5234375
 20
-658.025390625
 30
0.0
 10
915.4404296875
 20
-634.69921875
 30
0.0
 10
937.3779296875
 20
-631.6435546875
 30
0.0
 10
950.80078125
 20
-624.427734375
 30
0.0
 10
956.5849609375
 20
-621.3193359375
 30
0.0
 10
958.572265625
 20
-617.208984375
 30
0.0
 10
966.16015625
 20
-618.1884765625
 30
0.0
 10
964.7275390625
 20
-615.5966796875
 30
0.0
 10
962.9775390625
 20
-611.3876953125
 30
0.0
 10
963.759765625
 20
-608.109375
 30
0.0
 10
938.29296875
 20
-598.6064453125
 30
0.0
 10
932.10546875
 20
-627.6728515625
 30
0.0
 10
916.7236328125
 20
-634.9873046875
 30
0.0
 10
915.169921875
 20
-632.9404296875
 30
0.0
 10
911.943359375
 20
-633.7216796875
 30
0.0
 10
909.044921875
 20
-634.02734375
 30
0.0
 10
907.458984375
 20
-633.693359375
 30
0.0
 10
909.033203125
 20
-630.19921875
 30
0.0
 10
907.125
 20
-630.1875
 30
0.0
 10
887.640625
 20
-630.953125
 30
0.0
 10
883.6630859375
 20
-616.212890625
 30
0.0
 10
873.0478515625
 20
-608.109375
 30
0.0
 10
871.501953125
 20
-608.4833984375
 30
0.0
 10
871.376953125
 20
-610.279296875
 30
0.0
 10
870.6474609375
 20
-611.4697265625
 30
0.0
 10
857.9169921875
 20
-598.853515625
 30
0.0
 10
836.65234375
 20
-584.1171875
 30
0.0
 10
845.689453125
 20
-556.75390625
 30
0.0
 10
838.158203125
 20
-557.0615234375
 30
0.0
 10
829.3876953125
 20
-556.1298828125
 30
0.0
 10
822.6513671875
 20
-557.2333984375
 30
0.0
  0
SPLINE
  5
5E
330
3C
100
AcDbEntity
  8
Layer 1
370
     0
100
AcDbSpline
210
0.0
220
0.0
230
1.0
 70
    11
 71
     3
 72
    59
 73
    55
 74
     0
 42
0.0000000001
 43
0.0000000001
 40
0.0
 40
0.0
 40
0.0
 40
0.0
 40
1.0
 40
1.0
 40
1.0
 40
2.0
 40
2.0
 40
2.0
 40
3.0
 40
3.0
 40
3.0
 40
4.0
 40
4.0
 40
4.0
 40
5.0
 40
5.0
 40
5.0
 40
6.0
 40
6.0
 40
6.0
 40
7.0
 40
7.0
 40
7.0
 40
8.0
 40
8.0
 40
8.0
 40
9.0
 40
9.0
 40
9.0
 40
10.0
 40
10.0
 40
10.0
 40
11.0
 40
11.0
 40
11.0
 40
12.0
 40
12.0
 40
12.0
 40
13.0
 40
13.0
 40
13.0
 40
14.0
 40
14.0
 40
14.0
 40
15.0
 40
15.0
 40
15.0
 40
16.0
 40
16.0
 40
16.0
 40
17.0
 40
17.0
 40
17.0
 40
18.0
 40
18.0
 40
18.0
 40
18.0
 10
155.9873046875
 20
-842.810546875
 30
0.0
 10
225.14208984375
 20
-790.05859375
 30
0.0
 10
286.5126953125
 20
-729.513671875
 30
0.0
 10
332.13232421875
 20
-653.2255859375
 30
0.0
 10
319.36376953125
 20
-654.6953125
 30
0.0
 10
306.9853515625
 20
-656.556640625
 30
0.0
 10
294.6953125
 20
-658.505859375
 30
0.0
 10
293.4306640625
 20
-667.3564453125
 30
0.0
 10
300.59814453125
 20
-671.2802734375
 30
0.0
 10
299.01513671875
 20
-680.103515625
 30
0.0
 10
297.65087890625
 20
-687.70703125
 30
0.0
 10
287.88916015625
 20
-688.966796875
 30
0.0
 10
278.376953125
 20
-689.703125
 30
0.0
 10
268.24951171875
 20
-690.4873046875
 30
0.0
 10
258.767578125
 20
-692.01953125
 30
0.0
 10
251.01904296875
 20
-693.0625
 30
0.0
 10
204.8955078125
 20
-699.271484375
 30
0.0
 10
162.166015625
 20
-705.30859375
 30
0.0
 10
119.990234375
 20
-714.6611328125
 30
0.0
 10
113.037109375
 20
-716.2021484375
 30
0.0
 10
100.734375
 20
-721.841796875
 30
0.0
 10
94.55224609375
 20
-718.0205078125
 30
0.0
 10
90.04541015625
 20
-715.234375
 30
0.0
 10
91.13818359375
 20
-705.0029296875
 30
0.0
 10
89.75244140625
 20
-696.421875
 30
0.0
 10
88.8974609375
 20
-691.12890625
 30
0.0
 10
85.513671875
 20
-684.5
 30
0.0
 10
87.3525390625
 20
-679.1435546875
 30
0.0
 10
89.79248046875
 20
-672.037109375
 30
0.0
 10
104.8095703125
 20
-671.0283203125
 30
0.0
 10
114.71044921875
 20
-669.544921875
 30
0.0
 10
126.794921875
 20
-667.7333984375
 30
0.0
 10
136.4423828125
 20
-665.08203125
 30
0.0
 10
145.90771484375
 20
-663.3046875
 30
0.0
 10
209.84130859375
 20
-651.2998046875
 30
0.0
 10
276.0888671875
 20
-641.3525390625
 30
0.0
 10
343.17138671875
 20
-635.947265625
 30
0.0
 10
345.6708984375
 20
-632.3671875
 30
0.0
 10
348.3095703125
 20
-628.9267578125
 30
0.0
 10
351.3310546875
 20
-625.8681640625
 30
0.0
 10
348.1376953125
 20
-623.1416015625
 30
0.0
 10
347.23583984375
 20
-618.1240234375
 30
0.0
 10
343.6513671875
 20
-615.7890625
 30
0.0
 10
290.86083984375
 20
-625.802734375
 30
0.0
 10
227.80322265625
 20
-619.96484375
 30
0.0
 10
176.62548828125
 20
-612.4296875
 30
0.0
 10
123.25927734375
 20
-604.5712890625
 30
0.0
 10
73.49462890625
 20
-593.4267578125
 30
0.0
 10
33.1171875
 20
-574.5126953125
 30
0.0
 10
33.08984375
 20
-574.2197265625
 30
0.0
 10
33.04541015625
 20
-573.9443359375
 30
0.0
 10
32.63720703125
 20
-574.0322265625
 30
0.0
 10
47.544921875
 20
-689.830078125
 30
0.0
 10
94.38916015625
 20
-773.701171875
 30
0.0
 10
155.9873046875
 20
-842.810546875
 30
0.0
  0
SPLINE
  5
5F
330
3C
100
AcDbEntity
  8
Layer 1
370
     0
100
AcDbSpline
210
0.0
220
0.0
230
1.0
 70
    11
 71
     3
 72
    11
 73
     7
 74
     0
 42
0.0000000001
 43
0.0000000001
 40
0.0
 40
0.0
 40
0.0
 40
0.0
 40
1.0
 40
1.0
 40
1.0
 40
2.0
 40
2.0
 40
2.0
 40
2.0
 10
355.17041015625
 20
-645.546875
 30
0.0
 10
355.734375
 20
-649.09375
 30
0.0
 10
364.2314453125
 20
-650.28515625
 30
0.0
 10
362.85009765625
 20
-643.146484375
 30
0.0
 10
360.04541015625
 20
-640.1005859375
 30
0.0
 10
354.61083984375
 20
-642.0234375
 30
0.0
 10
355.17041015625
 20
-645.546875
 30
0.0
  0
SPLINE
  5
60
330
3C
100
AcDbEntity
  8
Layer 1
370
     0
100
AcDbSpline
210
0.0
220
0.0
230
1.0
 70
    11
 71
     3
 72
    23
 73
    19
 74
     0
 42
0.0000000001
 43
0.0000000001
 40
0.0
 40
0.0
 40
0.0
 40
0.0
 40
1.0
 40
1.0
 40
1.0
 40
2.0
 40
2.0
 40
2.0
 40
3.0
 40
3.0
 40
3.0
 40
4.0
 40
4.0
 40
4.0
 40
5.0
 40
5.0
 40
5.0
 40
6.0
 40
6.0
 40
6.0
 40
6.0
 10
656.10546875
 20
-652.74609375
 30
0.0
 10
655.0966796875
 20
-653.490234375
 30
0.0
 10
641.7119140625
 20
-665.02734375
 30
0.0
 10
641.70703125
 20
-665.705078125
 30
0.0
 10
641.69921875
 20
-666.5751953125
 30
0.0
 10
647.609375
 20
-672.056640625
 30
0.0
 10
649.3857421875
 20
-674.34375
 30
0.0
 10
685.5322265625
 20
-720.880859375
 30
0.0
 10
719.45703125
 20
-772.8994140625
 30
0.0
 10
735.298828125
 20
-836.5703125
 30
0.0
 10
772.2900390625
 20
-841.16796875
 30
0.0
 10
793.927734375
 20
-882.1083984375
 30
0.0
 10
783.294921875
 20
-921.0439453125
 30
0.0
 10
804.5234375
 20
-906.1162109375
 30
0.0
 10
825.6064453125
 20
-891.041015625
 30
0.0
 10
843.76953125
 20
-873.0478515625
 30
0.0
 10
780.8818359375
 20
-799.943359375
 30
0.0
 10
718.978515625
 20
-725.86328125
 30
0.0
 10
656.10546875
 20
-652.74609375
 30
0.0
  0
SPLINE
  5
61
330
3C
100
AcDbEntity
  8
Layer 1
370
     0
100
AcDbSpline
210
0.0
220
0.0
230
1.0
 70
    11
 71
     3
 72
   182
 73
   178
 74
     0
 42
0.0000000001
 43
0.0000000001
 40
0.0
 40
0.0
 40
0.0
 40
0.0
 40
1.0
 40
1.0
 40
1.0
 40
2.0
 40
2.0
 40
2.0
 40
3.0
 40
3.0
 40
3.0
 40
4.0
 40
4.0
 40
4.0
 40
5.0
 40
5.0
 40
5.0
 40
6.0
 40
6.0
 40
6.0
 40
7.0
 40
7.0
 40
7.0
 40
8.0
 40
8.0
 40
8.0
 40
9.0
 40
9.0
 40
9.0
 40
10.0
 40
10.0
 40
10.0
 40
11.0
 40
11.0
 40
11.0
 40
12.0
 40
12.0
 40
12.0
 40
13.0
 40
13.0
 40
13.0
 40
14.0
 40
14.0
 40
14.0
 40
15.0
 40
15.0
 40
15.0
 40
16.0
 40
16.0
 40
16.0
 40
17.0
 40
17.0
 40
17.0
 40
18.0
 40
18.0
 40
18.0
 40
19.0
 40
19.0
 40
19.0
 40
20.0
 40
20.0
 40
20.0
 40
21.0
 40
21.0
 40
21.0
 40
22.0
 40
22.0
 40
22.0
 40
23.0
 40
23.0
 40
23.0
 40
24.0
 40
24.0
 40
24.0
 40
25.0
 40
25.0
 40
25.0
 40
26.0
 40
26.0
 40
26.0
 40
27.0
 40
27.0
 40
27.0
 40
28.0
 40
28.0
 40
28.0
 40
29.0
 40
29.0
 40
29.0
 40
30.0
 40
30.0
 40
30.0
 40
31.0
 40
31.0
 40
31.0
 40
32.0
 40
32.0
 40
32.0
 40
33.0
 40
33.0
 40
33.0
 40
34.0
 40
34.0
 40
34.0
 40
35.0
 40
35.0
 40
35.0
 40
36.0
 40
36.0
 40
36.0
 40
37.0
 40
37.0
 40
37.0
 40
38.0
 40
38.0
 40
38.0
 40
39.0
 40
39.0
 40
39.0
 40
40.0
 40
40.0
 40
40.0
 40
41.0
 40
41.0
 40
41.0
 40
42.0
 40
42.0
 40
42.0
 40
43.0
 40
43.0
 40
43.0
 40
44.0
 40
44.0
 40
44.0
 40
45.0
 40
45.0
 40
45.0
 40
46.0
 40
46.0
 40
46.0
 40
47.0
 40
47.0
 40
47.0
 40
48.0
 40
48.0
 40
48.0
 40
49.0
 40
49.0
 40
49.0
 40
50.0
 40
50.0
 40
50.0
 40
51.0
 40
51.0
 40
51.0
 40
52.0
 40
52.0
 40
52.0
 40
53.0
 40
53.0
 40
53.0
 40
54.0
 40
54.0
 40
54.0
 40
55.0
 40
55.0
 40
55.0
 40
56.0
 40
56.0
 40
56.0
 40
57.0
 40
57.0
 40
57.0
 40
58.0
 40
58.0
 40
58.0
 40
59.0
 40
59.0
 40
59.0
 40
59.0
 10
372.44921875
 20
-652.74609375
 30
0.0
 10
372.443359375
 20
-653.3798828125
 30
0.0
 10
371.60791015625
 20
-653.1845703125
 30
0.0
 10
371.4892578125
 20
-653.7060546875
 30
0.0
 10
349.18896484375
 20
-698.0947265625
 30
0.0
 10
319.55712890625
 20
-736.455078125
 30
0.0
 10
288.4560546875
 20
-772.736328125
 30
0.0
 10
257.31201171875
 20
-809.06640625
 30
0.0
 10
223.95654296875
 20
-843.8291015625
 30
0.0
 10
186.224609375
 20
-872.5673828125
 30
0.0
 10
208.0703125
 20
-893.9189453125
 30
0.0
 10
233.00048828125
 20
-912.1845703125
 30
0.0
 10
259.65869140625
 20
-928.72265625
 30
0.0
 10
260.5458984375
 20
-927.6904296875
 30
0.0
 10
260.234375
 20
-925.458984375
 30
0.0
 10
262.5380859375
 20
-925.84375
 30
0.0
 10
272.578125
 20
-929.439453125
 30
0.0
 10
283.15185546875
 20
-932.3232421875
 30
0.0
 10
293.73583984375
 20
-935.4423828125
 30
0.0
 10
304.00537109375
 20
-938.46875
 30
0.0
 10
314.7568359375
 20
-943.5546875
 30
0.0
 10
325.89306640625
 20
-942.162109375
 30
0.0
 10
307.67724609375
 20
-932.0595703125
 30
0.0
 10
286.20263671875
 20
-925.216796875
 30
0.0
 10
266.85791015625
 20
-916.244140625
 30
0.0
 10
266.9462890625
 20
-913.7724609375
 30
0.0
 10
267.9677734375
 20
-912.234375
 30
0.0
 10
268.77783203125
 20
-910.484375
 30
0.0
 10
286.046875
 20
-914.8564453125
 30
0.0
 10
302.728515625
 20
-921.78125
 30
0.0
 10
318.693359375
 20
-926.802734375
 30
0.0
 10
324.19384765625
 20
-928.533203125
 30
0.0
 10
330.03955078125
 20
-931.3310546875
 30
0.0
 10
335.97216796875
 20
-930.1630859375
 30
0.0
 10
334.12548828125
 20
-924.3876953125
 30
0.0
 10
326.68017578125
 20
-923.296875
 30
0.0
 10
321.09326171875
 20
-921.0439453125
 30
0.0
 10
309.0751953125
 20
-916.1953125
 30
0.0
 10
298.61328125
 20
-911.572265625
 30
0.0
 10
286.5361328125
 20
-906.64453125
 30
0.0
 10
282.453125
 20
-904.978515625
 30
0.0
 10
270.82373046875
 20
-903.22265625
 30
0.0
 10
275.97705078125
 20
-895.60546875
 30
0.0
 10
293.255859375
 20
-900.294921875
 30
0.0
 10
310.98291015625
 20
-906.9775390625
 30
0.0
 10
327.3330078125
 20
-912.884765625
 30
0.0
 10
332.09375
 20
-914.6044921875
 30
0.0
 10
340.0673828125
 20
-919.39453125
 30
0.0
 10
344.13134765625
 20
-913.3642578125
 30
0.0
 10
323.91455078125
 20
-903.34375
 30
0.0
 10
301.4873046875
 20
-895.533203125
 30
0.0
 10
280.77685546875
 20
-886.0068359375
 30
0.0
 10
281.37841796875
 20
-884.3681640625
 30
0.0
 10
281.80810546875
 20
-882.55859375
 30
0.0
 10
282.69677734375
 20
-881.20703125
 30
0.0
 10
307.0537109375
 20
-885.8076171875
 30
0.0
 10
326.013671875
 20
-895.8046875
 30
0.0
 10
349.4111328125
 20
-901.365234375
 30
0.0
 10
349.939453125
 20
-899.8134765625
 30
0.0
 10
350.70654296875
 20
-898.5009765625
 30
0.0
 10
351.3310546875
 20
-897.0458984375
 30
0.0
 10
330.9267578125
 20
-886.0927734375
 30
0.0
 10
306.06103515625
 20
-879.6005859375
 30
0.0
 10
286.5361328125
 20
-867.767578125
 30
0.0
 10
287.39990234375
 20
-866.392578125
 30
0.0
 10
287.80126953125
 20
-864.552734375
 30
0.0
 10
288.93603515625
 20
-863.4482421875
 30
0.0
 10
311.8369140625
 20
-870.3046875
 30
0.0
 10
333.1884765625
 20
-878.7109375
 30
0.0
 10
355.650390625
 20
-886.0068359375
 30
0.0
 10
356.37939453125
 20
-884.3359375
 30
0.0
 10
357.47314453125
 20
-883.029296875
 30
0.0
 10
357.5703125
 20
-880.7265625
 30
0.0
 10
341.9912109375
 20
-872.7158203125
 30
0.0
 10
323.01513671875
 20
-864.8310546875
 30
0.0
 10
305.73486328125
 20
-857.6884765625
 30
0.0
 10
301.8408203125
 20
-856.080078125
 30
0.0
 10
288.818359375
 20
-853.7724609375
 30
0.0
 10
295.17578125
 20
-846.6494140625
 30
0.0
 10
318.0263671875
 20
-853.716796875
 30
0.0
 10
339.85595703125
 20
-861.8046875
 30
0.0
 10
362.3701171875
 20
-869.2080078125
 30
0.0
 10
362.787109375
 20
-867.2255859375
 30
0.0
 10
363.87255859375
 20
-865.9111328125
 30
0.0
 10
364.2900390625
 20
-863.9287109375
 30
0.0
 10
343.38671875
 20
-853.474609375
 30
0.0
 10
319.29345703125
 20
-846.2099609375
 30
0.0
 10
299.01513671875
 20
-835.130859375
 30
0.0
 10
300.49169921875
 20
-834.3671875
 30
0.0
 10
299.7373046875
 20
-831.373046875
 30
0.0
 10
301.4150390625
 20
-830.8115234375
 30
0.0
 10
325.248046875
 20
-836.7353515625
 30
0.0
 10
345.18896484375
 20
-846.552734375
 30
0.0
 10
368.12939453125
 20
-853.369140625
 30
0.0
 10
368.81494140625
 20
-851.814453125
 30
0.0
 10
369.3369140625
 20
-850.0966796875
 30
0.0
 10
369.5693359375
 20
-848.08984375
 30
0.0
 10
349.55712890625
 20
-837.0654296875
 30
0.0
 10
324.986328125
 20
-830.59765625
 30
0.0
 10
305.2548828125
 20
-819.2919921875
 30
0.0
 10
306.1396484375
 20
-818.0966796875
 30
0.0
 10
306.412109375
 20
-816.2900390625
 30
0.0
 10
307.17431640625
 20
-814.97265625
 30
0.0
 10
330.751953125
 20
-820.6728515625
 30
0.0
 10
351.38916015625
 20
-829.3125
 30
0.0
 10
373.4091796875
 20
-836.5703125
 30
0.0
 10
375.0625
 20
-835.0244140625
 30
0.0
 10
375.5712890625
 20
-832.3330078125
 30
0.0
 10
375.80859375
 20
-829.37109375
 30
0.0
 10
355.1728515625
 20
-819.44921875
 30
0.0
 10
331.8681640625
 20
-812.197265625
 30
0.0
 10
311.97412109375
 20
-801.533203125
 30
0.0
 10
313.4384765625
 20
-800.4384765625
 30
0.0
 10
312.94921875
 20
-797.388671875
 30
0.0
 10
314.3740234375
 20
-796.25390625
 30
0.0
 10
336.4501953125
 20
-803.1357421875
 30
0.0
 10
357.45751953125
 20
-811.0849609375
 30
0.0
 10
380.12841796875
 20
-817.3720703125
 30
0.0
 10
380.4248046875
 20
-815.5888671875
 30
0.0
 10
381.27197265625
 20
-814.3564453125
 30
0.0
 10
381.568359375
 20
-812.572265625
 30
0.0
 10
362.21875
 20
-801.205078125
 30
0.0
 10
337.19140625
 20
-795.5146484375
 30
0.0
 10
318.2138671875
 20
-783.775390625
 30
0.0
 10
320.25244140625
 20
-783.4140625
 30
0.0
 10
319.35009765625
 20
-780.1123046875
 30
0.0
 10
321.09326171875
 20
-779.455078125
 30
0.0
 10
337.41943359375
 20
-784.1201171875
 30
0.0
 10
353.8037109375
 20
-790.1328125
 30
0.0
 10
369.5693359375
 20
-795.2939453125
 30
0.0
 10
374.7548828125
 20
-796.9921875
 30
0.0
 10
380.20654296875
 20
-799.5029296875
 30
0.0
 10
385.408203125
 20
-799.1337890625
 30
0.0
 10
388.37158203125
 20
-795.5810546875
 30
0.0
 10
383.54736328125
 20
-793.828125
 30
0.0
 10
381.568359375
 20
-792.89453125
 30
0.0
 10
361.93798828125
 20
-783.6337890625
 30
0.0
 10
339.4814453125
 20
-776.7578125
 30
0.0
 10
322.05322265625
 20
-766.9765625
 30
0.0
 10
322.93798828125
 20
-765.78125
 30
0.0
 10
323.2109375
 20
-763.974609375
 30
0.0
 10
323.97314453125
 20
-762.65625
 30
0.0
 10
347.68896484375
 20
-767.1005859375
 30
0.0
 10
367.837890625
 20
-777.6640625
 30
0.0
 10
390.20751953125
 20
-781.85546875
 30
0.0
 10
390.07958984375
 20
-780.126953125
 30
0.0
 10
391.09423828125
 20
-779.5419921875
 30
0.0
 10
391.16748046875
 20
-778.015625
 30
0.0
 10
371.2724609375
 20
-766.8740234375
 30
0.0
 10
346.8310546875
 20
-760.27734375
 30
0.0
 10
326.85302734375
 20
-749.2177734375
 30
0.0
 10
327.57958984375
 20
-747.544921875
 30
0.0
 10
327.7294921875
 20
-745.294921875
 30
0.0
 10
329.2529296875
 20
-744.41796875
 30
0.0
 10
345.671875
 20
-748.6484375
 30
0.0
 10
362.26025390625
 20
-755.296875
 30
0.0
 10
377.24853515625
 20
-760.2568359375
 30
0.0
 10
382.48779296875
 20
-761.9912109375
 30
0.0
 10
387.92822265625
 20
-764.28515625
 30
0.0
 10
393.08740234375
 20
-764.0966796875
 30
0.0
 10
394.18115234375
 20
-757.2392578125
 30
0.0
 10
385.5185546875
 20
-755.9326171875
 30
0.0
 10
381.08837890625
 20
-754.017578125
 30
0.0
 10
364.826171875
 20
-746.98828125
 30
0.0
 10
347.4443359375
 20
-739.1943359375
 30
0.0
 10
332.6123046875
 20
-731.939453125
 30
0.0
 10
333.1337890625
 20
-730.220703125
 30
0.0
 10
333.361328125
 20
-728.208984375
 30
0.0
 10
334.05224609375
 20
-726.66015625
 30
0.0
 10
358.55859375
 20
-726.2783203125
 30
0.0
 10
379.9970703125
 20
-727.0625
 30
0.0
 10
392.607421875
 20
-715.140625
 30
0.0
 10
401.41455078125
 20
-706.814453125
 30
0.0
 10
403.462890625
 20
-694.4697265625
 30
0.0
 10
407.00634765625
 20
-680.103515625
 30
0.0
 10
394.22802734375
 20
-672.244140625
 30
0.0
 10
383.841796875
 20
-661.9912109375
 30
0.0
 10
372.44921875
 20
-652.74609375
 30
0.0
  0
SPLINE
  5
62
330
3C
100
AcDbEntity
  8
Layer 1
370
     0
100
AcDbSpline
210
0.0
220
0.0
230
1.0
 70
    11
 71
     3
 72
    20
 73
    16
 74
     0
 42
0.0000000001
 43
0.0000000001
 40
0.0
 40
0.0
 40
0.0
 40
0.0
 40
1.0
 40
1.0
 40
1.0
 40
2.0
 40
2.0
 40
2.0
 40
3.0
 40
3.0
 40
3.0
 40
4.0
 40
4.0
 40
4.0
 40
5.0
 40
5.0
 40
5.0
 40
5.0
 10
260.6181640625
 20
-666.6650390625
 30
0.0
 10
212.28955078125
 20
-674.42578125
 30
0.0
 10
163.7138671875
 20
-682.494140625
 30
0.0
 10
116.63037109375
 20
-690.1826171875
 30
0.0
 10
109.01171875
 20
-691.4267578125
 30
0.0
 10
100.48095703125
 20
-691.5361328125
 30
0.0
 10
93.59228515625
 20
-695.4619140625
 30
0.0
 10
142.36376953125
 20
-689.15625
 30
0.0
 10
192.60205078125
 20
-680.056640625
 30
0.0
 10
240.93994140625
 20
-671.9443359375
 30
0.0
 10
257.23828125
 20
-669.208984375
 30
0.0
 10
274.01171875
 20
-667.947265625
 30
0.0
 10
289.416015625
 20
-662.8251953125
 30
0.0
 10
279.14990234375
 20
-662.09765625
 30
0.0
 10
270.4423828125
 20
-665.0869140625
 30
0.0
 10
260.6181640625
 20
-666.6650390625
 30
0.0
  0
SPLINE
  5
63
330
3C
100
AcDbEntity
  8
Layer 1
370
     0
100
AcDbSpline
210
0.0
220
0.0
230
1.0
 70
    11
 71
     3
 72
    41
 73
    37
 74
     0
 42
0.0000000001
 43
0.0000000001
 40
0.0
 40
0.0
 40
0.0
 40
0.0
 40
1.0
 40
1.0
 40
1.0
 40
2.0
 40
2.0
 40
2.0
 40
3.0
 40
3.0
 40
3.0
 40
4.0
 40
4.0
 40
4.0
 40
5.0
 40
5.0
 40
5.0
 40
6.0
 40
6.0
 40
6.0
 40
7.0
 40
7.0
 40
7.0
 40
8.0
 40
8.0
 40
8.0
 40
9.0
 40
9.0
 40
9.0
 40
10.0
 40
10.0
 40
10.0
 40
11.0
 40
11.0
 40
11.0
 40
12.0
 40
12.0
 40
12.0
 40
12.0
 10
727.6201171875
 20
-929.6826171875
 30
0.0
 10
710.234375
 20
-925.310546875
 30
0.0
 10
691.9287109375
 20
-923.1611328125
 30
0.0
 10
682.9833984375
 20
-910.0048828125
 30
0.0
 10
673.888671875
 20
-896.62890625
 30
0.0
 10
675.83984375
 20
-873.39453125
 30
0.0
 10
684.4228515625
 20
-859.6083984375
 30
0.0
 10
652.0087890625
 20
-810.271484375
 30
0.0
 10
624.9912109375
 20
-755.533203125
 30
0.0
 10
613.388671875
 20
-685.3828125
 30
0.0
 10
599.05859375
 20
-693.451171875
 30
0.0
 10
583.1064453125
 20
-699.896484375
 30
0.0
 10
565.873046875
 20
-705.0615234375
 30
0.0
 10
555.7265625
 20
-749.9658203125
 30
0.0
 10
581.44140625
 20
-781.123046875
 30
0.0
 10
611.94921875
 20
-795.2939453125
 30
0.0
 10
622.78515625
 20
-800.3271484375
 30
0.0
 10
640.5869140625
 20
-801.2841796875
 30
0.0
 10
645.06640625
 20
-809.693359375
 30
0.0
 10
647.58203125
 20
-814.4150390625
 30
0.0
 10
646.259765625
 20
-822.900390625
 30
0.0
 10
646.0263671875
 20
-831.291015625
 30
0.0
 10
644.5869140625
 20
-883.03125
 30
0.0
 10
645.1826171875
 20
-937.275390625
 30
0.0
 10
642.1865234375
 20
-984.3984375
 30
0.0
 10
682.0283203125
 20
-973.8447265625
 30
0.0
 10
717.7763671875
 20
-959.1962890625
 30
0.0
 10
749.6982421875
 20
-940.7216796875
 30
0.0
 10
744.5361328125
 20
-936.1240234375
 30
0.0
 10
736.53125
 20
-934.3701171875
 30
0.0
 10
731.458984375
 20
-929.6826171875
 30
0.0
 10
730.52734375
 20
-918.775390625
 30
0.0
 10
726.3291015625
 20
-908.576171875
 30
0.0
 10
720.900390625
 20
-903.7646484375
 30
0.0
 10
724.5732421875
 20
-910.970703125
 30
0.0
 10
727.3623046875
 20
-919.0615234375
 30
0.0
 10
727.6201171875
 20
-929.6826171875
 30
0.0
  0
SPLINE
  5
64
330
3C
100
AcDbEntity
  8
Layer 1
370
     0
100
AcDbSpline
210
0.0
220
0.0
230
1.0
 70
    11
 71
     3
 72
    38
 73
    34
 74
     0
 42
0.0000000001
 43
0.0000000001
 40
0.0
 40
0.0
 40
0.0
 40
0.0
 40
1.0
 40
1.0
 40
1.0
 40
2.0
 40
2.0
 40
2.0
 40
3.0
 40
3.0
 40
3.0
 40
4.0
 40
4.0
 40
4.0
 40
5.0
 40
5.0
 40
5.0
 40
6.0
 40
6.0
 40
6.0
 40
7.0
 40
7.0
 40
7.0
 40
8.0
 40
8.0
 40
8.0
 40
9.0
 40
9.0
 40
9.0
 40
10.0
 40
10.0
 40
10.0
 40
11.0
 40
11.0
 40
11.0
 40
11.0
 10
429.564453125
 20
-772.255859375
 30
0.0
 10
414.6513671875
 20
-830.7294921875
 30
0.0
 10
396.95556640625
 20
-886.775390625
 30
0.0
 10
370.04931640625
 20
-933.5224609375
 30
0.0
 10
361.52001953125
 20
-948.3408203125
 30
0.0
 10
353.4189453125
 20
-964.416015625
 30
0.0
 10
334.05224609375
 20
-966.6396484375
 30
0.0
 10
368.4853515625
 20
-979.5625
 30
0.0
 10
405.9267578125
 20
-992.037109375
 30
0.0
 10
447.802734375
 20
-995.9169921875
 30
0.0
 10
443.6572265625
 20
-967.4560546875
 30
0.0
 10
441.76318359375
 20
-937.564453125
 30
0.0
 10
438.68359375
 20
-906.64453125
 30
0.0
 10
436.50341796875
 20
-884.75390625
 30
0.0
 10
435.9208984375
 20
-861.328125
 30
0.0
 10
433.404296875
 20
-838.490234375
 30
0.0
 10
432.583984375
 20
-831.0498046875
 30
0.0
 10
430.2998046875
 20
-821.7119140625
 30
0.0
 10
432.4443359375
 20
-816.412109375
 30
0.0
 10
435.5263671875
 20
-808.7958984375
 30
0.0
 10
448.84375
 20
-807.0576171875
 30
0.0
 10
457.8818359375
 20
-803.453125
 30
0.0
 10
467.4619140625
 20
-799.6328125
 30
0.0
 10
475.40869140625
 20
-792.9287109375
 30
0.0
 10
480.919921875
 20
-788.0947265625
 30
0.0
 10
499.087890625
 20
-772.16015625
 30
0.0
 10
515.626953125
 20
-745.0478515625
 30
0.0
 10
505.3984375
 20
-711.30078125
 30
0.0
 10
483.3154296875
 20
-710.505859375
 30
0.0
 10
465.12890625
 20
-705.814453125
 30
0.0
 10
447.802734375
 20
-700.26171875
 30
0.0
 10
440.0029296875
 20
-722.712890625
 30
0.0
 10
435.900390625
 20
-747.412109375
 30
0.0
 10
429.564453125
 20
-772.255859375
 30
0.0
  0
SPLINE
  5
65
330
3C
100
AcDbEntity
  8
Layer 1
370
     0
100
AcDbSpline
210
0.0
220
0.0
230
1.0
 70
    11
 71
     3
 72
    20
 73
    16
 74
     0
 42
0.0000000001
 43
0.0000000001
 40
0.0
 40
0.0
 40
0.0
 40
0.0
 40
1.0
 40
1.0
 40
1.0
 40
2.0
 40
2.0
 40
2.0
 40
3.0
 40
3.0
 40
3.0
 40
4.0
 40
4.0
 40
4.0
 40
5.0
 40
5.0
 40
5.0
 40
5.0
 10
692.5830078125
 20
-851.44921875
 30
0.0
 10
696.1845703125
 20
-851.5625
 30
0.0
 10
699.193359375
 20
-855.04296875
 30
0.0
 10
703.1416015625
 20
-854.8095703125
 30
0.0
 10
704.99609375
 20
-854.69921875
 30
0.0
 10
708.6416015625
 20
-852.36328125
 30
0.0
 10
711.30078125
 20
-850.9697265625
 30
0.0
 10
713.451171875
 20
-849.841796875
 30
0.0
 10
718.2138671875
 20
-848.1748046875
 30
0.0
 10
719.4599609375
 20
-846.6494140625
 30
0.0
 10
721.869140625
 20
-843.7041015625
 30
0.0
 10
721.1181640625
 20
-838.73046875
 30
0.0
 10
721.8603515625
 20
-835.6103515625
 30
0.0
 10
711.4755859375
 20
-840.2646484375
 30
0.0
 10
700.912109375
 20
-844.740234375
 30
0.0
 10
692.5830078125
 20
-851.44921875
 30
0.0
  0
SPLINE
  5
66
330
3C
100
AcDbEntity
  8
Layer 1
370
     0
100
AcDbSpline
210
0.0
220
0.0
230
1.0
 70
    11
 71
     3
 72
    11
 73
     7
 74
     0
 42
0.0000000001
 43
0.0000000001
 40
0.0
 40
0.0
 40
0.0
 40
0.0
 40
1.0
 40
1.0
 40
1.0
 40
2.0
 40
2.0
 40
2.0
 40
2.0
 10
173.265625
 20
-856.2490234375
 30
0.0
 10
173.5869140625
 20
-860.9248046875
 30
0.0
 10
183.01904296875
 20
-860.6865234375
 30
0.0
 10
179.98486328125
 20
-853.369140625
 30
0.0
 10
176.81982421875
 20
-850.8642578125
 30
0.0
 10
173.0888671875
 20
-853.6767578125
 30
0.0
 10
173.265625
 20
-856.2490234375
 30
0.0
  0
SPLINE
  5
67
330
3C
100
AcDbEntity
  8
Layer 1
370
     0
100
AcDbSpline
210
0.0
220
0.0
230
1.0
 70
    11
 71
     3
 72
    20
 73
    16
 74
     0
 42
0.0000000001
 43
0.0000000001
 40
0.0
 40
0.0
 40
0.0
 40
0.0
 40
1.0
 40
1.0
 40
1.0
 40
2.0
 40
2.0
 40
2.0
 40
3.0
 40
3.0
 40
3.0
 40
4.0
 40
4.0
 40
4.0
 40
5.0
 40
5.0
 40
5.0
 40
5.0
 10
627.3076171875
 20
-882.1669921875
 30
0.0
 10
626.58984375
 20
-915.396484375
 30
0.0
 10
626.44921875
 20
-955.16015625
 30
0.0
 10
626.828125
 20
-988.7177734375
 30
0.0
 10
629.1064453125
 20
-987.4765625
 30
0.0
 10
632.548828125
 20
-987.3994140625
 30
0.0
 10
634.9873046875
 20
-986.318359375
 30
0.0
 10
633.79296875
 20
-952.7548828125
 30
0.0
 10
634.892578125
 20
-917.5078125
 30
0.0
 10
631.6279296875
 20
-886.486328125
 30
0.0
 10
631.4794921875
 20
-885.08203125
 30
0.0
 10
631.9560546875
 20
-881.705078125
 30
0.0
 10
629.7080078125
 20
-881.20703125
 30
0.0
 10
628.513671875
 20
-881.1328125
 30
0.0
 10
628.2216796875
 20
-881.9609375
 30
0.0
 10
627.3076171875
 20
-882.1669921875
 30
0.0
  0
SPLINE
  5
68
330
3C
100
AcDbEntity
  8
Layer 1
370
     0
100
AcDbSpline
210
0.0
220
0.0
230
1.0
 70
    11
 71
     3
 72
    20
 73
    16
 74
     0
 42
0.0000000001
 43
0.0000000001
 40
0.0
 40
0.0
 40
0.0
 40
0.0
 40
1.0
 40
1.0
 40
1.0
 40
2.0
 40
2.0
 40
2.0
 40
3.0
 40
3.0
 40
3.0
 40
4.0
 40
4.0
 40
4.0
 40
5.0
 40
5.0
 40
5.0
 40
5.0
 10
609.0693359375
 20
-883.126953125
 30
0.0
 10
608.9521484375
 20
-917.6435546875
 30
0.0
 10
609.154296875
 20
-955.994140625
 30
0.0
 10
609.0693359375
 20
-992.078125
 30
0.0
 10
612.6416015625
 20
-991.810546875
 30
0.0
 10
615.75390625
 20
-991.0830078125
 30
0.0
 10
618.6689453125
 20
-990.158203125
 30
0.0
 10
616.3759765625
 20
-966.45703125
 30
0.0
 10
615.5908203125
 20
-934.4912109375
 30
0.0
 10
614.8291015625
 20
-907.125
 30
0.0
 10
614.6396484375
 20
-900.3310546875
 30
0.0
 10
617.1923828125
 20
-880.6025390625
 30
0.0
 10
610.509765625
 20
-881.6865234375
 30
0.0
 10
609.818359375
 20
-881.955078125
 30
0.0
 10
609.337890625
 20
-882.435546875
 30
0.0
 10
609.0693359375
 20
-883.126953125
 30
0.0
  0
SPLINE
  5
69
330
3C
100
AcDbEntity
  8
Layer 1
370
     0
100
AcDbSpline
210
0.0
220
0.0
230
1.0
 70
    11
 71
     3
 72
    23
 73
    19
 74
     0
 42
0.0000000001
 43
0.0000000001
 40
0.0
 40
0.0
 40
0.0
 40
0.0
 40
1.0
 40
1.0
 40
1.0
 40
2.0
 40
2.0
 40
2.0
 40
3.0
 40
3.0
 40
3.0
 40
4.0
 40
4.0
 40
4.0
 40
5.0
 40
5.0
 40
5.0
 40
6.0
 40
6.0
 40
6.0
 40
6.0
 10
592.2705078125
 20
-883.6064453125
 30
0.0
 10
591.494140625
 20
-884.4970703125
 30
0.0
 10
590.9384765625
 20
-887.3408203125
 30
0.0
 10
590.8310546875
 20
-888.88671875
 30
0.0
 10
588.6328125
 20
-920.53515625
 30
0.0
 10
594.275390625
 20
-962.0732421875
 30
0.0
 10
591.791015625
 20
-995.4375
 30
0.0
 10
594.9140625
 20
-994.880859375
 30
0.0
 10
597.8017578125
 20
-994.0888671875
 30
0.0
 10
601.390625
 20
-993.998046875
 30
0.0
 10
600.8115234375
 20
-966.5625
 30
0.0
 10
598.5732421875
 20
-935.740234375
 30
0.0
 10
597.55078125
 20
-906.1650390625
 30
0.0
 10
597.30859375
 20
-899.18359375
 30
0.0
 10
599.599609375
 20
-881.5625
 30
0.0
 10
593.7109375
 20
-882.1669921875
 30
0.0
 10
593.01953125
 20
-882.435546875
 30
0.0
 10
592.5390625
 20
-882.916015625
 30
0.0
 10
592.2705078125
 20
-883.6064453125
 30
0.0
  0
SPLINE
  5
6A
330
3C
100
AcDbEntity
  8
Layer 1
370
     0
100
AcDbSpline
210
0.0
220
0.0
230
1.0
 70
    11
 71
     3
 72
    20
 73
    16
 74
     0
 42
0.0000000001
 43
0.0000000001
 40
0.0
 40
0.0
 40
0.0
 40
0.0
 40
1.0
 40
1.0
 40
1.0
 40
2.0
 40
2.0
 40
2.0
 40
3.0
 40
3.0
 40
3.0
 40
4.0
 40
4.0
 40
4.0
 40
5.0
 40
5.0
 40
5.0
 40
5.0
 10
574.0322265625
 20
-898.4853515625
 30
0.0
 10
574.4248046875
 20
-928.1025390625
 30
0.0
 10
572.580078125
 20
-969.5244140625
 30
0.0
 10
574.9921875
 20
-997.8369140625
 30
0.0
 10
577.7109375
 20
-997.03515625
 30
0.0
 10
581.3388671875
 20
-997.14453125
 30
0.0
 10
584.111328125
 20
-996.3974609375
 30
0.0
 10
582.673828125
 20
-967.029296875
 30
0.0
 10
580.544921875
 20
-925.3330078125
 30
0.0
 10
579.3115234375
 20
-896.0859375
 30
0.0
 10
579.080078125
 20
-890.583984375
 30
0.0
 10
580.78515625
 20
-882.201171875
 30
0.0
 10
575.47265625
 20
-882.646484375
 30
0.0
 10
571.0791015625
 20
-885.7392578125
 30
0.0
 10
573.9541015625
 20
-892.580078125
 30
0.0
 10
574.0322265625
 20
-898.4853515625
 30
0.0
  0
SPLINE
  5
6B
330
3C
100
AcDbEntity
  8
Layer 1
370
     0
100
AcDbSpline
210
0.0
220
0.0
230
1.0
 70
    11
 71
     3
 72
    17
 73
    13
 74
     0
 42
0.0000000001
 43
0.0000000001
 40
0.0
 40
0.0
 40
0.0
 40
0.0
 40
1.0
 40
1.0
 40
1.0
 40
2.0
 40
2.0
 40
2.0
 40
3.0
 40
3.0
 40
3.0
 40
4.0
 40
4.0
 40
4.0
 40
4.0
 10
562.033203125
 20
-896.0859375
 30
0.0
 10
562.0
 20
-889.966796875
 30
0.0
 10
562.267578125
 20
-879.6748046875
 30
0.0
 10
556.75390625
 20
-884.0869140625
 30
0.0
 10
555.357421875
 20
-920.3740234375
 30
0.0
 10
557.5908203125
 20
-961.3125
 30
0.0
 10
557.7138671875
 20
-999.27734375
 30
0.0
 10
561.443359375
 20
-999.646484375
 30
0.0
 10
563.697265625
 20
-998.5419921875
 30
0.0
 10
567.3125
 20
-998.796875
 30
0.0
 10
567.6279296875
 20
-966.0185546875
 30
0.0
 10
562.2177734375
 20
-930.3623046875
 30
0.0
 10
562.033203125
 20
-896.0859375
 30
0.0
  0
SPLINE
  5
6C
330
3C
100
AcDbEntity
  8
Layer 1
370
     0
100
AcDbSpline
210
0.0
220
0.0
230
1.0
 70
    11
 71
     3
 72
    17
 73
    13
 74
     0
 42
0.0000000001
 43
0.0000000001
 40
0.0
 40
0.0
 40
0.0
 40
0.0
 40
1.0
 40
1.0
 40
1.0
 40
2.0
 40
2.0
 40
2.0
 40
3.0
 40
3.0
 40
3.0
 40
4.0
 40
4.0
 40
4.0
 40
4.0
 10
544.2744140625
 20
-900.8857421875
 30
0.0
 10
544.0419921875
 20
-895.349609375
 30
0.0
 10
545.4755859375
 20
-879.3193359375
 30
0.0
 10
538.9951171875
 20
-885.5263671875
 30
0.0
 10
537.8603515625
 20
-921.3271484375
 30
0.0
 10
540.87890625
 20
-964.3486328125
 30
0.0
 10
540.435546875
 20
-1000.716796875
 30
0.0
 10
543.9384765625
 20
-1000.8603515625
 30
0.0
 10
546.3046875
 20
-999.8671875
 30
0.0
 10
550.0341796875
 20
-1000.2373046875
 30
0.0
 10
548.7978515625
 20
-971.11328125
 30
0.0
 10
545.4833984375
 20
-929.556640625
 30
0.0
 10
544.2744140625
 20
-900.8857421875
 30
0.0
  0
SPLINE
  5
6D
330
3C
100
AcDbEntity
  8
Layer 1
370
     0
100
AcDbSpline
210
0.0
220
0.0
230
1.0
 70
    11
 71
     3
 72
    17
 73
    13
 74
     0
 42
0.0000000001
 43
0.0000000001
 40
0.0
 40
0.0
 40
0.0
 40
0.0
 40
1.0
 40
1.0
 40
1.0
 40
2.0
 40
2.0
 40
2.0
 40
3.0
 40
3.0
 40
3.0
 40
4.0
 40
4.0
 40
4.0
 40
4.0
 10
526.5166015625
 20
-897.0458984375
 30
0.0
 10
526.125
 20
-892.5732421875
 30
0.0
 10
526.552734375
 20
-879.5615234375
 30
0.0
 10
520.7568359375
 20
-886.0068359375
 30
0.0
 10
522.337890625
 20
-923.78125
 30
0.0
 10
522.1708984375
 20
-963.3056640625
 30
0.0
 10
523.63671875
 20
-1001.197265625
 30
0.0
 10
526.8359375
 20
-1001.197265625
 30
0.0
 10
530.0361328125
 20
-1001.197265625
 30
0.0
 10
533.2353515625
 20
-1001.197265625
 30
0.0
 10
531.888671875
 20
-967.4326171875
 30
0.0
 10
529.5546875
 20
-931.724609375
 30
0.0
 10
526.5166015625
 20
-897.0458984375
 30
0.0
  0
SPLINE
  5
6E
330
3C
100
AcDbEntity
  8
Layer 1
370
     0
100
AcDbSpline
210
0.0
220
0.0
230
1.0
 70
    11
 71
     3
 72
    20
 73
    16
 74
     0
 42
0.0000000001
 43
0.0000000001
 40
0.0
 40
0.0
 40
0.0
 40
0.0
 40
1.0
 40
1.0
 40
1.0
 40
2.0
 40
2.0
 40
2.0
 40
3.0
 40
3.0
 40
3.0
 40
4.0
 40
4.0
 40
4.0
 40
5.0
 40
5.0
 40
5.0
 40
5.0
 10
512.59765625
 20
-949.8408203125
 30
0.0
 10
511.251953125
 20
-931.6455078125
 30
0.0
 10
508.78515625
 20
-913.083984375
 30
0.0
 10
508.7578125
 20
-898.005859375
 30
0.0
 10
508.748046875
 20
-892.8203125
 30
0.0
 10
510.0888671875
 20
-881.572265625
 30
0.0
 10
503.478515625
 20
-886.0068359375
 30
0.0
 10
502.9638671875
 20
-922.2431640625
 30
0.0
 10
506.30078125
 20
-962.82421875
 30
0.0
 10
506.837890625
 20
-1001.197265625
 30
0.0
 10
510.0380859375
 20
-1001.197265625
 30
0.0
 10
513.2373046875
 20
-1001.197265625
 30
0.0
 10
516.4375
 20
-1001.197265625
 30
0.0
 10
515.216796875
 20
-985.9931640625
 30
0.0
 10
513.9453125
 20
-968.0703125
 30
0.0
 10
512.59765625
 20
-949.8408203125
 30
0.0
  0
SPLINE
  5
6F
330
3C
100
AcDbEntity
  8
Layer 1
370
     0
100
AcDbSpline
210
0.0
220
0.0
230
1.0
 70
    11
 71
     3
 72
    20
 73
    16
 74
     0
 42
0.0000000001
 43
0.0000000001
 40
0.0
 40
0.0
 40
0.0
 40
0.0
 40
1.0
 40
1.0
 40
1.0
 40
2.0
 40
2.0
 40
2.0
 40
3.0
 40
3.0
 40
3.0
 40
4.0
 40
4.0
 40
4.0
 40
5.0
 40
5.0
 40
5.0
 40
5.0
 10
491.4794921875
 20
-897.525390625
 30
0.0
 10
490.78369140625
 20
-891.2607421875
 30
0.0
 10
491.2724609375
 20
-882.4638671875
 30
0.0
 10
486.19970703125
 20
-886.486328125
 30
0.0
 10
484.625
 20
-890.3408203125
 30
0.0
 10
486.00830078125
 20
-895.388671875
 30
0.0
 10
486.19970703125
 20
-899.92578125
 30
0.0
 10
487.52392578125
 20
-931.3427734375
 30
0.0
 10
488.1494140625
 20
-969.38671875
 30
0.0
 10
489.5595703125
 20
-1000.716796875
 30
0.0
 10
493.18505859375
 20
-1000.451171875
 30
0.0
 10
495.96826171875
 20
-1001.02734375
 30
0.0
 10
499.15869140625
 20
-1001.197265625
 30
0.0
 10
495.9853515625
 20
-970.203125
 30
0.0
 10
495.103515625
 20
-930.169921875
 30
0.0
 10
491.4794921875
 20
-897.525390625
 30
0.0
  0
SPLINE
  5
70
330
3C
100
AcDbEntity
  8
Layer 1
370
     0
100
AcDbSpline
210
0.0
220
0.0
230
1.0
 70
    11
 71
     3
 72
    23
 73
    19
 74
     0
 42
0.0000000001
 43
0.0000000001
 40
0.0
 40
0.0
 40
0.0
 40
0.0
 40
1.0
 40
1.0
 40
1.0
 40
2.0
 40
2.0
 40
2.0
 40
3.0
 40
3.0
 40
3.0
 40
4.0
 40
4.0
 40
4.0
 40
5.0
 40
5.0
 40
5.0
 40
6.0
 40
6.0
 40
6.0
 40
6.0
 10
468.44140625
 20
-887.9267578125
 30
0.0
 10
469.166015625
 20
-923.6787109375
 30
0.0
 10
471.2978515625
 20
-962.18359375
 30
0.0
 10
472.28076171875
 20
-999.27734375
 30
0.0
 10
474.99755859375
 20
-1000.080078125
 30
0.0
 10
478.84765625
 20
-999.75
 30
0.0
 10
481.8798828125
 20
-1000.2373046875
 30
0.0
 10
480.2109375
 20
-968.283203125
 30
0.0
 10
477.51806640625
 20
-931.7919921875
 30
0.0
 10
474.20068359375
 20
-900.4052734375
 30
0.0
 10
473.720703125
 20
-895.8662109375
 30
0.0
 10
474.26416015625
 20
-890.8388671875
 30
0.0
 10
471.80078125
 20
-886.966796875
 30
0.0
 10
471.8818359375
 20
-885.92578125
 30
0.0
 10
470.0986328125
 20
-886.7490234375
 30
0.0
 10
469.40087890625
 20
-886.486328125
 30
0.0
 10
468.7978515625
 20
-886.68359375
 30
0.0
 10
468.419921875
 20
-887.10546875
 30
0.0
 10
468.44140625
 20
-887.9267578125
 30
0.0
  0
SPLINE
  5
71
330
3C
100
AcDbEntity
  8
Layer 1
370
     0
100
AcDbSpline
210
0.0
220
0.0
230
1.0
 70
    11
 71
     3
 72
    20
 73
    16
 74
     0
 42
0.0000000001
 43
0.0000000001
 40
0.0
 40
0.0
 40
0.0
 40
0.0
 40
1.0
 40
1.0
 40
1.0
 40
2.0
 40
2.0
 40
2.0
 40
3.0
 40
3.0
 40
3.0
 40
4.0
 40
4.0
 40
4.0
 40
5.0
 40
5.0
 40
5.0
 40
5.0
 10
450.20263671875
 20
-887.9267578125
 30
0.0
 10
450.23193359375
 20
-924.375
 30
0.0
 10
453.5390625
 20
-961.7021484375
 30
0.0
 10
455.482421875
 20
-997.8369140625
 30
0.0
 10
458.9248046875
 20
-997.9140625
 30
0.0
 10
461.72509765625
 20
-998.6337890625
 30
0.0
 10
465.08154296875
 20
-998.796875
 30
0.0
 10
461.74072265625
 20
-966.384765625
 30
0.0
 10
460.044921875
 20
-931.322265625
 30
0.0
 10
456.4423828125
 20
-899.92578125
 30
0.0
 10
455.95263671875
 20
-895.6572265625
 30
0.0
 10
456.01611328125
 20
-890.80859375
 30
0.0
 10
454.04248046875
 20
-886.966796875
 30
0.0
 10
452.4091796875
 20
-886.93359375
 30
0.0
 10
450.693359375
 20
-886.8173828125
 30
0.0
 10
450.20263671875
 20
-887.9267578125
 30
0.0
  0
SPLINE
  5
72
330
3C
100
AcDbEntity
  8
Layer 1
370
     0
100
AcDbSpline
210
0.0
220
0.0
230
1.0
 70
    11
 71
     3
 72
    14
 73
    10
 74
     0
 42
0.0000000001
 43
0.0000000001
 40
0.0
 40
0.0
 40
0.0
 40
0.0
 40
1.0
 40
1.0
 40
1.0
 40
2.0
 40
2.0
 40
2.0
 40
3.0
 40
3.0
 40
3.0
 40
3.0
 10
756.8974609375
 20
-937.3623046875
 30
0.0
 10
759.158203125
 20
-934.9833984375
 30
0.0
 10
763.3388671875
 20
-934.5244140625
 30
0.0
 10
765.056640625
 20
-931.6025390625
 30
0.0
 10
764.5849609375
 20
-913.5166015625
 30
0.0
 10
759.3115234375
 20
-900.23046875
 30
0.0
 10
753.537109375
 20
-887.4462890625
 30
0.0
 10
756.2685546875
 20
-902.4736328125
 30
0.0
 10
756.0947265625
 20
-920.40625
 30
0.0
 10
756.8974609375
 20
-937.3623046875
 30
0.0
  0
ENDBLK
  5
3F
330
3C
100
AcDbEntity
  8
0
100
AcDbBlockEnd
  0
ENDSEC
  0
SECTION
  2
ENTITIES
  0
INSERT
  5
3D
330
1F
100
AcDbEntity
  8
Layer 1
100
AcDbBlockReference
  2
block 2
 10
0.0
 20
0.0
 30
0.0
  0
ENDSEC
  0
SECTION
  2
OBJECTS
  0
DICTIONARY
  5
C
330
0
100
AcDbDictionary
281
     1
  3
ACAD_GROUP
350
D
  3
ACAD_LAYOUT
350
1A
  3
ACAD_MLINESTYLE
350
17
  3
ACAD_PLOTSETTINGS
350
19
  3
ACAD_PLOTSTYLENAME
350
E
  3
ACAD_TABLESTYLE
350
73
  3
ACAD_VISUALSTYLE
350
2A
  0
DICTIONARY
  5
D
102
{ACAD_REACTORS
330
C
102
}
330
C
100
AcDbDictionary
281
     1
  0
DICTIONARY
  5
1A
102
{ACAD_REACTORS
330
C
102
}
330
C
100
AcDbDictionary
281
     1
  3
Layout1
350
1E
  3
Layout2
350
26
  3
Model
350
22
  0
DICTIONARY
  5
17
102
{ACAD_REACTORS
330
C
102
}
330
C
100
AcDbDictionary
281
     1
  3
Standard
350
18
  0
DICTIONARY
  5
19
102
{ACAD_REACTORS
330
C
102
}
330
C
100
AcDbDictionary
281
     1
  0
ACDBDICTIONARYWDFLT
  5
E
102
{ACAD_REACTORS
330
C
102
}
330
C
100
AcDbDictionary
281
     1
  3
Normal
350
F
100
AcDbDictionaryWithDefault
340
F
  0
DICTIONARY
  5
73
102
{ACAD_REACTORS
330
C
102
}
330
C
100
AcDbDictionary
281
     1
  0
DICTIONARY
  5
2A
102
{ACAD_REACTORS
330
C
102
}
330
C
100
AcDbDictionary
281
     1
  3
2dWireframe
350
2F
  3
3D Hidden
350
31
  3
3dWireframe
350
30
  3
Basic
350
32
  3
Brighten
350
36
  3
ColorChange
350
3A
  3
Conceptual
350
34
  3
Dim
350
35
  3
Facepattern
350
39
  3
Flat
350
2B
  3
FlatWithEdges
350
2C
  3
Gouraud
350
2D
  3
GouraudWithEdges
350
2E
  3
Linepattern
350
38
  3
Realistic
350
33
  3
Thicken
350
37
  0
LAYOUT
  5
1E
102
{ACAD_REACTORS
330
1A
102
}
330
1A
100
AcDbPlotSettings
  1

  2
none_device
  4

  6

 40
0.0
 41
0.0
 42
0.0
 43
0.0
 44
0.0
 45
0.0
 46
0.0
 47
0.0
 48
0.0
 49
0.0
140
0.0
141
0.0
142
1.0
143
1.0
 70
   688
 72
     0
 73
     0
 74
     5
  7

 75
    16
 76
     0
 77
     2
 78
   300
147
1.0
148
0.0
149
0.0
100
AcDbLayout
  1
Layout1
 70
     1
 71
     1
 10
0.0
 20
0.0
 11
12.0
 21
9.0
 12
0.0
 22
0.0
 32
0.0
 14
1.000000000000000E+20
 24
1.000000000000000E+20
 34
1.000000000000000E+20
 15
-1.000000000000000E+20
 25
-1.000000000000000E+20
 35
-1.000000000000000E+20
146
0.0
 13
0.0
 23
0.0
 33
0.0
 16
1.0
 26
0.0
 36
0.0
 17
0.0
 27
1.0
 37
0.0
 76
     0
330
1B
  0
LAYOUT
  5
26
102
{ACAD_REACTORS
330
1A
102
}
330
1A
100
AcDbPlotSettings
  1

  2
none_device
  4

  6

 40
0.0
 41
0.0
 42
0.0
 43
0.0
 44
0.0
 45
0.0
 46
0.0
 47
0.0
 48
0.0
 49
0.0
140
0.0
141
0.0
142
1.0
143
1.0
 70
   688
 72
     0
 73
     0
 74
     5
  7

 75
    16
 76
     0
 77
     2
 78
   300
147
1.0
148
0.0
149
0.0
100
AcDbLayout
  1
Layout2
 70
     1
 71
     2
 10
0.0
 20
0.0
 11
0.0
 21
0.0
 12
0.0
 22
0.0
 32
0.0
 14
0.0
 24
0.0
 34
0.0
 15
0.0
 25
0.0
 35
0.0
146
0.0
 13
0.0
 23
0.0
 33
0.0
 16
1.0
 26
0.0
 36
0.0
 17
0.0
 27
1.0
 37
0.0
 76
     0
330
23
  0
LAYOUT
  5
22
102
{ACAD_REACTORS
330
1A
102
}
330
1A
100
AcDbPlotSettings
  1

  2
none_device
  4

  6

 40
0.0
 41
0.0
 42
0.0
 43
0.0
 44
0.0
 45
0.0
 46
0.0
 47
0.0
 48
0.0
 49
0.0
140
0.0
141
0.0
142
1.0
143
1.0
 70
  1712
 72
     0
 73
     0
 74
     0
  7

 75
     0
 76
     0
 77
     2
 78
   300
147
1.0
148
0.0
149
0.0
100
AcDbLayout
  1
Model
 70
     1
 71
     0
 10
0.0
 20
0.0
 11
12.0
 21
9.0
 12
0.0
 22
0.0
 32
0.0
 14
1.000000000000000E+20
 24
1.000000000000000E+20
 34
1.000000000000000E+20
 15
-1.000000000000000E+20
 25
-1.000000000000000E+20
 35
-1.000000000000000E+20
146
0.0
 13
0.0
 23
0.0
 33
0.0
 16
1.0
 26
0.0
 36
0.0
 17
0.0
 27
1.0
 37
0.0
 76
     0
330
1F
331
29
  0
MLINESTYLE
  5
18
102
{ACAD_REACTORS
330
17
102
}
330
17
100
AcDbMlineStyle
  2
Standard
 70
     0
  3

 62
   256
 51
90.0
 52
90.0
 71
     2
 49
0.5
 62
   256
  6
BYLAYER
 49
-0.5
 62
   256
  6
BYLAYER
  0
ACDBPLACEHOLDER
  5
F
102
{ACAD_REACTORS
330
E
102
}
330
E
  0
VISUALSTYLE
  5
2F
102
{ACAD_REACTORS
330
2A
102
}
330
2A
100
AcDbVisualStyle
  2
2dWireframe
 70
     4
 71
     0
 72
     2
 73
     0
 90
        0
 40
-0.6
 41
-30.0
 62
     5
 63
     7
421
 16777215
 74
     1
 91
        4
 64
     7
 65
   257
 75
     1
175
     1
 42
1.0
 92
        0
 66
   257
 43
1.0
 76
     1
 77
     6
 78
     2
 67
     7
 79
     5
170
     0
171
     0
290
     0
174
     0
 93
        1
 44
0.0
173
     0
291
     0
 45
0.0
1001
ACAD
1000
AcDbSavedByObjectVersion
1070
     0
  0
VISUALSTYLE
  5
31
102
{ACAD_REACTORS
330
2A
102
}
330
2A
100
AcDbVisualStyle
  2
3D Hidden
 70
     6
 71
     1
 72
     2
 73
     2
 90
        0
 40
-0.6
 41
-30.0
 62
     5
 63
     7
421
 16777215
 74
     2
 91
        2
 64
     7
 65
   257
 75
     2
175
     1
 42
40.0
 92
        0
 66
   257
 43
1.0
 76
     1
 77
     6
 78
     2
 67
     7
 79
     3
170
     0
171
     0
290
     0
174
     0
 93
        1
 44
0.0
173
     0
291
     0
 45
0.0
1001
ACAD
1000
AcDbSavedByObjectVersion
1070
     0
  0
VISUALSTYLE
  5
30
102
{ACAD_REACTORS
330
2A
102
}
330
2A
100
AcDbVisualStyle
  2
3dWireframe
 70
     5
 71
     0
 72
     2
 73
     0
 90
        0
 40
-0.6
 41
-30.0
 62
     5
 63
     7
421
 16777215
 74
     1
 91
        4
 64
     7
 65
   257
 75
     1
175
     1
 42
1.0
 92
        0
 66
   257
 43
1.0
 76
     1
 77
     6
 78
     2
 67
     7
 79
     5
170
     0
171
     0
290
     0
174
     0
 93
        1
 44
0.0
173
     0
291
     0
 45
0.0
1001
ACAD
1000
AcDbSavedByObjectVersion
1070
     0
  0
VISUALSTYLE
  5
32
102
{ACAD_REACTORS
330
2A
102
}
330
2A
100
AcDbVisualStyle
  2
Basic
 70
     7
 71
     1
 72
     0
 73
     1
 90
        0
 40
-0.6
 41
-30.0
 62
     5
 63
     7
421
 16777215
 74
     0
 91
        4
 64
     7
 65
   257
 75
     1
175
     1
 42
1.0
 92
        8
 66
     7
 43
1.0
 76
     1
 77
     6
 78
     2
 67
     7
 79
     5
170
     0
171
     0
290
     0
174
     0
 93
        1
 44
0.0
173
     0
291
     1
 45
0.0
1001
ACAD
1000
AcDbSavedByObjectVersion
1070
     0
  0
VISUALSTYLE
  5
36
102
{ACAD_REACTORS
330
2A
102
}
330
2A
100
AcDbVisualStyle
  2
Brighten
 70
    12
 71
     2
 72
     2
 73
     0
 90
        0
 40
-0.6
 41
-30.0
 62
     5
 63
     7
421
 16777215
 74
     1
 91
        4
 64
     7
 65
   257
 75
     1
175
     1
 42
1.0
 92
        8
 66
     7
 43
1.0
 76
     1
 77
     6
 78
     2
 67
     7
 79
     5
170
     0
171
     0
290
     0
174
     0
 93
        1
 44
50.0
173
     0
291
     1
 45
0.0
1001
ACAD
1000
AcDbSavedByObjectVersion
1070
     0
  0
VISUALSTYLE
  5
3A
102
{ACAD_REACTORS
330
2A
102
}
330
2A
100
AcDbVisualStyle
  2
ColorChange
 70
    16
 71
     2
 72
     2
 73
     3
 90
        0
 40
-0.6
 41
-30.0
 62
     5
 63
     8
421
  8421504
 74
     1
 91
        4
 64
     7
 65
   257
 75
     1
175
     1
 42
1.0
 92
        8
 66
     8
424
  8421504
 43
1.0
 76
     1
 77
     6
 78
     2
 67
     7
 79
     5
170
     0
171
     0
290
     0
174
     0
 93
        1
 44
0.0
173
     0
291
     1
 45
0.0
1001
ACAD
1000
AcDbSavedByObjectVersion
1070
     0
  0
VISUALSTYLE
  5
34
102
{ACAD_REACTORS
330
2A
102
}
330
2A
100
AcDbVisualStyle
  2
Conceptual
 70
     9
 71
     3
 72
     2
 73
     0
 90
        0
 40
-0.6
 41
-30.0
 62
     5
 63
     7
421
 16777215
 74
     2
 91
        2
 64
     7
 65
   257
 75
     1
175
     1
 42
40.0
 92
        8
 66
     7
 43
1.0
 76
     1
 77
     6
 78
     2
 67
     7
 79
     3
170
     0
171
     0
290
     0
174
     0
 93
        1
 44
0.0
173
     0
291
     0
 45
0.0
1001
ACAD
1000
AcDbSavedByObjectVersion
1070
     0
  0
VISUALSTYLE
  5
35
102
{ACAD_REACTORS
330
2A
102
}
330
2A
100
AcDbVisualStyle
  2
Dim
 70
    11
 71
     2
 72
     2
 73
     0
 90
        0
 40
-0.6
 41
-30.0
 62
     5
 63
     7
421
 16777215
 74
     1
 91
        4
 64
     7
 65
   257
 75
     1
175
     1
 42
1.0
 92
        8
 66
     7
 43
1.0
 76
     1
 77
     6
 78
     2
 67
     7
 79
     5
170
     0
171
     0
290
     0
174
     0
 93
        1
 44
-50.0
173
     0
291
     1
 45
0.0
1001
ACAD
1000
AcDbSavedByObjectVersion
1070
     0
  0
VISUALSTYLE
  5
39
102
{ACAD_REACTORS
330
2A
102
}
330
2A
100
AcDbVisualStyle
  2
Facepattern
 70
    15
 71
     2
 72
     2
 73
     0
 90
        0
 40
-0.6
 41
-30.0
 62
     5
 63
     7
421
 16777215
 74
     1
 91
        4
 64
     7
 65
   257
 75
     1
175
     1
 42
1.0
 92
        8
 66
     7
 43
1.0
 76
     1
 77
     6
 78
     2
 67
     7
 79
     5
170
     0
171
     0
290
     0
174
     0
 93
        1
 44
0.0
173
     0
291
     1
 45
0.0
1001
ACAD
1000
AcDbSavedByObjectVersion
1070
     0
  0
VISUALSTYLE
  5
2B
102
{ACAD_REACTORS
330
2A
102
}
330
2A
100
AcDbVisualStyle
  2
Flat
 70
     0
 71
     2
 72
     1
 73
     1
 90
        2
 40
-0.6
 41
30.0
 62
     5
 63
     7
421
 16777215
 74
     0
 91
        4
 64
     7
 65
   257
 75
     1
175
     1
 42
1.0
 92
        8
 66
     7
 43
1.0
 76
     1
 77
     6
 78
     2
 67
     7
 79
     5
170
     0
171
     0
290
     0
174
     0
 93
       13
 44
0.0
173
     0
291
     1
 45
0.0
1001
ACAD
1000
AcDbSavedByObjectVersion
1070
     0
  0
VISUALSTYLE
  5
2C
102
{ACAD_REACTORS
330
2A
102
}
330
2A
100
AcDbVisualStyle
  2
FlatWithEdges
 70
     1
 71
     2
 72
     1
 73
     1
 90
        2
 40
-0.6
 41
30.0
 62
     5
 63
     7
421
 16777215
 74
     1
 91
        4
 64
     7
 65
   257
 75
     1
175
     1
 42
1.0
 92
        0
 66
   257
 43
1.0
 76
     1
 77
     6
 78
     2
 67
     7
 79
     5
170
     0
171
     0
290
     0
174
     0
 93
       13
 44
0.0
173
     0
291
     1
 45
0.0
1001
ACAD
1000
AcDbSavedByObjectVersion
1070
     0
  0
VISUALSTYLE
  5
2D
102
{ACAD_REACTORS
330
2A
102
}
330
2A
100
AcDbVisualStyle
  2
Gouraud
 70
     2
 71
     2
 72
     2
 73
     1
 90
        2
 40
-0.6
 41
30.0
 62
     5
 63
     7
421
 16777215
 74
     0
 91
        4
 64
     7
 65
   257
 75
     1
175
     1
 42
1.0
 92
        0
 66
     7
 43
1.0
 76
     1
 77
     6
 78
     2
 67
     7
 79
     5
170
     0
171
     0
290
     0
174
     0
 93
       13
 44
0.0
173
     0
291
     1
 45
0.0
1001
ACAD
1000
AcDbSavedByObjectVersion
1070
     0
  0
VISUALSTYLE
  5
2E
102
{ACAD_REACTORS
330
2A
102
}
330
2A
100
AcDbVisualStyle
  2
GouraudWithEdges
 70
     3
 71
     2
 72
     2
 73
     1
 90
        2
 40
-0.6
 41
30.0
 62
     5
 63
     7
421
 16777215
 74
     1
 91
        4
 64
     7
 65
   257
 75
     1
175
     1
 42
1.0
 92
        0
 66
   257
 43
1.0
 76
     1
 77
     6
 78
     2
 67
     7
 79
     5
170
     0
171
     0
290
     0
174
     0
 93
       13
 44
0.0
173
     0
291
     1
 45
0.0
1001
ACAD
1000
AcDbSavedByObjectVersion
1070
     0
  0
VISUALSTYLE
  5
38
102
{ACAD_REACTORS
330
2A
102
}
330
2A
100
AcDbVisualStyle
  2
Linepattern
 70
    14
 71
     2
 72
     2
 73
     0
 90
        0
 40
-0.6
 41
-30.0
 62
     5
 63
     7
421
 16777215
 74
     1
 91
        4
 64
     7
 65
   257
 75
     7
175
     7
 42
1.0
 92
        8
 66
     7
 43
1.0
 76
     1
 77
     6
 78
     2
 67
     7
 79
     5
170
     0
171
     0
290
     0
174
     0
 93
        1
 44
0.0
173
     0
291
     1
 45
0.0
1001
ACAD
1000
AcDbSavedByObjectVersion
1070
     0
  0
VISUALSTYLE
  5
33
102
{ACAD_REACTORS
330
2A
102
}
330
2A
100
AcDbVisualStyle
  2
Realistic
 70
     8
 71
     2
 72
     2
 73
     0
 90
        0
 40
-0.6
 41
-30.0
 62
     5
 63
     7
421
 16777215
 74
     1
 91
        0
 64
     7
 65
   257
 75
     1
175
     1
 42
1.0
 92
        8
 66
     8
424
  7895160
 43
1.0
 76
     1
 77
     6
 78
     2
 67
     7
 79
     5
170
     0
171
     0
290
     0
174
     0
 93
       13
 44
0.0
173
     0
291
     0
 45
0.0
1001
ACAD
1000
AcDbSavedByObjectVersion
1070
     0
  0
VISUALSTYLE
  5
37
102
{ACAD_REACTORS
330
2A
102
}
330
2A
100
AcDbVisualStyle
  2
Thicken
 70
    13
 71
     2
 72
     2
 73
     0
 90
        0
 40
-0.6
 41
-30.0
 62
     5
 63
     7
421
 16777215
 74
     1
 91
        4
 64
     7
 65
   257
 75
     1
175
     1
 42
1.0
 92
       12
 66
     7
 43
1.0
 76
     1
 77
     6
 78
     2
 67
     7
 79
     5
170
     0
171
     0
290
     0
174
     0
 93
        1
 44
0.0
173
     0
291
     1
 45
0.0
1001
ACAD
1000
AcDbSavedByObjectVersion
1070
     0
  0
ENDSEC
  0
EOF
