  0
SECTION
  2
HEADER
  9
$ACADVER
  1
AC1015
  9
$ACADMAINTVER
 70
     6
  9
$DWGCODEPAGE
  3
ANSI_1251
  9
$INSBASE
 10
0.0
 20
0.0
 30
0.0
  9
$EXTMIN
 10
-345.1
 20
-348.8002
 30
0.0
  9
$EXTMAX
 10
345.1
 20
345.1
 30
0.0
  9
$LIMMIN
 10
0.0
 20
0.0
  9
$LIMMAX
 10
12.0
 20
9.0
  9
$ORTHOMODE
 70
     0
  9
$REGENMODE
 70
     1
  9
$FILLMODE
 70
     1
  9
$QTEXTMODE
 70
     0
  9
$MIRRTEXT
 70
     1
  9
$LTSCALE
 40
1.0
  9
$ATTMODE
 70
     1
  9
$TEXTSIZE
 40
0.2
  9
$TRACEWID
 40
0.05
  9
$TEXTSTYLE
  7
Standard
  9
$CLAYER
  8
0
  9
$CELTYPE
  6
ByLayer
  9
$CECOLOR
 62
   256
  9
$CELTSCALE
 40
1.0
  9
$DISPSILH
 70
     0
  9
$DIMSCALE
 40
1.0
  9
$DIMASZ
 40
0.18
  9
$DIMEXO
 40
0.0625
  9
$DIMDLI
 40
0.38
  9
$DIMRND
 40
0.0
  9
$DIMDLE
 40
0.0
  9
$DIMEXE
 40
0.18
  9
$DIMTP
 40
0.0
  9
$DIMTM
 40
0.0
  9
$DIMTXT
 40
0.18
  9
$DIMCEN
 40
0.09
  9
$DIMTSZ
 40
0.0
  9
$DIMTOL
 70
     0
  9
$DIMLIM
 70
     0
  9
$DIMTIH
 70
     1
  9
$DIMTOH
 70
     1
  9
$DIMSE1
 70
     0
  9
$DIMSE2
 70
     0
  9
$DIMTAD
 70
     0
  9
$DIMZIN
 70
     0
  9
$DIMBLK
  1

  9
$DIMASO
 70
     1
  9
$DIMSHO
 70
     1
  9
$DIMPOST
  1

  9
$DIMAPOST
  1

  9
$DIMALT
 70
     0
  9
$DIMALTD
 70
     2
  9
$DIMALTF
 40
25.4
  9
$DIMLFAC
 40
1.0
  9
$DIMTOFL
 70
     0
  9
$DIMTVP
 40
0.0
  9
$DIMTIX
 70
     0
  9
$DIMSOXD
 70
     0
  9
$DIMSAH
 70
     0
  9
$DIMBLK1
  1

  9
$DIMBLK2
  1

  9
$DIMSTYLE
  2
Standard
  9
$DIMCLRD
 70
     0
  9
$DIMCLRE
 70
     0
  9
$DIMCLRT
 70
     0
  9
$DIMTFAC
 40
1.0
  9
$DIMGAP
 40
0.09
  9
$DIMJUST
 70
     0
  9
$DIMSD1
 70
     0
  9
$DIMSD2
 70
     0
  9
$DIMTOLJ
 70
     1
  9
$DIMTZIN
 70
     0
  9
$DIMALTZ
 70
     0
  9
$DIMALTTZ
 70
     0
  9
$DIMUPT
 70
     0
  9
$DIMDEC
 70
     4
  9
$DIMTDEC
 70
     4
  9
$DIMALTU
 70
     2
  9
$DIMALTTD
 70
     2
  9
$DIMTXSTY
  7
Standard
  9
$DIMAUNIT
 70
     0
  9
$DIMADEC
 70
     0
  9
$DIMALTRND
 40
0.0
  9
$DIMAZIN
 70
     0
  9
$DIMDSEP
 70
    46
  9
$DIMATFIT
 70
     3
  9
$DIMFRAC
 70
     0
  9
$DIMLDRBLK
  1

  9
$DIMLUNIT
 70
     2
  9
$DIMLWD
 70
    -2
  9
$DIMLWE
 70
    -2
  9
$DIMTMOVE
 70
     0
  9
$LUNITS
 70
     2
  9
$LUPREC
 70
     4
  9
$SKETCHINC
 40
0.1
  9
$FILLETRAD
 40
0.5
  9
$AUNITS
 70
     0
  9
$AUPREC
 70
     0
  9
$MENU
  1
.
  9
$ELEVATION
 40
0.0
  9
$PELEVATION
 40
0.0
  9
$THICKNESS
 40
0.0
  9
$LIMCHECK
 70
     0
  9
$CHAMFERA
 40
0.0
  9
$CHAMFERB
 40
0.0
  9
$CHAMFERC
 40
0.0
  9
$CHAMFERD
 40
0.0
  9
$SKPOLY
 70
     0
  9
$TDCREATE
 40
2457712.583176539
  9
$TDUCREATE
 40
2457712.499843206
  9
$TDUPDATE
 40
2457712.583176586
  9
$TDUUPDATE
 40
2457712.499843252
  9
$TDINDWG
 40
0.0000000116
  9
$TDUSRTIMER
 40
0.0000000116
  9
$USRTIMER
 70
     1
  9
$ANGBASE
 50
0.0
  9
$ANGDIR
 70
     0
  9
$PDMODE
 70
     0
  9
$PDSIZE
 40
0.0
  9
$PLINEWID
 40
0.0
  9
$SPLFRAME
 70
     0
  9
$SPLINETYPE
 70
     6
  9
$SPLINESEGS
 70
     8
  9
$HANDSEED
  5
C8
  9
$SURFTAB1
 70
     6
  9
$SURFTAB2
 70
     6
  9
$SURFTYPE
 70
     6
  9
$SURFU
 70
     6
  9
$SURFV
 70
     6
  9
$UCSBASE
  2

  9
$UCSNAME
  2

  9
$UCSORG
 10
0.0
 20
0.0
 30
0.0
  9
$UCSXDIR
 10
1.0
 20
0.0
 30
0.0
  9
$UCSYDIR
 10
0.0
 20
1.0
 30
0.0
  9
$UCSORTHOREF
  2

  9
$UCSORTHOVIEW
 70
     0
  9
$UCSORGTOP
 10
0.0
 20
0.0
 30
0.0
  9
$UCSORGBOTTOM
 10
0.0
 20
0.0
 30
0.0
  9
$UCSORGLEFT
 10
0.0
 20
0.0
 30
0.0
  9
$UCSORGRIGHT
 10
0.0
 20
0.0
 30
0.0
  9
$UCSORGFRONT
 10
0.0
 20
0.0
 30
0.0
  9
$UCSORGBACK
 10
0.0
 20
0.0
 30
0.0
  9
$PUCSBASE
  2

  9
$PUCSNAME
  2

  9
$PUCSORG
 10
0.0
 20
0.0
 30
0.0
  9
$PUCSXDIR
 10
1.0
 20
0.0
 30
0.0
  9
$PUCSYDIR
 10
0.0
 20
1.0
 30
0.0
  9
$PUCSORTHOREF
  2

  9
$PUCSORTHOVIEW
 70
     0
  9
$PUCSORGTOP
 10
0.0
 20
0.0
 30
0.0
  9
$PUCSORGBOTTOM
 10
0.0
 20
0.0
 30
0.0
  9
$PUCSORGLEFT
 10
0.0
 20
0.0
 30
0.0
  9
$PUCSORGRIGHT
 10
0.0
 20
0.0
 30
0.0
  9
$PUCSORGFRONT
 10
0.0
 20
0.0
 30
0.0
  9
$PUCSORGBACK
 10
0.0
 20
0.0
 30
0.0
  9
$USERI1
 70
     0
  9
$USERI2
 70
     0
  9
$USERI3
 70
     0
  9
$USERI4
 70
     0
  9
$USERI5
 70
     0
  9
$USERR1
 40
0.0
  9
$USERR2
 40
0.0
  9
$USERR3
 40
0.0
  9
$USERR4
 40
0.0
  9
$USERR5
 40
0.0
  9
$WORLDVIEW
 70
     1
  9
$SHADEDGE
 70
     3
  9
$SHADEDIF
 70
    70
  9
$TILEMODE
 70
     1
  9
$MAXACTVP
 70
    64
  9
$PINSBASE
 10
0.0
 20
0.0
 30
0.0
  9
$PLIMCHECK
 70
     0
  9
$PEXTMIN
 10
1.000000000000000E+20
 20
1.000000000000000E+20
 30
1.000000000000000E+20
  9
$PEXTMAX
 10
-1.000000000000000E+20
 20
-1.000000000000000E+20
 30
-1.000000000000000E+20
  9
$PLIMMIN
 10
0.0
 20
0.0
  9
$PLIMMAX
 10
12.0
 20
9.0
  9
$UNITMODE
 70
     0
  9
$VISRETAIN
 70
     1
  9
$PLINEGEN
 70
     0
  9
$PSLTSCALE
 70
     1
  9
$TREEDEPTH
 70
  3020
  9
$CMLSTYLE
  2
Standard
  9
$CMLJUST
 70
     0
  9
$CMLSCALE
 40
1.0
  9
$PROXYGRAPHICS
 70
     1
  9
$MEASUREMENT
 70
     0
  9
$CELWEIGHT
370
    -1
  9
$ENDCAPS
280
     0
  9
$JOINSTYLE
280
     0
  9
$LWDISPLAY
290
     0
  9
$INSUNITS
 70
     4
  9
$HYPERLINKBASE
  1

  9
$STYLESHEET
  1

  9
$XEDIT
290
     1
  9
$CEPSNTYPE
380
     0
  9
$PSTYLEMODE
290
     1
  9
$FINGERPRINTGUID
  2
{45171275-0B7E-489F-BE44-A7DC8B6F7031}
  9
$VERSIONGUID
  2
{FAEB1C32-E019-11D5-929B-00C0DF256EC4}
  9
$EXTNAMES
290
     1
  9
$PSVPSCALE
 40
0.0
  9
$OLESTARTUP
290
     0
  0
ENDSEC
  0
SECTION
  2
CLASSES
  0
CLASS
  1
ACDBDICTIONARYWDFLT
  2
AcDbDictionaryWithDefault
  3
ObjectDBX Classes
 90
        0
280
     0
281
     0
  0
CLASS
  1
VISUALSTYLE
  2
AcDbVisualStyle
  3
ObjectDBX Classes
 90
     4095
280
     0
281
     0
  0
CLASS
  1
MATERIAL
  2
AcDbMaterial
  3
ObjectDBX Classes
 90
     1153
280
     0
281
     0
  0
CLASS
  1
SCALE
  2
AcDbScale
  3
ObjectDBX Classes
 90
     1153
280
     0
281
     0
  0
CLASS
  1
TABLESTYLE
  2
AcDbTableStyle
  3
ObjectDBX Classes
 90
     4095
280
     0
281
     0
  0
CLASS
  1
MLEADERSTYLE
  2
AcDbMLeaderStyle
  3
ACDB_MLEADERSTYLE_CLASS
 90
     4095
280
     0
281
     0
  0
CLASS
  1
SUN
  2
AcDbSun
  3
SCENEOE
 90
     1153
280
     0
281
     0
  0
CLASS
  1
DICTIONARYVAR
  2
AcDbDictionaryVar
  3
ObjectDBX Classes
 90
        0
280
     0
281
     0
  0
CLASS
  1
ACDBPLACEHOLDER
  2
AcDbPlaceHolder
  3
ObjectDBX Classes
 90
        0
280
     0
281
     0
  0
CLASS
  1
LAYOUT
  2
AcDbLayout
  3
ObjectDBX Classes
 90
        0
280
     0
281
     0
  0
ENDSEC
  0
SECTION
  2
TABLES
  0
TABLE
  2
VPORT
  5
8
102
{ACAD_XDICTIONARY
360
8B
102
}
330
0
100
AcDbSymbolTable
 70
     1
  0
VPORT
  5
29
330
8
100
AcDbSymbolTableRecord
100
AcDbViewportTableRecord
  2
*Active
 70
     0
 10
0.0
 20
0.0
 11
1.0
 21
1.0
 12
10.42990654205607
 22
4.5
 13
0.0
 23
0.0
 14
0.5
 24
0.5
 15
0.5
 25
0.5
 16
0.0
 26
0.0
 36
1.0
 17
0.0
 27
0.0
 37
0.0
 40
9.0
 41
1.972972972850329
 42
50.0
 43
0.0
 44
0.0
 50
0.0
 51
0.0
 71
     0
 72
   100
 73
     1
 74
     3
 75
     0
 76
     0
 77
     0
 78
     0
281
     0
 65
     1
110
0.0
120
0.0
130
0.0
111
1.0
121
0.0
131
0.0
112
0.0
122
1.0
132
0.0
 79
     0
146
0.0
  0
ENDTAB
  0
TABLE
  2
LTYPE
  5
5
330
0
100
AcDbSymbolTable
 70
     1
  0
LTYPE
  5
14
330
5
100
AcDbSymbolTableRecord
100
AcDbLinetypeTableRecord
  2
ByBlock
 70
     0
  3

 72
    65
 73
     0
 40
0.0
  0
LTYPE
  5
15
330
5
100
AcDbSymbolTableRecord
100
AcDbLinetypeTableRecord
  2
ByLayer
 70
     0
  3

 72
    65
 73
     0
 40
0.0
  0
LTYPE
  5
16
330
5
100
AcDbSymbolTableRecord
100
AcDbLinetypeTableRecord
  2
Continuous
 70
     0
  3
Solid line
 72
    65
 73
     0
 40
0.0
  0
ENDTAB
  0
TABLE
  2
LAYER
  5
2
330
0
100
AcDbSymbolTable
 70
     2
  0
LAYER
  5
10
330
2
100
AcDbSymbolTableRecord
100
AcDbLayerTableRecord
  2
0
 70
     0
 62
     7
  6
Continuous
370
    -3
390
F
  0
LAYER
  5
6F
330
2
100
AcDbSymbolTableRecord
100
AcDbLayerTableRecord
  2
draw
 70
     0
 62
     7
  6
Continuous
370
    -3
390
F
  0
ENDTAB
  0
TABLE
  2
STYLE
  5
3
330
0
100
AcDbSymbolTable
 70
     1
  0
STYLE
  5
11
330
3
100
AcDbSymbolTableRecord
100
AcDbTextStyleTableRecord
  2
Standard
 70
     0
 40
0.0
 41
1.0
 50
0.0
 71
     0
 42
0.2
  3
txt
  4

  0
ENDTAB
  0
TABLE
  2
VIEW
  5
6
330
0
100
AcDbSymbolTable
 70
     0
  0
ENDTAB
  0
TABLE
  2
UCS
  5
7
330
0
100
AcDbSymbolTable
 70
     0
  0
ENDTAB
  0
TABLE
  2
APPID
  5
9
330
0
100
AcDbSymbolTable
 70
     3
  0
APPID
  5
12
330
9
100
AcDbSymbolTableRecord
100
AcDbRegAppTableRecord
  2
ACAD
 70
     0
  0
APPID
  5
6E
330
9
100
AcDbSymbolTableRecord
100
AcDbRegAppTableRecord
  2
ODA
 70
     0
  0
APPID
  5
C5
330
9
100
AcDbSymbolTableRecord
100
AcDbRegAppTableRecord
  2
ACAD_MLEADERVER
 70
     0
  0
ENDTAB
  0
TABLE
  2
DIMSTYLE
  5
A
330
0
100
AcDbSymbolTable
 70
     1
100
AcDbDimStyleTable
  0
DIMSTYLE
105
27
330
A
100
AcDbSymbolTableRecord
100
AcDbDimStyleTableRecord
  2
Standard
 70
     0
178
     0
340
11
  0
ENDTAB
  0
TABLE
  2
BLOCK_RECORD
  5
1
330
0
100
AcDbSymbolTable
 70
     1
  0
BLOCK_RECORD
  5
1F
330
1
100
AcDbSymbolTableRecord
100
AcDbBlockTableRecord
  2
*Model_Space
340
22
  0
BLOCK_RECORD
  5
1B
330
1
100
AcDbSymbolTableRecord
100
AcDbBlockTableRecord
  2
*Paper_Space
340
1E
  0
BLOCK_RECORD
  5
23
330
1
100
AcDbSymbolTableRecord
100
AcDbBlockTableRecord
  2
*Paper_Space0
340
26
  0
ENDTAB
  0
ENDSEC
  0
SECTION
  2
BLOCKS
  0
BLOCK
  5
20
330
1F
100
AcDbEntity
  8
0
100
AcDbBlockBegin
  2
*Model_Space
 70
     0
 10
0.0
 20
0.0
 30
0.0
  3
*Model_Space
  1

  0
ENDBLK
  5
21
330
1F
100
AcDbEntity
  8
0
100
AcDbBlockEnd
  0
BLOCK
  5
1C
330
1B
100
AcDbEntity
 67
     1
  8
0
100
AcDbBlockBegin
  2
*Paper_Space
 70
     0
 10
0.0
 20
0.0
 30
0.0
  3
*Paper_Space
  1

  0
ENDBLK
  5
1D
330
1B
100
AcDbEntity
 67
     1
  8
0
100
AcDbBlockEnd
  0
BLOCK
  5
24
330
23
100
AcDbEntity
  8
0
100
AcDbBlockBegin
  2
*Paper_Space0
 70
     0
 10
0.0
 20
0.0
 30
0.0
  3
*Paper_Space0
  1

  0
ENDBLK
  5
25
330
23
100
AcDbEntity
  8
0
100
AcDbBlockEnd
  0
ENDSEC
  0
SECTION
  2
ENTITIES
  0
SPLINE
  5
70
330
1F
100
AcDbEntity
  8
draw
 62
   250
370
    20
100
AcDbSpline
210
0.0
220
0.0
230
1.0
 70
    11
 71
     3
 72
   276
 73
   272
 74
     0
 42
0.000000001
 43
0.0000000001
 40
0.0
 40
0.0
 40
0.0
 40
0.0
 40
0.0144927536231884
 40
0.0144927536231884
 40
0.0144927536231884
 40
0.0144927536231884
 40
0.0289855072463768
 40
0.0289855072463768
 40
0.0289855072463768
 40
0.0289855072463768
 40
0.0434782608695652
 40
0.0434782608695652
 40
0.0434782608695652
 40
0.0434782608695652
 40
0.0579710144927536
 40
0.0579710144927536
 40
0.0579710144927536
 40
0.0579710144927536
 40
0.072463768115942
 40
0.072463768115942
 40
0.072463768115942
 40
0.072463768115942
 40
0.0869565217391304
 40
0.0869565217391304
 40
0.0869565217391304
 40
0.0869565217391304
 40
0.1014492753623188
 40
0.1014492753623188
 40
0.1014492753623188
 40
0.1014492753623188
 40
0.1159420289855072
 40
0.1159420289855072
 40
0.1159420289855072
 40
0.1159420289855072
 40
0.1304347826086956
 40
0.1304347826086956
 40
0.1304347826086956
 40
0.1304347826086956
 40
0.1449275362318841
 40
0.1449275362318841
 40
0.1449275362318841
 40
0.1449275362318841
 40
0.1594202898550725
 40
0.1594202898550725
 40
0.1594202898550725
 40
0.1594202898550725
 40
0.1739130434782609
 40
0.1739130434782609
 40
0.1739130434782609
 40
0.1739130434782609
 40
0.1884057971014493
 40
0.1884057971014493
 40
0.1884057971014493
 40
0.1884057971014493
 40
0.2028985507246377
 40
0.2028985507246377
 40
0.2028985507246377
 40
0.2028985507246377
 40
0.2173913043478261
 40
0.2173913043478261
 40
0.2173913043478261
 40
0.2173913043478261
 40
0.2318840579710145
 40
0.2318840579710145
 40
0.2318840579710145
 40
0.2318840579710145
 40
0.2463768115942029
 40
0.2463768115942029
 40
0.2463768115942029
 40
0.2463768115942029
 40
0.2608695652173913
 40
0.2608695652173913
 40
0.2608695652173913
 40
0.2608695652173913
 40
0.2753623188405797
 40
0.2753623188405797
 40
0.2753623188405797
 40
0.2753623188405797
 40
0.2898550724637681
 40
0.2898550724637681
 40
0.2898550724637681
 40
0.2898550724637681
 40
0.3043478260869565
 40
0.3043478260869565
 40
0.3043478260869565
 40
0.3043478260869565
 40
0.3188405797101449
 40
0.3188405797101449
 40
0.3188405797101449
 40
0.3188405797101449
 40
0.3333333333333333
 40
0.3333333333333333
 40
0.3333333333333333
 40
0.3333333333333333
 40
0.3478260869565217
 40
0.3478260869565217
 40
0.3478260869565217
 40
0.3478260869565217
 40
0.3623188405797101
 40
0.3623188405797101
 40
0.3623188405797101
 40
0.3623188405797101
 40
0.3768115942028986
 40
0.3768115942028986
 40
0.3768115942028986
 40
0.3768115942028986
 40
0.391304347826087
 40
0.391304347826087
 40
0.391304347826087
 40
0.391304347826087
 40
0.4057971014492754
 40
0.4057971014492754
 40
0.4057971014492754
 40
0.4057971014492754
 40
0.4202898550724637
 40
0.4202898550724637
 40
0.4202898550724637
 40
0.4202898550724637
 40
0.4347826086956522
 40
0.4347826086956522
 40
0.4347826086956522
 40
0.4347826086956522
 40
0.4492753623188406
 40
0.4492753623188406
 40
0.4492753623188406
 40
0.4492753623188406
 40
0.463768115942029
 40
0.463768115942029
 40
0.463768115942029
 40
0.463768115942029
 40
0.4782608695652174
 40
0.4782608695652174
 40
0.4782608695652174
 40
0.4782608695652174
 40
0.4927536231884058
 40
0.4927536231884058
 40
0.4927536231884058
 40
0.4927536231884058
 40
0.5072463768115942
 40
0.5072463768115942
 40
0.5072463768115942
 40
0.5072463768115942
 40
0.5217391304347826
 40
0.5217391304347826
 40
0.5217391304347826
 40
0.5217391304347826
 40
0.5362318840579711
 40
0.5362318840579711
 40
0.5362318840579711
 40
0.5362318840579711
 40
0.5507246376811594
 40
0.5507246376811594
 40
0.5507246376811594
 40
0.5507246376811594
 40
0.5652173913043478
 40
0.5652173913043478
 40
0.5652173913043478
 40
0.5652173913043478
 40
0.5797101449275363
 40
0.5797101449275363
 40
0.5797101449275363
 40
0.5797101449275363
 40
0.5942028985507246
 40
0.5942028985507246
 40
0.5942028985507246
 40
0.5942028985507246
 40
0.6086956521739131
 40
0.6086956521739131
 40
0.6086956521739131
 40
0.6086956521739131
 40
0.6231884057971014
 40
0.6231884057971014
 40
0.6231884057971014
 40
0.6231884057971014
 40
0.6376811594202898
 40
0.6376811594202898
 40
0.6376811594202898
 40
0.6376811594202898
 40
0.6521739130434783
 40
0.6521739130434783
 40
0.6521739130434783
 40
0.6521739130434783
 40
0.6666666666666666
 40
0.6666666666666666
 40
0.6666666666666666
 40
0.6666666666666666
 40
0.6811594202898551
 40
0.6811594202898551
 40
0.6811594202898551
 40
0.6811594202898551
 40
0.6956521739130435
 40
0.6956521739130435
 40
0.6956521739130435
 40
0.6956521739130435
 40
0.7101449275362319
 40
0.7101449275362319
 40
0.7101449275362319
 40
0.7101449275362319
 40
0.7246376811594203
 40
0.7246376811594203
 40
0.7246376811594203
 40
0.7246376811594203
 40
0.7391304347826086
 40
0.7391304347826086
 40
0.7391304347826086
 40
0.7391304347826086
 40
0.7536231884057971
 40
0.7536231884057971
 40
0.7536231884057971
 40
0.7536231884057971
 40
0.7681159420289855
 40
0.7681159420289855
 40
0.7681159420289855
 40
0.7681159420289855
 40
0.782608695652174
 40
0.782608695652174
 40
0.782608695652174
 40
0.782608695652174
 40
0.7971014492753623
 40
0.7971014492753623
 40
0.7971014492753623
 40
0.7971014492753623
 40
0.8115942028985508
 40
0.8115942028985508
 40
0.8115942028985508
 40
0.8115942028985508
 40
0.8260869565217391
 40
0.8260869565217391
 40
0.8260869565217391
 40
0.8260869565217391
 40
0.8405797101449275
 40
0.8405797101449275
 40
0.8405797101449275
 40
0.8405797101449275
 40
0.855072463768116
 40
0.855072463768116
 40
0.855072463768116
 40
0.855072463768116
 40
0.8695652173913043
 40
0.8695652173913043
 40
0.8695652173913043
 40
0.8695652173913043
 40
0.8840579710144928
 40
0.8840579710144928
 40
0.8840579710144928
 40
0.8840579710144928
 40
0.8985507246376812
 40
0.8985507246376812
 40
0.8985507246376812
 40
0.8985507246376812
 40
0.9130434782608695
 40
0.9130434782608695
 40
0.9130434782608695
 40
0.9130434782608695
 40
0.927536231884058
 40
0.927536231884058
 40
0.927536231884058
 40
0.927536231884058
 40
0.9420289855072463
 40
0.9420289855072463
 40
0.9420289855072463
 40
0.9420289855072463
 40
0.9565217391304348
 40
0.9565217391304348
 40
0.9565217391304348
 40
0.9565217391304348
 40
0.9710144927536232
 40
0.9710144927536232
 40
0.9710144927536232
 40
0.9710144927536232
 40
1.0
 40
1.0
 40
1.0
 40
1.0
 10
-275.0
 20
-245.0
 30
0.0
 10
-275.0
 20
-245.0
 30
0.0
 10
-275.0
 20
-225.0
 30
0.0
 10
-275.0
 20
-225.0
 30
0.0
 10
-275.0
 20
-225.0
 30
0.0
 10
-275.0
 20
-225.0
 30
0.0
 10
-281.0
 20
-225.0
 30
0.0
 10
-281.0
 20
-225.0
 30
0.0
 10
-281.0
 20
-225.0
 30
0.0
 10
-281.0
 20
-225.0
 30
0.0
 10
-281.0
 20
-205.0
 30
0.0
 10
-281.0
 20
-205.0
 30
0.0
 10
-281.0
 20
-205.0
 30
0.0
 10
-281.0
 20
-205.0
 30
0.0
 10
-275.0
 20
-205.0
 30
0.0
 10
-275.0
 20
-205.0
 30
0.0
 10
-275.0
 20
-205.0
 30
0.0
 10
-275.0
 20
-205.0
 30
0.0
 10
-275.0
 20
-185.0
 30
0.0
 10
-275.0
 20
-185.0
 30
0.0
 10
-275.0
 20
-185.0
 30
0.0
 10
-275.0
 20
-185.0
 30
0.0
 10
-281.0
 20
-185.0
 30
0.0
 10
-281.0
 20
-185.0
 30
0.0
 10
-281.0
 20
-185.0
 30
0.0
 10
-281.0
 20
-185.0
 30
0.0
 10
-281.0
 20
-165.0
 30
0.0
 10
-281.0
 20
-165.0
 30
0.0
 10
-281.0
 20
-165.0
 30
0.0
 10
-281.0
 20
-165.0
 30
0.0
 10
-275.0
 20
-165.0
 30
0.0
 10
-275.0
 20
-165.0
 30
0.0
 10
-275.0
 20
-165.0
 30
0.0
 10
-275.0
 20
-165.0
 30
0.0
 10
-275.0
 20
-145.0
 30
0.0
 10
-275.0
 20
-145.0
 30
0.0
 10
-275.0
 20
-145.0
 30
0.0
 10
-275.0
 20
-145.0
 30
0.0
 10
-281.0
 20
-145.0
 30
0.0
 10
-281.0
 20
-145.0
 30
0.0
 10
-281.0
 20
-145.0
 30
0.0
 10
-281.0
 20
-145.0
 30
0.0
 10
-281.0
 20
-125.0
 30
0.0
 10
-281.0
 20
-125.0
 30
0.0
 10
-281.0
 20
-125.0
 30
0.0
 10
-281.0
 20
-125.0
 30
0.0
 10
-275.0
 20
-125.0
 30
0.0
 10
-275.0
 20
-125.0
 30
0.0
 10
-275.0
 20
-125.0
 30
0.0
 10
-275.0
 20
-125.0
 30
0.0
 10
-275.0
 20
-105.0
 30
0.0
 10
-275.0
 20
-105.0
 30
0.0
 10
-275.0
 20
-105.0
 30
0.0
 10
-275.0
 20
-105.0
 30
0.0
 10
-281.0
 20
-105.0
 30
0.0
 10
-281.0
 20
-105.0
 30
0.0
 10
-281.0
 20
-105.0
 30
0.0
 10
-281.0
 20
-105.0
 30
0.0
 10
-281.0
 20
-85.0
 30
0.0
 10
-281.0
 20
-85.0
 30
0.0
 10
-281.0
 20
-85.0
 30
0.0
 10
-281.0
 20
-85.0
 30
0.0
 10
-275.0
 20
-85.0
 30
0.0
 10
-275.0
 20
-85.0
 30
0.0
 10
-275.0
 20
-85.0
 30
0.0
 10
-275.0
 20
-85.0
 30
0.0
 10
-275.0
 20
-65.0
 30
0.0
 10
-275.0
 20
-65.0
 30
0.0
 10
-275.0
 20
-65.0
 30
0.0
 10
-275.0
 20
-65.0
 30
0.0
 10
-281.0
 20
-65.0
 30
0.0
 10
-281.0
 20
-65.0
 30
0.0
 10
-281.0
 20
-65.0
 30
0.0
 10
-281.0
 20
-65.0
 30
0.0
 10
-281.0
 20
-45.0
 30
0.0
 10
-281.0
 20
-45.0
 30
0.0
 10
-281.0
 20
-45.0
 30
0.0
 10
-281.0
 20
-45.0
 30
0.0
 10
-275.0
 20
-45.0
 30
0.0
 10
-275.0
 20
-45.0
 30
0.0
 10
-275.0
 20
-45.0
 30
0.0
 10
-275.0
 20
-45.0
 30
0.0
 10
-275.0
 20
-25.0
 30
0.0
 10
-275.0
 20
-25.0
 30
0.0
 10
-275.0
 20
-25.0
 30
0.0
 10
-275.0
 20
-25.0
 30
0.0
 10
-281.0
 20
-25.0
 30
0.0
 10
-281.0
 20
-25.0
 30
0.0
 10
-281.0
 20
-25.0
 30
0.0
 10
-281.0
 20
-25.0
 30
0.0
 10
-281.0
 20
-5.0
 30
0.0
 10
-281.0
 20
-5.0
 30
0.0
 10
-281.0
 20
-5.0
 30
0.0
 10
-281.0
 20
-5.0
 30
0.0
 10
-275.0
 20
-5.0
 30
0.0
 10
-275.0
 20
-5.0
 30
0.0
 10
-275.0
 20
-5.0
 30
0.0
 10
-275.0
 20
-5.0
 30
0.0
 10
-275.0
 20
15.0
 30
0.0
 10
-275.0
 20
15.0
 30
0.0
 10
-275.0
 20
15.0
 30
0.0
 10
-275.0
 20
15.0
 30
0.0
 10
-281.0
 20
15.0
 30
0.0
 10
-281.0
 20
15.0
 30
0.0
 10
-281.0
 20
15.0
 30
0.0
 10
-281.0
 20
15.0
 30
0.0
 10
-281.0
 20
29.0
 30
0.0
 10
-281.0
 20
29.0
 30
0.0
 10
-281.0
 20
29.0
 30
0.0
 10
-281.0
 20
29.0
 30
0.0
 10
-300.0
 20
29.0
 30
0.0
 10
-300.0
 20
29.0
 30
0.0
 10
-300.0
 20
29.0
 30
0.0
 10
-300.0
 20
29.0
 30
0.0
 10
-300.0
 20
35.0
 30
0.0
 10
-300.0
 20
35.0
 30
0.0
 10
-300.0
 20
35.0
 30
0.0
 10
-300.0
 20
35.0
 30
0.0
 10
-320.0
 20
35.0
 30
0.0
 10
-320.0
 20
35.0
 30
0.0
 10
-320.0
 20
35.0
 30
0.0
 10
-320.0
 20
35.0
 30
0.0
 10
-320.0
 20
29.0
 30
0.0
 10
-320.0
 20
29.0
 30
0.0
 10
-320.0
 20
29.0
 30
0.0
 10
-320.0
 20
29.0
 30
0.0
 10
-339.0
 20
29.0
 30
0.0
 10
-339.0
 20
29.0
 30
0.0
 10
-339.0
 20
29.0
 30
0.0
 10
-339.0
 20
29.0
 30
0.0
 10
-339.0
 20
15.0
 30
0.0
 10
-339.0
 20
15.0
 30
0.0
 10
-339.0
 20
15.0
 30
0.0
 10
-339.0
 20
15.0
 30
0.0
 10
-345.0
 20
15.0
 30
0.0
 10
-345.0
 20
15.0
 30
0.0
 10
-345.0
 20
15.0
 30
0.0
 10
-345.0
 20
15.0
 30
0.0
 10
-345.0
 20
-5.0
 30
0.0
 10
-345.0
 20
-5.0
 30
0.0
 10
-345.0
 20
-5.0
 30
0.0
 10
-345.0
 20
-5.0
 30
0.0
 10
-339.0
 20
-5.0
 30
0.0
 10
-339.0
 20
-5.0
 30
0.0
 10
-339.0
 20
-5.0
 30
0.0
 10
-339.0
 20
-5.0
 30
0.0
 10
-339.0
 20
-25.0
 30
0.0
 10
-339.0
 20
-25.0
 30
0.0
 10
-339.0
 20
-25.0
 30
0.0
 10
-339.0
 20
-25.0
 30
0.0
 10
-345.0
 20
-25.0
 30
0.0
 10
-345.0
 20
-25.0
 30
0.0
 10
-345.0
 20
-25.0
 30
0.0
 10
-345.0
 20
-25.0
 30
0.0
 10
-345.0
 20
-45.0
 30
0.0
 10
-345.0
 20
-45.0
 30
0.0
 10
-345.0
 20
-45.0
 30
0.0
 10
-345.0
 20
-45.0
 30
0.0
 10
-339.0
 20
-45.0
 30
0.0
 10
-339.0
 20
-45.0
 30
0.0
 10
-339.0
 20
-45.0
 30
0.0
 10
-339.0
 20
-45.0
 30
0.0
 10
-339.0
 20
-65.0
 30
0.0
 10
-339.0
 20
-65.0
 30
0.0
 10
-339.0
 20
-65.0
 30
0.0
 10
-339.0
 20
-65.0
 30
0.0
 10
-345.0
 20
-65.0
 30
0.0
 10
-345.0
 20
-65.0
 30
0.0
 10
-345.0
 20
-65.0
 30
0.0
 10
-345.0
 20
-65.0
 30
0.0
 10
-345.0
 20
-85.0
 30
0.0
 10
-345.0
 20
-85.0
 30
0.0
 10
-345.0
 20
-85.0
 30
0.0
 10
-345.0
 20
-85.0
 30
0.0
 10
-339.0
 20
-85.0
 30
0.0
 10
-339.0
 20
-85.0
 30
0.0
 10
-339.0
 20
-85.0
 30
0.0
 10
-339.0
 20
-85.0
 30
0.0
 10
-339.0
 20
-105.0
 30
0.0
 10
-339.0
 20
-105.0
 30
0.0
 10
-339.0
 20
-105.0
 30
0.0
 10
-339.0
 20
-105.0
 30
0.0
 10
-345.0
 20
-105.0
 30
0.0
 10
-345.0
 20
-105.0
 30
0.0
 10
-345.0
 20
-105.0
 30
0.0
 10
-345.0
 20
-105.0
 30
0.0
 10
-345.0
 20
-125.0
 30
0.0
 10
-345.0
 20
-125.0
 30
0.0
 10
-345.0
 20
-125.0
 30
0.0
 10
-345.0
 20
-125.0
 30
0.0
 10
-339.0
 20
-125.0
 30
0.0
 10
-339.0
 20
-125.0
 30
0.0
 10
-339.0
 20
-125.0
 30
0.0
 10
-339.0
 20
-125.0
 30
0.0
 10
-339.0
 20
-145.0
 30
0.0
 10
-339.0
 20
-145.0
 30
0.0
 10
-339.0
 20
-145.0
 30
0.0
 10
-339.0
 20
-145.0
 30
0.0
 10
-345.0
 20
-145.0
 30
0.0
 10
-345.0
 20
-145.0
 30
0.0
 10
-345.0
 20
-145.0
 30
0.0
 10
-345.0
 20
-145.0
 30
0.0
 10
-345.0
 20
-165.0
 30
0.0
 10
-345.0
 20
-165.0
 30
0.0
 10
-345.0
 20
-165.0
 30
0.0
 10
-345.0
 20
-165.0
 30
0.0
 10
-339.0
 20
-165.0
 30
0.0
 10
-339.0
 20
-165.0
 30
0.0
 10
-339.0
 20
-165.0
 30
0.0
 10
-339.0
 20
-165.0
 30
0.0
 10
-339.0
 20
-185.0
 30
0.0
 10
-339.0
 20
-185.0
 30
0.0
 10
-339.0
 20
-185.0
 30
0.0
 10
-339.0
 20
-185.0
 30
0.0
 10
-345.0
 20
-185.0
 30
0.0
 10
-345.0
 20
-185.0
 30
0.0
 10
-345.0
 20
-185.0
 30
0.0
 10
-345.0
 20
-185.0
 30
0.0
 10
-345.0
 20
-205.0
 30
0.0
 10
-345.0
 20
-205.0
 30
0.0
 10
-345.0
 20
-205.0
 30
0.0
 10
-345.0
 20
-205.0
 30
0.0
 10
-339.0
 20
-205.0
 30
0.0
 10
-339.0
 20
-205.0
 30
0.0
 10
-339.0
 20
-205.0
 30
0.0
 10
-339.0
 20
-205.0
 30
0.0
 10
-339.0
 20
-225.0
 30
0.0
 10
-339.0
 20
-225.0
 30
0.0
 10
-339.0
 20
-225.0
 30
0.0
 10
-339.0
 20
-225.0
 30
0.0
 10
-345.0
 20
-225.0
 30
0.0
 10
-345.0
 20
-225.0
 30
0.0
 10
-345.0
 20
-225.0
 30
0.0
 10
-345.0
 20
-225.0
 30
0.0
 10
-345.0
 20
-245.0
 30
0.0
 10
-345.0
 20
-245.0
 30
0.0
 10
-345.0
 20
-245.0
 30
0.0
 10
-345.0
 20
-245.0
 30
0.0
 10
-339.0
 20
-245.0
 30
0.0
 10
-339.0
 20
-245.0
 30
0.0
 10
-339.0
 20
-245.0
 30
0.0
 10
-339.0
 20
-245.0
 30
0.0
 10
-339.0
 20
-259.0
 30
0.0
 10
-339.0
 20
-259.0
 30
0.0
 10
-339.0
 20
-259.0
 30
0.0
 10
-339.0
 20
-259.0
 30
0.0
 10
-320.0
 20
-259.0
 30
0.0
 10
-320.0
 20
-259.0
 30
0.0
 10
-320.0
 20
-259.0
 30
0.0
 10
-320.0
 20
-259.0
 30
0.0
 10
-320.0
 20
-265.0
 30
0.0
 10
-320.0
 20
-265.0
 30
0.0
 10
-320.0
 20
-265.0
 30
0.0
 10
-320.0
 20
-265.0
 30
0.0
 10
-300.0
 20
-265.0
 30
0.0
 10
-300.0
 20
-265.0
 30
0.0
 10
-300.0
 20
-265.0
 30
0.0
 10
-300.0
 20
-265.0
 30
0.0
 10
-300.0
 20
-259.0
 30
0.0
 10
-300.0
 20
-259.0
 30
0.0
 10
-300.0
 20
-259.0
 30
0.0
 10
-300.0
 20
-259.0
 30
0.0
 10
-281.0
 20
-259.0
 30
0.0
 10
-281.0
 20
-259.0
 30
0.0
 10
-281.0
 20
-259.0
 30
0.0
 10
-281.0
 20
-259.0
 30
0.0
 10
-281.0
 20
-245.0
 30
0.0
 10
-281.0
 20
-245.0
 30
0.0
 10
-281.0
 20
-245.0
 30
0.0
 10
-281.0
 20
-245.0
 30
0.0
 10
-275.0
 20
-245.0
 30
0.0
 10
-275.0
 20
-245.0
 30
0.0
  0
SPLINE
  5
71
330
1F
100
AcDbEntity
  8
draw
 62
   250
370
    20
100
AcDbSpline
210
0.0
220
0.0
230
1.0
 70
    11
 71
     3
 72
    36
 73
    32
 74
     0
 42
0.000000001
 43
0.0000000001
 40
0.0
 40
0.0
 40
0.0
 40
0.0
 40
0.1111111111111111
 40
0.1111111111111111
 40
0.1111111111111111
 40
0.1111111111111111
 40
0.2222222222222222
 40
0.2222222222222222
 40
0.2222222222222222
 40
0.2222222222222222
 40
0.3333333333333333
 40
0.3333333333333333
 40
0.3333333333333333
 40
0.3333333333333333
 40
0.4444444444444444
 40
0.4444444444444444
 40
0.4444444444444444
 40
0.4444444444444444
 40
0.5555555555555556
 40
0.5555555555555556
 40
0.5555555555555556
 40
0.5555555555555556
 40
0.6666666666666666
 40
0.6666666666666666
 40
0.6666666666666666
 40
0.6666666666666666
 40
0.7777777777777778
 40
0.7777777777777778
 40
0.7777777777777778
 40
0.7777777777777778
 40
1.0
 40
1.0
 40
1.0
 40
1.0
 10
-327.4999
 20
-77.5001
 30
0.0
 10
-327.4999
 20
-77.5001
 30
0.0
 10
-327.4999
 20
-12.4999
 30
0.0
 10
-327.4999
 20
-12.4999
 30
0.0
 10
-327.4999
 20
-12.4999
 30
0.0
 10
-327.4999
 20
-2.8749
 30
0.0
 10
-319.625
 20
5.0
 30
0.0
 10
-310.0
 20
5.0
 30
0.0
 10
-310.0
 20
5.0
 30
0.0
 10
-310.0
 20
5.0
 30
0.0
 10
-309.9998
 20
5.0
 30
0.0
 10
-309.9998
 20
5.0
 30
0.0
 10
-309.9998
 20
5.0
 30
0.0
 10
-300.3748
 20
5.0
 30
0.0
 10
-292.4999
 20
-2.8749
 30
0.0
 10
-292.4999
 20
-12.4999
 30
0.0
 10
-292.4999
 20
-12.4999
 30
0.0
 10
-292.4999
 20
-12.4999
 30
0.0
 10
-292.4999
 20
-77.5001
 30
0.0
 10
-292.4999
 20
-77.5001
 30
0.0
 10
-292.4999
 20
-77.5001
 30
0.0
 10
-292.4999
 20
-87.1251
 30
0.0
 10
-300.3748
 20
-95.0
 30
0.0
 10
-309.9998
 20
-95.0
 30
0.0
 10
-309.9998
 20
-95.0
 30
0.0
 10
-309.9998
 20
-95.0
 30
0.0
 10
-310.0
 20
-95.0
 30
0.0
 10
-310.0
 20
-95.0
 30
0.0
 10
-310.0
 20
-95.0
 30
0.0
 10
-319.625
 20
-95.0
 30
0.0
 10
-327.4999
 20
-87.1251
 30
0.0
 10
-327.4999
 20
-77.5001
 30
0.0
  0
SPLINE
  5
72
330
1F
100
AcDbEntity
  8
draw
 62
   250
370
    20
100
AcDbSpline
210
0.0
220
0.0
230
1.0
 70
    11
 71
     3
 72
    36
 73
    32
 74
     0
 42
0.000000001
 43
0.0000000001
 40
0.0
 40
0.0
 40
0.0
 40
0.0
 40
0.1111111111111111
 40
0.1111111111111111
 40
0.1111111111111111
 40
0.1111111111111111
 40
0.2222222222222222
 40
0.2222222222222222
 40
0.2222222222222222
 40
0.2222222222222222
 40
0.3333333333333333
 40
0.3333333333333333
 40
0.3333333333333333
 40
0.3333333333333333
 40
0.4444444444444444
 40
0.4444444444444444
 40
0.4444444444444444
 40
0.4444444444444444
 40
0.5555555555555556
 40
0.5555555555555556
 40
0.5555555555555556
 40
0.5555555555555556
 40
0.6666666666666666
 40
0.6666666666666666
 40
0.6666666666666666
 40
0.6666666666666666
 40
0.7777777777777778
 40
0.7777777777777778
 40
0.7777777777777778
 40
0.7777777777777778
 40
1.0
 40
1.0
 40
1.0
 40
1.0
 10
-327.4999
 20
-217.5001
 30
0.0
 10
-327.4999
 20
-217.5001
 30
0.0
 10
-327.4999
 20
-152.4999
 30
0.0
 10
-327.4999
 20
-152.4999
 30
0.0
 10
-327.4999
 20
-152.4999
 30
0.0
 10
-327.4999
 20
-142.8749
 30
0.0
 10
-319.625
 20
-135.0
 30
0.0
 10
-310.0
 20
-135.0
 30
0.0
 10
-310.0
 20
-135.0
 30
0.0
 10
-310.0
 20
-135.0
 30
0.0
 10
-309.9998
 20
-135.0
 30
0.0
 10
-309.9998
 20
-135.0
 30
0.0
 10
-309.9998
 20
-135.0
 30
0.0
 10
-300.3748
 20
-135.0
 30
0.0
 10
-292.4999
 20
-142.8749
 30
0.0
 10
-292.4999
 20
-152.4999
 30
0.0
 10
-292.4999
 20
-152.4999
 30
0.0
 10
-292.4999
 20
-152.4999
 30
0.0
 10
-292.4999
 20
-217.5001
 30
0.0
 10
-292.4999
 20
-217.5001
 30
0.0
 10
-292.4999
 20
-217.5001
 30
0.0
 10
-292.4999
 20
-227.1251
 30
0.0
 10
-300.3748
 20
-235.0
 30
0.0
 10
-309.9998
 20
-235.0
 30
0.0
 10
-309.9998
 20
-235.0
 30
0.0
 10
-309.9998
 20
-235.0
 30
0.0
 10
-310.0
 20
-235.0
 30
0.0
 10
-310.0
 20
-235.0
 30
0.0
 10
-310.0
 20
-235.0
 30
0.0
 10
-319.625
 20
-235.0
 30
0.0
 10
-327.4999
 20
-227.1251
 30
0.0
 10
-327.4999
 20
-217.5001
 30
0.0
  0
SPLINE
  5
73
330
1F
100
AcDbEntity
  8
draw
 62
   250
370
    20
100
AcDbSpline
210
0.0
220
0.0
230
1.0
 70
    11
 71
     3
 72
   468
 73
   464
 74
     0
 42
0.000000001
 43
0.0000000001
 40
0.0
 40
0.0
 40
0.0
 40
0.0
 40
0.0085470085470085
 40
0.0085470085470085
 40
0.0085470085470085
 40
0.0085470085470085
 40
0.0170940170940171
 40
0.0170940170940171
 40
0.0170940170940171
 40
0.0170940170940171
 40
0.0256410256410256
 40
0.0256410256410256
 40
0.0256410256410256
 40
0.0256410256410256
 40
0.0341880341880342
 40
0.0341880341880342
 40
0.0341880341880342
 40
0.0341880341880342
 40
0.0427350427350427
 40
0.0427350427350427
 40
0.0427350427350427
 40
0.0427350427350427
 40
0.0512820512820513
 40
0.0512820512820513
 40
0.0512820512820513
 40
0.0512820512820513
 40
0.0598290598290598
 40
0.0598290598290598
 40
0.0598290598290598
 40
0.0598290598290598
 40
0.0683760683760684
 40
0.0683760683760684
 40
0.0683760683760684
 40
0.0683760683760684
 40
0.0769230769230769
 40
0.0769230769230769
 40
0.0769230769230769
 40
0.0769230769230769
 40
0.0854700854700855
 40
0.0854700854700855
 40
0.0854700854700855
 40
0.0854700854700855
 40
0.094017094017094
 40
0.094017094017094
 40
0.094017094017094
 40
0.094017094017094
 40
0.1025641025641026
 40
0.1025641025641026
 40
0.1025641025641026
 40
0.1025641025641026
 40
0.1111111111111111
 40
0.1111111111111111
 40
0.1111111111111111
 40
0.1111111111111111
 40
0.1196581196581197
 40
0.1196581196581197
 40
0.1196581196581197
 40
0.1196581196581197
 40
0.1282051282051282
 40
0.1282051282051282
 40
0.1282051282051282
 40
0.1282051282051282
 40
0.1367521367521368
 40
0.1367521367521368
 40
0.1367521367521368
 40
0.1367521367521368
 40
0.1452991452991453
 40
0.1452991452991453
 40
0.1452991452991453
 40
0.1452991452991453
 40
0.1538461538461539
 40
0.1538461538461539
 40
0.1538461538461539
 40
0.1538461538461539
 40
0.1623931623931624
 40
0.1623931623931624
 40
0.1623931623931624
 40
0.1623931623931624
 40
0.1709401709401709
 40
0.1709401709401709
 40
0.1709401709401709
 40
0.1709401709401709
 40
0.1794871794871795
 40
0.1794871794871795
 40
0.1794871794871795
 40
0.1794871794871795
 40
0.188034188034188
 40
0.188034188034188
 40
0.188034188034188
 40
0.188034188034188
 40
0.1965811965811966
 40
0.1965811965811966
 40
0.1965811965811966
 40
0.1965811965811966
 40
0.2051282051282051
 40
0.2051282051282051
 40
0.2051282051282051
 40
0.2051282051282051
 40
0.2136752136752137
 40
0.2136752136752137
 40
0.2136752136752137
 40
0.2136752136752137
 40
0.2222222222222222
 40
0.2222222222222222
 40
0.2222222222222222
 40
0.2222222222222222
 40
0.2307692307692308
 40
0.2307692307692308
 40
0.2307692307692308
 40
0.2307692307692308
 40
0.2393162393162393
 40
0.2393162393162393
 40
0.2393162393162393
 40
0.2393162393162393
 40
0.2478632478632479
 40
0.2478632478632479
 40
0.2478632478632479
 40
0.2478632478632479
 40
0.2564102564102564
 40
0.2564102564102564
 40
0.2564102564102564
 40
0.2564102564102564
 40
0.264957264957265
 40
0.264957264957265
 40
0.264957264957265
 40
0.264957264957265
 40
0.2735042735042735
 40
0.2735042735042735
 40
0.2735042735042735
 40
0.2735042735042735
 40
0.282051282051282
 40
0.282051282051282
 40
0.282051282051282
 40
0.282051282051282
 40
0.2905982905982906
 40
0.2905982905982906
 40
0.2905982905982906
 40
0.2905982905982906
 40
0.2991452991452991
 40
0.2991452991452991
 40
0.2991452991452991
 40
0.2991452991452991
 40
0.3076923076923077
 40
0.3076923076923077
 40
0.3076923076923077
 40
0.3076923076923077
 40
0.3162393162393162
 40
0.3162393162393162
 40
0.3162393162393162
 40
0.3162393162393162
 40
0.3247863247863248
 40
0.3247863247863248
 40
0.3247863247863248
 40
0.3247863247863248
 40
0.3333333333333333
 40
0.3333333333333333
 40
0.3333333333333333
 40
0.3333333333333333
 40
0.3418803418803419
 40
0.3418803418803419
 40
0.3418803418803419
 40
0.3418803418803419
 40
0.3504273504273504
 40
0.3504273504273504
 40
0.3504273504273504
 40
0.3504273504273504
 40
0.358974358974359
 40
0.358974358974359
 40
0.358974358974359
 40
0.358974358974359
 40
0.3675213675213675
 40
0.3675213675213675
 40
0.3675213675213675
 40
0.3675213675213675
 40
0.3760683760683761
 40
0.3760683760683761
 40
0.3760683760683761
 40
0.3760683760683761
 40
0.3846153846153846
 40
0.3846153846153846
 40
0.3846153846153846
 40
0.3846153846153846
 40
0.3931623931623932
 40
0.3931623931623932
 40
0.3931623931623932
 40
0.3931623931623932
 40
0.4017094017094017
 40
0.4017094017094017
 40
0.4017094017094017
 40
0.4017094017094017
 40
0.4102564102564102
 40
0.4102564102564102
 40
0.4102564102564102
 40
0.4102564102564102
 40
0.4188034188034188
 40
0.4188034188034188
 40
0.4188034188034188
 40
0.4188034188034188
 40
0.4273504273504273
 40
0.4273504273504273
 40
0.4273504273504273
 40
0.4273504273504273
 40
0.4358974358974359
 40
0.4358974358974359
 40
0.4358974358974359
 40
0.4358974358974359
 40
0.4444444444444444
 40
0.4444444444444444
 40
0.4444444444444444
 40
0.4444444444444444
 40
0.452991452991453
 40
0.452991452991453
 40
0.452991452991453
 40
0.452991452991453
 40
0.4615384615384616
 40
0.4615384615384616
 40
0.4615384615384616
 40
0.4615384615384616
 40
0.4700854700854701
 40
0.4700854700854701
 40
0.4700854700854701
 40
0.4700854700854701
 40
0.4786324786324787
 40
0.4786324786324787
 40
0.4786324786324787
 40
0.4786324786324787
 40
0.4871794871794872
 40
0.4871794871794872
 40
0.4871794871794872
 40
0.4871794871794872
 40
0.4957264957264957
 40
0.4957264957264957
 40
0.4957264957264957
 40
0.4957264957264957
 40
0.5042735042735043
 40
0.5042735042735043
 40
0.5042735042735043
 40
0.5042735042735043
 40
0.5128205128205128
 40
0.5128205128205128
 40
0.5128205128205128
 40
0.5128205128205128
 40
0.5213675213675214
 40
0.5213675213675214
 40
0.5213675213675214
 40
0.5213675213675214
 40
0.5299145299145299
 40
0.5299145299145299
 40
0.5299145299145299
 40
0.5299145299145299
 40
0.5384615384615384
 40
0.5384615384615384
 40
0.5384615384615384
 40
0.5384615384615384
 40
0.5470085470085471
 40
0.5470085470085471
 40
0.5470085470085471
 40
0.5470085470085471
 40
0.5555555555555556
 40
0.5555555555555556
 40
0.5555555555555556
 40
0.5555555555555556
 40
0.5641025641025641
 40
0.5641025641025641
 40
0.5641025641025641
 40
0.5641025641025641
 40
0.5726495726495726
 40
0.5726495726495726
 40
0.5726495726495726
 40
0.5726495726495726
 40
0.5811965811965812
 40
0.5811965811965812
 40
0.5811965811965812
 40
0.5811965811965812
 40
0.5897435897435898
 40
0.5897435897435898
 40
0.5897435897435898
 40
0.5897435897435898
 40
0.5982905982905983
 40
0.5982905982905983
 40
0.5982905982905983
 40
0.5982905982905983
 40
0.6068376068376068
 40
0.6068376068376068
 40
0.6068376068376068
 40
0.6068376068376068
 40
0.6153846153846154
 40
0.6153846153846154
 40
0.6153846153846154
 40
0.6153846153846154
 40
0.6239316239316239
 40
0.6239316239316239
 40
0.6239316239316239
 40
0.6239316239316239
 40
0.6324786324786325
 40
0.6324786324786325
 40
0.6324786324786325
 40
0.6324786324786325
 40
0.6410256410256411
 40
0.6410256410256411
 40
0.6410256410256411
 40
0.6410256410256411
 40
0.6495726495726496
 40
0.6495726495726496
 40
0.6495726495726496
 40
0.6495726495726496
 40
0.6581196581196581
 40
0.6581196581196581
 40
0.6581196581196581
 40
0.6581196581196581
 40
0.6666666666666666
 40
0.6666666666666666
 40
0.6666666666666666
 40
0.6666666666666666
 40
0.6752136752136753
 40
0.6752136752136753
 40
0.6752136752136753
 40
0.6752136752136753
 40
0.6837606837606838
 40
0.6837606837606838
 40
0.6837606837606838
 40
0.6837606837606838
 40
0.6923076923076923
 40
0.6923076923076923
 40
0.6923076923076923
 40
0.6923076923076923
 40
0.7008547008547008
 40
0.7008547008547008
 40
0.7008547008547008
 40
0.7008547008547008
 40
0.7094017094017094
 40
0.7094017094017094
 40
0.7094017094017094
 40
0.7094017094017094
 40
0.717948717948718
 40
0.717948717948718
 40
0.717948717948718
 40
0.717948717948718
 40
0.7264957264957265
 40
0.7264957264957265
 40
0.7264957264957265
 40
0.7264957264957265
 40
0.7350427350427351
 40
0.7350427350427351
 40
0.7350427350427351
 40
0.7350427350427351
 40
0.7435897435897436
 40
0.7435897435897436
 40
0.7435897435897436
 40
0.7435897435897436
 40
0.7521367521367521
 40
0.7521367521367521
 40
0.7521367521367521
 40
0.7521367521367521
 40
0.7606837606837606
 40
0.7606837606837606
 40
0.7606837606837606
 40
0.7606837606837606
 40
0.7692307692307693
 40
0.7692307692307693
 40
0.7692307692307693
 40
0.7692307692307693
 40
0.7777777777777778
 40
0.7777777777777778
 40
0.7777777777777778
 40
0.7777777777777778
 40
0.7863247863247863
 40
0.7863247863247863
 40
0.7863247863247863
 40
0.7863247863247863
 40
0.7948717948717948
 40
0.7948717948717948
 40
0.7948717948717948
 40
0.7948717948717948
 40
0.8034188034188035
 40
0.8034188034188035
 40
0.8034188034188035
 40
0.8034188034188035
 40
0.811965811965812
 40
0.811965811965812
 40
0.811965811965812
 40
0.811965811965812
 40
0.8205128205128205
 40
0.8205128205128205
 40
0.8205128205128205
 40
0.8205128205128205
 40
0.8290598290598291
 40
0.8290598290598291
 40
0.8290598290598291
 40
0.8290598290598291
 40
0.8376068376068376
 40
0.8376068376068376
 40
0.8376068376068376
 40
0.8376068376068376
 40
0.8461538461538461
 40
0.8461538461538461
 40
0.8461538461538461
 40
0.8461538461538461
 40
0.8547008547008547
 40
0.8547008547008547
 40
0.8547008547008547
 40
0.8547008547008547
 40
0.8632478632478633
 40
0.8632478632478633
 40
0.8632478632478633
 40
0.8632478632478633
 40
0.8717948717948718
 40
0.8717948717948718
 40
0.8717948717948718
 40
0.8717948717948718
 40
0.8803418803418803
 40
0.8803418803418803
 40
0.8803418803418803
 40
0.8803418803418803
 40
0.8888888888888888
 40
0.8888888888888888
 40
0.8888888888888888
 40
0.8888888888888888
 40
0.8974358974358975
 40
0.8974358974358975
 40
0.8974358974358975
 40
0.8974358974358975
 40
0.905982905982906
 40
0.905982905982906
 40
0.905982905982906
 40
0.905982905982906
 40
0.9145299145299145
 40
0.9145299145299145
 40
0.9145299145299145
 40
0.9145299145299145
 40
0.9230769230769231
 40
0.9230769230769231
 40
0.9230769230769231
 40
0.9230769230769231
 40
0.9316239316239316
 40
0.9316239316239316
 40
0.9316239316239316
 40
0.9316239316239316
 40
0.9401709401709402
 40
0.9401709401709402
 40
0.9401709401709402
 40
0.9401709401709402
 40
0.9487179487179487
 40
0.9487179487179487
 40
0.9487179487179487
 40
0.9487179487179487
 40
0.9572649572649573
 40
0.9572649572649573
 40
0.9572649572649573
 40
0.9572649572649573
 40
0.9658119658119658
 40
0.9658119658119658
 40
0.9658119658119658
 40
0.9658119658119658
 40
0.9743589743589743
 40
0.9743589743589743
 40
0.9743589743589743
 40
0.9743589743589743
 40
0.9829059829059829
 40
0.9829059829059829
 40
0.9829059829059829
 40
0.9829059829059829
 40
1.0
 40
1.0
 40
1.0
 40
1.0
 10
-265.0
 20
-265.0
 30
0.0
 10
-265.0
 20
-265.0
 30
0.0
 10
-245.0
 20
-265.0
 30
0.0
 10
-245.0
 20
-265.0
 30
0.0
 10
-245.0
 20
-265.0
 30
0.0
 10
-245.0
 20
-265.0
 30
0.0
 10
-245.0
 20
-259.0
 30
0.0
 10
-245.0
 20
-259.0
 30
0.0
 10
-245.0
 20
-259.0
 30
0.0
 10
-245.0
 20
-259.0
 30
0.0
 10
-225.0
 20
-259.0
 30
0.0
 10
-225.0
 20
-259.0
 30
0.0
 10
-225.0
 20
-259.0
 30
0.0
 10
-225.0
 20
-259.0
 30
0.0
 10
-225.0
 20
-265.0
 30
0.0
 10
-225.0
 20
-265.0
 30
0.0
 10
-225.0
 20
-265.0
 30
0.0
 10
-225.0
 20
-265.0
 30
0.0
 10
-205.0
 20
-265.0
 30
0.0
 10
-205.0
 20
-265.0
 30
0.0
 10
-205.0
 20
-265.0
 30
0.0
 10
-205.0
 20
-265.0
 30
0.0
 10
-205.0
 20
-259.0
 30
0.0
 10
-205.0
 20
-259.0
 30
0.0
 10
-205.0
 20
-259.0
 30
0.0
 10
-205.0
 20
-259.0
 30
0.0
 10
-185.0
 20
-259.0
 30
0.0
 10
-185.0
 20
-259.0
 30
0.0
 10
-185.0
 20
-259.0
 30
0.0
 10
-185.0
 20
-259.0
 30
0.0
 10
-185.0
 20
-265.0
 30
0.0
 10
-185.0
 20
-265.0
 30
0.0
 10
-185.0
 20
-265.0
 30
0.0
 10
-185.0
 20
-265.0
 30
0.0
 10
-165.0
 20
-265.0
 30
0.0
 10
-165.0
 20
-265.0
 30
0.0
 10
-165.0
 20
-265.0
 30
0.0
 10
-165.0
 20
-265.0
 30
0.0
 10
-165.0
 20
-259.0
 30
0.0
 10
-165.0
 20
-259.0
 30
0.0
 10
-165.0
 20
-259.0
 30
0.0
 10
-165.0
 20
-259.0
 30
0.0
 10
-145.0
 20
-259.0
 30
0.0
 10
-145.0
 20
-259.0
 30
0.0
 10
-145.0
 20
-259.0
 30
0.0
 10
-145.0
 20
-259.0
 30
0.0
 10
-145.0
 20
-265.0
 30
0.0
 10
-145.0
 20
-265.0
 30
0.0
 10
-145.0
 20
-265.0
 30
0.0
 10
-145.0
 20
-265.0
 30
0.0
 10
-125.0
 20
-265.0
 30
0.0
 10
-125.0
 20
-265.0
 30
0.0
 10
-125.0
 20
-265.0
 30
0.0
 10
-125.0
 20
-265.0
 30
0.0
 10
-125.0
 20
-259.0
 30
0.0
 10
-125.0
 20
-259.0
 30
0.0
 10
-125.0
 20
-259.0
 30
0.0
 10
-125.0
 20
-259.0
 30
0.0
 10
-105.0
 20
-259.0
 30
0.0
 10
-105.0
 20
-259.0
 30
0.0
 10
-105.0
 20
-259.0
 30
0.0
 10
-105.0
 20
-259.0
 30
0.0
 10
-105.0
 20
-265.0
 30
0.0
 10
-105.0
 20
-265.0
 30
0.0
 10
-105.0
 20
-265.0
 30
0.0
 10
-105.0
 20
-265.0
 30
0.0
 10
-85.0
 20
-265.0
 30
0.0
 10
-85.0
 20
-265.0
 30
0.0
 10
-85.0
 20
-265.0
 30
0.0
 10
-85.0
 20
-265.0
 30
0.0
 10
-85.0
 20
-259.0
 30
0.0
 10
-85.0
 20
-259.0
 30
0.0
 10
-85.0
 20
-259.0
 30
0.0
 10
-85.0
 20
-259.0
 30
0.0
 10
-65.0
 20
-259.0
 30
0.0
 10
-65.0
 20
-259.0
 30
0.0
 10
-65.0
 20
-259.0
 30
0.0
 10
-65.0
 20
-259.0
 30
0.0
 10
-65.0
 20
-265.0
 30
0.0
 10
-65.0
 20
-265.0
 30
0.0
 10
-65.0
 20
-265.0
 30
0.0
 10
-65.0
 20
-265.0
 30
0.0
 10
-45.0
 20
-265.0
 30
0.0
 10
-45.0
 20
-265.0
 30
0.0
 10
-45.0
 20
-265.0
 30
0.0
 10
-45.0
 20
-265.0
 30
0.0
 10
-45.0
 20
-259.0
 30
0.0
 10
-45.0
 20
-259.0
 30
0.0
 10
-45.0
 20
-259.0
 30
0.0
 10
-45.0
 20
-259.0
 30
0.0
 10
-25.0
 20
-259.0
 30
0.0
 10
-25.0
 20
-259.0
 30
0.0
 10
-25.0
 20
-259.0
 30
0.0
 10
-25.0
 20
-259.0
 30
0.0
 10
-25.0
 20
-265.0
 30
0.0
 10
-25.0
 20
-265.0
 30
0.0
 10
-25.0
 20
-265.0
 30
0.0
 10
-25.0
 20
-265.0
 30
0.0
 10
-5.0
 20
-265.0
 30
0.0
 10
-5.0
 20
-265.0
 30
0.0
 10
-5.0
 20
-265.0
 30
0.0
 10
-5.0
 20
-265.0
 30
0.0
 10
-5.0
 20
-259.0
 30
0.0
 10
-5.0
 20
-259.0
 30
0.0
 10
-5.0
 20
-259.0
 30
0.0
 10
-5.0
 20
-259.0
 30
0.0
 10
15.0
 20
-259.0
 30
0.0
 10
15.0
 20
-259.0
 30
0.0
 10
15.0
 20
-259.0
 30
0.0
 10
15.0
 20
-259.0
 30
0.0
 10
15.0
 20
-265.0
 30
0.0
 10
15.0
 20
-265.0
 30
0.0
 10
15.0
 20
-265.0
 30
0.0
 10
15.0
 20
-265.0
 30
0.0
 10
35.0
 20
-265.0
 30
0.0
 10
35.0
 20
-265.0
 30
0.0
 10
35.0
 20
-265.0
 30
0.0
 10
35.0
 20
-265.0
 30
0.0
 10
35.0
 20
-245.0
 30
0.0
 10
35.0
 20
-245.0
 30
0.0
 10
35.0
 20
-245.0
 30
0.0
 10
35.0
 20
-245.0
 30
0.0
 10
29.0
 20
-245.0
 30
0.0
 10
29.0
 20
-245.0
 30
0.0
 10
29.0
 20
-245.0
 30
0.0
 10
29.0
 20
-245.0
 30
0.0
 10
29.0
 20
-225.0
 30
0.0
 10
29.0
 20
-225.0
 30
0.0
 10
29.0
 20
-225.0
 30
0.0
 10
29.0
 20
-225.0
 30
0.0
 10
35.0
 20
-225.0
 30
0.0
 10
35.0
 20
-225.0
 30
0.0
 10
35.0
 20
-225.0
 30
0.0
 10
35.0
 20
-225.0
 30
0.0
 10
35.0
 20
-205.0
 30
0.0
 10
35.0
 20
-205.0
 30
0.0
 10
35.0
 20
-205.0
 30
0.0
 10
35.0
 20
-205.0
 30
0.0
 10
29.0
 20
-205.0
 30
0.0
 10
29.0
 20
-205.0
 30
0.0
 10
29.0
 20
-205.0
 30
0.0
 10
29.0
 20
-205.0
 30
0.0
 10
29.0
 20
-185.0
 30
0.0
 10
29.0
 20
-185.0
 30
0.0
 10
29.0
 20
-185.0
 30
0.0
 10
29.0
 20
-185.0
 30
0.0
 10
35.0
 20
-185.0
 30
0.0
 10
35.0
 20
-185.0
 30
0.0
 10
35.0
 20
-185.0
 30
0.0
 10
35.0
 20
-185.0
 30
0.0
 10
35.0
 20
-165.0
 30
0.0
 10
35.0
 20
-165.0
 30
0.0
 10
35.0
 20
-165.0
 30
0.0
 10
35.0
 20
-165.0
 30
0.0
 10
29.0
 20
-165.0
 30
0.0
 10
29.0
 20
-165.0
 30
0.0
 10
29.0
 20
-165.0
 30
0.0
 10
29.0
 20
-165.0
 30
0.0
 10
29.0
 20
-145.0
 30
0.0
 10
29.0
 20
-145.0
 30
0.0
 10
29.0
 20
-145.0
 30
0.0
 10
29.0
 20
-145.0
 30
0.0
 10
35.0
 20
-145.0
 30
0.0
 10
35.0
 20
-145.0
 30
0.0
 10
35.0
 20
-145.0
 30
0.0
 10
35.0
 20
-145.0
 30
0.0
 10
35.0
 20
-125.0
 30
0.0
 10
35.0
 20
-125.0
 30
0.0
 10
35.0
 20
-125.0
 30
0.0
 10
35.0
 20
-125.0
 30
0.0
 10
29.0
 20
-125.0
 30
0.0
 10
29.0
 20
-125.0
 30
0.0
 10
29.0
 20
-125.0
 30
0.0
 10
29.0
 20
-125.0
 30
0.0
 10
29.0
 20
-105.0
 30
0.0
 10
29.0
 20
-105.0
 30
0.0
 10
29.0
 20
-105.0
 30
0.0
 10
29.0
 20
-105.0
 30
0.0
 10
35.0
 20
-105.0
 30
0.0
 10
35.0
 20
-105.0
 30
0.0
 10
35.0
 20
-105.0
 30
0.0
 10
35.0
 20
-105.0
 30
0.0
 10
35.0
 20
-85.0
 30
0.0
 10
35.0
 20
-85.0
 30
0.0
 10
35.0
 20
-85.0
 30
0.0
 10
35.0
 20
-85.0
 30
0.0
 10
29.0
 20
-85.0
 30
0.0
 10
29.0
 20
-85.0
 30
0.0
 10
29.0
 20
-85.0
 30
0.0
 10
29.0
 20
-85.0
 30
0.0
 10
29.0
 20
-65.0
 30
0.0
 10
29.0
 20
-65.0
 30
0.0
 10
29.0
 20
-65.0
 30
0.0
 10
29.0
 20
-65.0
 30
0.0
 10
35.0
 20
-65.0
 30
0.0
 10
35.0
 20
-65.0
 30
0.0
 10
35.0
 20
-65.0
 30
0.0
 10
35.0
 20
-65.0
 30
0.0
 10
35.0
 20
-45.0
 30
0.0
 10
35.0
 20
-45.0
 30
0.0
 10
35.0
 20
-45.0
 30
0.0
 10
35.0
 20
-45.0
 30
0.0
 10
29.0
 20
-45.0
 30
0.0
 10
29.0
 20
-45.0
 30
0.0
 10
29.0
 20
-45.0
 30
0.0
 10
29.0
 20
-45.0
 30
0.0
 10
29.0
 20
-25.0
 30
0.0
 10
29.0
 20
-25.0
 30
0.0
 10
29.0
 20
-25.0
 30
0.0
 10
29.0
 20
-25.0
 30
0.0
 10
35.0
 20
-25.0
 30
0.0
 10
35.0
 20
-25.0
 30
0.0
 10
35.0
 20
-25.0
 30
0.0
 10
35.0
 20
-25.0
 30
0.0
 10
35.0
 20
-5.0
 30
0.0
 10
35.0
 20
-5.0
 30
0.0
 10
35.0
 20
-5.0
 30
0.0
 10
35.0
 20
-5.0
 30
0.0
 10
29.0
 20
-5.0
 30
0.0
 10
29.0
 20
-5.0
 30
0.0
 10
29.0
 20
-5.0
 30
0.0
 10
29.0
 20
-5.0
 30
0.0
 10
29.0
 20
15.0
 30
0.0
 10
29.0
 20
15.0
 30
0.0
 10
29.0
 20
15.0
 30
0.0
 10
29.0
 20
15.0
 30
0.0
 10
35.0
 20
15.0
 30
0.0
 10
35.0
 20
15.0
 30
0.0
 10
35.0
 20
15.0
 30
0.0
 10
35.0
 20
15.0
 30
0.0
 10
35.0
 20
35.0
 30
0.0
 10
35.0
 20
35.0
 30
0.0
 10
35.0
 20
35.0
 30
0.0
 10
35.0
 20
35.0
 30
0.0
 10
15.0
 20
35.0
 30
0.0
 10
15.0
 20
35.0
 30
0.0
 10
15.0
 20
35.0
 30
0.0
 10
15.0
 20
35.0
 30
0.0
 10
15.0
 20
29.0
 30
0.0
 10
15.0
 20
29.0
 30
0.0
 10
15.0
 20
29.0
 30
0.0
 10
15.0
 20
29.0
 30
0.0
 10
-5.0
 20
29.0
 30
0.0
 10
-5.0
 20
29.0
 30
0.0
 10
-5.0
 20
29.0
 30
0.0
 10
-5.0
 20
29.0
 30
0.0
 10
-5.0
 20
35.0
 30
0.0
 10
-5.0
 20
35.0
 30
0.0
 10
-5.0
 20
35.0
 30
0.0
 10
-5.0
 20
35.0
 30
0.0
 10
-25.0
 20
35.0
 30
0.0
 10
-25.0
 20
35.0
 30
0.0
 10
-25.0
 20
35.0
 30
0.0
 10
-25.0
 20
35.0
 30
0.0
 10
-25.0
 20
29.0
 30
0.0
 10
-25.0
 20
29.0
 30
0.0
 10
-25.0
 20
29.0
 30
0.0
 10
-25.0
 20
29.0
 30
0.0
 10
-45.0
 20
29.0
 30
0.0
 10
-45.0
 20
29.0
 30
0.0
 10
-45.0
 20
29.0
 30
0.0
 10
-45.0
 20
29.0
 30
0.0
 10
-45.0
 20
35.0
 30
0.0
 10
-45.0
 20
35.0
 30
0.0
 10
-45.0
 20
35.0
 30
0.0
 10
-45.0
 20
35.0
 30
0.0
 10
-65.0
 20
35.0
 30
0.0
 10
-65.0
 20
35.0
 30
0.0
 10
-65.0
 20
35.0
 30
0.0
 10
-65.0
 20
35.0
 30
0.0
 10
-65.0
 20
29.0
 30
0.0
 10
-65.0
 20
29.0
 30
0.0
 10
-65.0
 20
29.0
 30
0.0
 10
-65.0
 20
29.0
 30
0.0
 10
-85.0
 20
29.0
 30
0.0
 10
-85.0
 20
29.0
 30
0.0
 10
-85.0
 20
29.0
 30
0.0
 10
-85.0
 20
29.0
 30
0.0
 10
-85.0
 20
35.0
 30
0.0
 10
-85.0
 20
35.0
 30
0.0
 10
-85.0
 20
35.0
 30
0.0
 10
-85.0
 20
35.0
 30
0.0
 10
-105.0
 20
35.0
 30
0.0
 10
-105.0
 20
35.0
 30
0.0
 10
-105.0
 20
35.0
 30
0.0
 10
-105.0
 20
35.0
 30
0.0
 10
-105.0
 20
29.0
 30
0.0
 10
-105.0
 20
29.0
 30
0.0
 10
-105.0
 20
29.0
 30
0.0
 10
-105.0
 20
29.0
 30
0.0
 10
-125.0
 20
29.0
 30
0.0
 10
-125.0
 20
29.0
 30
0.0
 10
-125.0
 20
29.0
 30
0.0
 10
-125.0
 20
29.0
 30
0.0
 10
-125.0
 20
35.0
 30
0.0
 10
-125.0
 20
35.0
 30
0.0
 10
-125.0
 20
35.0
 30
0.0
 10
-125.0
 20
35.0
 30
0.0
 10
-145.0
 20
35.0
 30
0.0
 10
-145.0
 20
35.0
 30
0.0
 10
-145.0
 20
35.0
 30
0.0
 10
-145.0
 20
35.0
 30
0.0
 10
-145.0
 20
29.0
 30
0.0
 10
-145.0
 20
29.0
 30
0.0
 10
-145.0
 20
29.0
 30
0.0
 10
-145.0
 20
29.0
 30
0.0
 10
-165.0
 20
29.0
 30
0.0
 10
-165.0
 20
29.0
 30
0.0
 10
-165.0
 20
29.0
 30
0.0
 10
-165.0
 20
29.0
 30
0.0
 10
-165.0
 20
35.0
 30
0.0
 10
-165.0
 20
35.0
 30
0.0
 10
-165.0
 20
35.0
 30
0.0
 10
-165.0
 20
35.0
 30
0.0
 10
-185.0
 20
35.0
 30
0.0
 10
-185.0
 20
35.0
 30
0.0
 10
-185.0
 20
35.0
 30
0.0
 10
-185.0
 20
35.0
 30
0.0
 10
-185.0
 20
29.0
 30
0.0
 10
-185.0
 20
29.0
 30
0.0
 10
-185.0
 20
29.0
 30
0.0
 10
-185.0
 20
29.0
 30
0.0
 10
-205.0
 20
29.0
 30
0.0
 10
-205.0
 20
29.0
 30
0.0
 10
-205.0
 20
29.0
 30
0.0
 10
-205.0
 20
29.0
 30
0.0
 10
-205.0
 20
35.0
 30
0.0
 10
-205.0
 20
35.0
 30
0.0
 10
-205.0
 20
35.0
 30
0.0
 10
-205.0
 20
35.0
 30
0.0
 10
-225.0
 20
35.0
 30
0.0
 10
-225.0
 20
35.0
 30
0.0
 10
-225.0
 20
35.0
 30
0.0
 10
-225.0
 20
35.0
 30
0.0
 10
-225.0
 20
29.0
 30
0.0
 10
-225.0
 20
29.0
 30
0.0
 10
-225.0
 20
29.0
 30
0.0
 10
-225.0
 20
29.0
 30
0.0
 10
-245.0
 20
29.0
 30
0.0
 10
-245.0
 20
29.0
 30
0.0
 10
-245.0
 20
29.0
 30
0.0
 10
-245.0
 20
29.0
 30
0.0
 10
-245.0
 20
35.0
 30
0.0
 10
-245.0
 20
35.0
 30
0.0
 10
-245.0
 20
35.0
 30
0.0
 10
-245.0
 20
35.0
 30
0.0
 10
-265.0
 20
35.0
 30
0.0
 10
-265.0
 20
35.0
 30
0.0
 10
-265.0
 20
35.0
 30
0.0
 10
-265.0
 20
35.0
 30
0.0
 10
-265.0
 20
15.0
 30
0.0
 10
-265.0
 20
15.0
 30
0.0
 10
-265.0
 20
15.0
 30
0.0
 10
-265.0
 20
15.0
 30
0.0
 10
-259.0
 20
15.0
 30
0.0
 10
-259.0
 20
15.0
 30
0.0
 10
-259.0
 20
15.0
 30
0.0
 10
-259.0
 20
15.0
 30
0.0
 10
-259.0
 20
-5.0
 30
0.0
 10
-259.0
 20
-5.0
 30
0.0
 10
-259.0
 20
-5.0
 30
0.0
 10
-259.0
 20
-5.0
 30
0.0
 10
-265.0
 20
-5.0
 30
0.0
 10
-265.0
 20
-5.0
 30
0.0
 10
-265.0
 20
-5.0
 30
0.0
 10
-265.0
 20
-5.0
 30
0.0
 10
-265.0
 20
-25.0
 30
0.0
 10
-265.0
 20
-25.0
 30
0.0
 10
-265.0
 20
-25.0
 30
0.0
 10
-265.0
 20
-25.0
 30
0.0
 10
-259.0
 20
-25.0
 30
0.0
 10
-259.0
 20
-25.0
 30
0.0
 10
-259.0
 20
-25.0
 30
0.0
 10
-259.0
 20
-25.0
 30
0.0
 10
-259.0
 20
-45.0
 30
0.0
 10
-259.0
 20
-45.0
 30
0.0
 10
-259.0
 20
-45.0
 30
0.0
 10
-259.0
 20
-45.0
 30
0.0
 10
-265.0
 20
-45.0
 30
0.0
 10
-265.0
 20
-45.0
 30
0.0
 10
-265.0
 20
-45.0
 30
0.0
 10
-265.0
 20
-45.0
 30
0.0
 10
-265.0
 20
-65.0
 30
0.0
 10
-265.0
 20
-65.0
 30
0.0
 10
-265.0
 20
-65.0
 30
0.0
 10
-265.0
 20
-65.0
 30
0.0
 10
-259.0
 20
-65.0
 30
0.0
 10
-259.0
 20
-65.0
 30
0.0
 10
-259.0
 20
-65.0
 30
0.0
 10
-259.0
 20
-65.0
 30
0.0
 10
-259.0
 20
-85.0
 30
0.0
 10
-259.0
 20
-85.0
 30
0.0
 10
-259.0
 20
-85.0
 30
0.0
 10
-259.0
 20
-85.0
 30
0.0
 10
-265.0
 20
-85.0
 30
0.0
 10
-265.0
 20
-85.0
 30
0.0
 10
-265.0
 20
-85.0
 30
0.0
 10
-265.0
 20
-85.0
 30
0.0
 10
-265.0
 20
-105.0
 30
0.0
 10
-265.0
 20
-105.0
 30
0.0
 10
-265.0
 20
-105.0
 30
0.0
 10
-265.0
 20
-105.0
 30
0.0
 10
-259.0
 20
-105.0
 30
0.0
 10
-259.0
 20
-105.0
 30
0.0
 10
-259.0
 20
-105.0
 30
0.0
 10
-259.0
 20
-105.0
 30
0.0
 10
-259.0
 20
-125.0
 30
0.0
 10
-259.0
 20
-125.0
 30
0.0
 10
-259.0
 20
-125.0
 30
0.0
 10
-259.0
 20
-125.0
 30
0.0
 10
-265.0
 20
-125.0
 30
0.0
 10
-265.0
 20
-125.0
 30
0.0
 10
-265.0
 20
-125.0
 30
0.0
 10
-265.0
 20
-125.0
 30
0.0
 10
-265.0
 20
-145.0
 30
0.0
 10
-265.0
 20
-145.0
 30
0.0
 10
-265.0
 20
-145.0
 30
0.0
 10
-265.0
 20
-145.0
 30
0.0
 10
-259.0
 20
-145.0
 30
0.0
 10
-259.0
 20
-145.0
 30
0.0
 10
-259.0
 20
-145.0
 30
0.0
 10
-259.0
 20
-145.0
 30
0.0
 10
-259.0
 20
-165.0
 30
0.0
 10
-259.0
 20
-165.0
 30
0.0
 10
-259.0
 20
-165.0
 30
0.0
 10
-259.0
 20
-165.0
 30
0.0
 10
-265.0
 20
-165.0
 30
0.0
 10
-265.0
 20
-165.0
 30
0.0
 10
-265.0
 20
-165.0
 30
0.0
 10
-265.0
 20
-165.0
 30
0.0
 10
-265.0
 20
-185.0
 30
0.0
 10
-265.0
 20
-185.0
 30
0.0
 10
-265.0
 20
-185.0
 30
0.0
 10
-265.0
 20
-185.0
 30
0.0
 10
-259.0
 20
-185.0
 30
0.0
 10
-259.0
 20
-185.0
 30
0.0
 10
-259.0
 20
-185.0
 30
0.0
 10
-259.0
 20
-185.0
 30
0.0
 10
-259.0
 20
-205.0
 30
0.0
 10
-259.0
 20
-205.0
 30
0.0
 10
-259.0
 20
-205.0
 30
0.0
 10
-259.0
 20
-205.0
 30
0.0
 10
-265.0
 20
-205.0
 30
0.0
 10
-265.0
 20
-205.0
 30
0.0
 10
-265.0
 20
-205.0
 30
0.0
 10
-265.0
 20
-205.0
 30
0.0
 10
-265.0
 20
-225.0
 30
0.0
 10
-265.0
 20
-225.0
 30
0.0
 10
-265.0
 20
-225.0
 30
0.0
 10
-265.0
 20
-225.0
 30
0.0
 10
-259.0
 20
-225.0
 30
0.0
 10
-259.0
 20
-225.0
 30
0.0
 10
-259.0
 20
-225.0
 30
0.0
 10
-259.0
 20
-225.0
 30
0.0
 10
-259.0
 20
-245.0
 30
0.0
 10
-259.0
 20
-245.0
 30
0.0
 10
-259.0
 20
-245.0
 30
0.0
 10
-259.0
 20
-245.0
 30
0.0
 10
-265.0
 20
-245.0
 30
0.0
 10
-265.0
 20
-245.0
 30
0.0
 10
-265.0
 20
-245.0
 30
0.0
 10
-265.0
 20
-245.0
 30
0.0
 10
-265.0
 20
-265.0
 30
0.0
 10
-265.0
 20
-265.0
 30
0.0
  0
SPLINE
  5
74
330
1F
100
AcDbEntity
  8
draw
 62
   250
370
    20
100
AcDbSpline
210
0.0
220
0.0
230
1.0
 70
    11
 71
     3
 72
   276
 73
   272
 74
     0
 42
0.000000001
 43
0.0000000001
 40
0.0
 40
0.0
 40
0.0
 40
0.0
 40
0.0144927536231884
 40
0.0144927536231884
 40
0.0144927536231884
 40
0.0144927536231884
 40
0.0289855072463768
 40
0.0289855072463768
 40
0.0289855072463768
 40
0.0289855072463768
 40
0.0434782608695652
 40
0.0434782608695652
 40
0.0434782608695652
 40
0.0434782608695652
 40
0.0579710144927536
 40
0.0579710144927536
 40
0.0579710144927536
 40
0.0579710144927536
 40
0.072463768115942
 40
0.072463768115942
 40
0.072463768115942
 40
0.072463768115942
 40
0.0869565217391304
 40
0.0869565217391304
 40
0.0869565217391304
 40
0.0869565217391304
 40
0.1014492753623188
 40
0.1014492753623188
 40
0.1014492753623188
 40
0.1014492753623188
 40
0.1159420289855072
 40
0.1159420289855072
 40
0.1159420289855072
 40
0.1159420289855072
 40
0.1304347826086956
 40
0.1304347826086956
 40
0.1304347826086956
 40
0.1304347826086956
 40
0.1449275362318841
 40
0.1449275362318841
 40
0.1449275362318841
 40
0.1449275362318841
 40
0.1594202898550725
 40
0.1594202898550725
 40
0.1594202898550725
 40
0.1594202898550725
 40
0.1739130434782609
 40
0.1739130434782609
 40
0.1739130434782609
 40
0.1739130434782609
 40
0.1884057971014493
 40
0.1884057971014493
 40
0.1884057971014493
 40
0.1884057971014493
 40
0.2028985507246377
 40
0.2028985507246377
 40
0.2028985507246377
 40
0.2028985507246377
 40
0.2173913043478261
 40
0.2173913043478261
 40
0.2173913043478261
 40
0.2173913043478261
 40
0.2318840579710145
 40
0.2318840579710145
 40
0.2318840579710145
 40
0.2318840579710145
 40
0.2463768115942029
 40
0.2463768115942029
 40
0.2463768115942029
 40
0.2463768115942029
 40
0.2608695652173913
 40
0.2608695652173913
 40
0.2608695652173913
 40
0.2608695652173913
 40
0.2753623188405797
 40
0.2753623188405797
 40
0.2753623188405797
 40
0.2753623188405797
 40
0.2898550724637681
 40
0.2898550724637681
 40
0.2898550724637681
 40
0.2898550724637681
 40
0.3043478260869565
 40
0.3043478260869565
 40
0.3043478260869565
 40
0.3043478260869565
 40
0.3188405797101449
 40
0.3188405797101449
 40
0.3188405797101449
 40
0.3188405797101449
 40
0.3333333333333333
 40
0.3333333333333333
 40
0.3333333333333333
 40
0.3333333333333333
 40
0.3478260869565217
 40
0.3478260869565217
 40
0.3478260869565217
 40
0.3478260869565217
 40
0.3623188405797101
 40
0.3623188405797101
 40
0.3623188405797101
 40
0.3623188405797101
 40
0.3768115942028986
 40
0.3768115942028986
 40
0.3768115942028986
 40
0.3768115942028986
 40
0.391304347826087
 40
0.391304347826087
 40
0.391304347826087
 40
0.391304347826087
 40
0.4057971014492754
 40
0.4057971014492754
 40
0.4057971014492754
 40
0.4057971014492754
 40
0.4202898550724637
 40
0.4202898550724637
 40
0.4202898550724637
 40
0.4202898550724637
 40
0.4347826086956522
 40
0.4347826086956522
 40
0.4347826086956522
 40
0.4347826086956522
 40
0.4492753623188406
 40
0.4492753623188406
 40
0.4492753623188406
 40
0.4492753623188406
 40
0.463768115942029
 40
0.463768115942029
 40
0.463768115942029
 40
0.463768115942029
 40
0.4782608695652174
 40
0.4782608695652174
 40
0.4782608695652174
 40
0.4782608695652174
 40
0.4927536231884058
 40
0.4927536231884058
 40
0.4927536231884058
 40
0.4927536231884058
 40
0.5072463768115942
 40
0.5072463768115942
 40
0.5072463768115942
 40
0.5072463768115942
 40
0.5217391304347826
 40
0.5217391304347826
 40
0.5217391304347826
 40
0.5217391304347826
 40
0.5362318840579711
 40
0.5362318840579711
 40
0.5362318840579711
 40
0.5362318840579711
 40
0.5507246376811594
 40
0.5507246376811594
 40
0.5507246376811594
 40
0.5507246376811594
 40
0.5652173913043478
 40
0.5652173913043478
 40
0.5652173913043478
 40
0.5652173913043478
 40
0.5797101449275363
 40
0.5797101449275363
 40
0.5797101449275363
 40
0.5797101449275363
 40
0.5942028985507246
 40
0.5942028985507246
 40
0.5942028985507246
 40
0.5942028985507246
 40
0.6086956521739131
 40
0.6086956521739131
 40
0.6086956521739131
 40
0.6086956521739131
 40
0.6231884057971014
 40
0.6231884057971014
 40
0.6231884057971014
 40
0.6231884057971014
 40
0.6376811594202898
 40
0.6376811594202898
 40
0.6376811594202898
 40
0.6376811594202898
 40
0.6521739130434783
 40
0.6521739130434783
 40
0.6521739130434783
 40
0.6521739130434783
 40
0.6666666666666666
 40
0.6666666666666666
 40
0.6666666666666666
 40
0.6666666666666666
 40
0.6811594202898551
 40
0.6811594202898551
 40
0.6811594202898551
 40
0.6811594202898551
 40
0.6956521739130435
 40
0.6956521739130435
 40
0.6956521739130435
 40
0.6956521739130435
 40
0.7101449275362319
 40
0.7101449275362319
 40
0.7101449275362319
 40
0.7101449275362319
 40
0.7246376811594203
 40
0.7246376811594203
 40
0.7246376811594203
 40
0.7246376811594203
 40
0.7391304347826086
 40
0.7391304347826086
 40
0.7391304347826086
 40
0.7391304347826086
 40
0.7536231884057971
 40
0.7536231884057971
 40
0.7536231884057971
 40
0.7536231884057971
 40
0.7681159420289855
 40
0.7681159420289855
 40
0.7681159420289855
 40
0.7681159420289855
 40
0.782608695652174
 40
0.782608695652174
 40
0.782608695652174
 40
0.782608695652174
 40
0.7971014492753623
 40
0.7971014492753623
 40
0.7971014492753623
 40
0.7971014492753623
 40
0.8115942028985508
 40
0.8115942028985508
 40
0.8115942028985508
 40
0.8115942028985508
 40
0.8260869565217391
 40
0.8260869565217391
 40
0.8260869565217391
 40
0.8260869565217391
 40
0.8405797101449275
 40
0.8405797101449275
 40
0.8405797101449275
 40
0.8405797101449275
 40
0.855072463768116
 40
0.855072463768116
 40
0.855072463768116
 40
0.855072463768116
 40
0.8695652173913043
 40
0.8695652173913043
 40
0.8695652173913043
 40
0.8695652173913043
 40
0.8840579710144928
 40
0.8840579710144928
 40
0.8840579710144928
 40
0.8840579710144928
 40
0.8985507246376812
 40
0.8985507246376812
 40
0.8985507246376812
 40
0.8985507246376812
 40
0.9130434782608695
 40
0.9130434782608695
 40
0.9130434782608695
 40
0.9130434782608695
 40
0.927536231884058
 40
0.927536231884058
 40
0.927536231884058
 40
0.927536231884058
 40
0.9420289855072463
 40
0.9420289855072463
 40
0.9420289855072463
 40
0.9420289855072463
 40
0.9565217391304348
 40
0.9565217391304348
 40
0.9565217391304348
 40
0.9565217391304348
 40
0.9710144927536232
 40
0.9710144927536232
 40
0.9710144927536232
 40
0.9710144927536232
 40
1.0
 40
1.0
 40
1.0
 40
1.0
 10
-245.0
 20
45.0
 30
0.0
 10
-245.0
 20
45.0
 30
0.0
 10
-225.0
 20
45.0
 30
0.0
 10
-225.0
 20
45.0
 30
0.0
 10
-225.0
 20
45.0
 30
0.0
 10
-225.0
 20
45.0
 30
0.0
 10
-225.0
 20
51.0
 30
0.0
 10
-225.0
 20
51.0
 30
0.0
 10
-225.0
 20
51.0
 30
0.0
 10
-225.0
 20
51.0
 30
0.0
 10
-205.0
 20
51.0
 30
0.0
 10
-205.0
 20
51.0
 30
0.0
 10
-205.0
 20
51.0
 30
0.0
 10
-205.0
 20
51.0
 30
0.0
 10
-205.0
 20
45.0
 30
0.0
 10
-205.0
 20
45.0
 30
0.0
 10
-205.0
 20
45.0
 30
0.0
 10
-205.0
 20
45.0
 30
0.0
 10
-185.0
 20
45.0
 30
0.0
 10
-185.0
 20
45.0
 30
0.0
 10
-185.0
 20
45.0
 30
0.0
 10
-185.0
 20
45.0
 30
0.0
 10
-185.0
 20
51.0
 30
0.0
 10
-185.0
 20
51.0
 30
0.0
 10
-185.0
 20
51.0
 30
0.0
 10
-185.0
 20
51.0
 30
0.0
 10
-165.0
 20
51.0
 30
0.0
 10
-165.0
 20
51.0
 30
0.0
 10
-165.0
 20
51.0
 30
0.0
 10
-165.0
 20
51.0
 30
0.0
 10
-165.0
 20
45.0
 30
0.0
 10
-165.0
 20
45.0
 30
0.0
 10
-165.0
 20
45.0
 30
0.0
 10
-165.0
 20
45.0
 30
0.0
 10
-145.0
 20
45.0
 30
0.0
 10
-145.0
 20
45.0
 30
0.0
 10
-145.0
 20
45.0
 30
0.0
 10
-145.0
 20
45.0
 30
0.0
 10
-145.0
 20
51.0
 30
0.0
 10
-145.0
 20
51.0
 30
0.0
 10
-145.0
 20
51.0
 30
0.0
 10
-145.0
 20
51.0
 30
0.0
 10
-125.0
 20
51.0
 30
0.0
 10
-125.0
 20
51.0
 30
0.0
 10
-125.0
 20
51.0
 30
0.0
 10
-125.0
 20
51.0
 30
0.0
 10
-125.0
 20
45.0
 30
0.0
 10
-125.0
 20
45.0
 30
0.0
 10
-125.0
 20
45.0
 30
0.0
 10
-125.0
 20
45.0
 30
0.0
 10
-105.0
 20
45.0
 30
0.0
 10
-105.0
 20
45.0
 30
0.0
 10
-105.0
 20
45.0
 30
0.0
 10
-105.0
 20
45.0
 30
0.0
 10
-105.0
 20
51.0
 30
0.0
 10
-105.0
 20
51.0
 30
0.0
 10
-105.0
 20
51.0
 30
0.0
 10
-105.0
 20
51.0
 30
0.0
 10
-85.0
 20
51.0
 30
0.0
 10
-85.0
 20
51.0
 30
0.0
 10
-85.0
 20
51.0
 30
0.0
 10
-85.0
 20
51.0
 30
0.0
 10
-85.0
 20
45.0
 30
0.0
 10
-85.0
 20
45.0
 30
0.0
 10
-85.0
 20
45.0
 30
0.0
 10
-85.0
 20
45.0
 30
0.0
 10
-65.0
 20
45.0
 30
0.0
 10
-65.0
 20
45.0
 30
0.0
 10
-65.0
 20
45.0
 30
0.0
 10
-65.0
 20
45.0
 30
0.0
 10
-65.0
 20
51.0
 30
0.0
 10
-65.0
 20
51.0
 30
0.0
 10
-65.0
 20
51.0
 30
0.0
 10
-65.0
 20
51.0
 30
0.0
 10
-45.0
 20
51.0
 30
0.0
 10
-45.0
 20
51.0
 30
0.0
 10
-45.0
 20
51.0
 30
0.0
 10
-45.0
 20
51.0
 30
0.0
 10
-45.0
 20
45.0
 30
0.0
 10
-45.0
 20
45.0
 30
0.0
 10
-45.0
 20
45.0
 30
0.0
 10
-45.0
 20
45.0
 30
0.0
 10
-25.0
 20
45.0
 30
0.0
 10
-25.0
 20
45.0
 30
0.0
 10
-25.0
 20
45.0
 30
0.0
 10
-25.0
 20
45.0
 30
0.0
 10
-25.0
 20
51.0
 30
0.0
 10
-25.0
 20
51.0
 30
0.0
 10
-25.0
 20
51.0
 30
0.0
 10
-25.0
 20
51.0
 30
0.0
 10
-5.0
 20
51.0
 30
0.0
 10
-5.0
 20
51.0
 30
0.0
 10
-5.0
 20
51.0
 30
0.0
 10
-5.0
 20
51.0
 30
0.0
 10
-5.0
 20
45.0
 30
0.0
 10
-5.0
 20
45.0
 30
0.0
 10
-5.0
 20
45.0
 30
0.0
 10
-5.0
 20
45.0
 30
0.0
 10
15.0
 20
45.0
 30
0.0
 10
15.0
 20
45.0
 30
0.0
 10
15.0
 20
45.0
 30
0.0
 10
15.0
 20
45.0
 30
0.0
 10
15.0
 20
51.0
 30
0.0
 10
15.0
 20
51.0
 30
0.0
 10
15.0
 20
51.0
 30
0.0
 10
15.0
 20
51.0
 30
0.0
 10
35.0
 20
51.0
 30
0.0
 10
35.0
 20
51.0
 30
0.0
 10
35.0
 20
51.0
 30
0.0
 10
35.0
 20
51.0
 30
0.0
 10
35.0
 20
70.0
 30
0.0
 10
35.0
 20
70.0
 30
0.0
 10
35.0
 20
70.0
 30
0.0
 10
35.0
 20
70.0
 30
0.0
 10
29.0
 20
70.0
 30
0.0
 10
29.0
 20
70.0
 30
0.0
 10
29.0
 20
70.0
 30
0.0
 10
29.0
 20
70.0
 30
0.0
 10
29.0
 20
90.0
 30
0.0
 10
29.0
 20
90.0
 30
0.0
 10
29.0
 20
90.0
 30
0.0
 10
29.0
 20
90.0
 30
0.0
 10
35.0
 20
90.0
 30
0.0
 10
35.0
 20
90.0
 30
0.0
 10
35.0
 20
90.0
 30
0.0
 10
35.0
 20
90.0
 30
0.0
 10
35.0
 20
109.0
 30
0.0
 10
35.0
 20
109.0
 30
0.0
 10
35.0
 20
109.0
 30
0.0
 10
35.0
 20
109.0
 30
0.0
 10
15.0
 20
109.0
 30
0.0
 10
15.0
 20
109.0
 30
0.0
 10
15.0
 20
109.0
 30
0.0
 10
15.0
 20
109.0
 30
0.0
 10
15.0
 20
115.0
 30
0.0
 10
15.0
 20
115.0
 30
0.0
 10
15.0
 20
115.0
 30
0.0
 10
15.0
 20
115.0
 30
0.0
 10
-5.0
 20
115.0
 30
0.0
 10
-5.0
 20
115.0
 30
0.0
 10
-5.0
 20
115.0
 30
0.0
 10
-5.0
 20
115.0
 30
0.0
 10
-5.0
 20
109.0
 30
0.0
 10
-5.0
 20
109.0
 30
0.0
 10
-5.0
 20
109.0
 30
0.0
 10
-5.0
 20
109.0
 30
0.0
 10
-25.0
 20
109.0
 30
0.0
 10
-25.0
 20
109.0
 30
0.0
 10
-25.0
 20
109.0
 30
0.0
 10
-25.0
 20
109.0
 30
0.0
 10
-25.0
 20
115.0
 30
0.0
 10
-25.0
 20
115.0
 30
0.0
 10
-25.0
 20
115.0
 30
0.0
 10
-25.0
 20
115.0
 30
0.0
 10
-45.0
 20
115.0
 30
0.0
 10
-45.0
 20
115.0
 30
0.0
 10
-45.0
 20
115.0
 30
0.0
 10
-45.0
 20
115.0
 30
0.0
 10
-45.0
 20
109.0
 30
0.0
 10
-45.0
 20
109.0
 30
0.0
 10
-45.0
 20
109.0
 30
0.0
 10
-45.0
 20
109.0
 30
0.0
 10
-65.0
 20
109.0
 30
0.0
 10
-65.0
 20
109.0
 30
0.0
 10
-65.0
 20
109.0
 30
0.0
 10
-65.0
 20
109.0
 30
0.0
 10
-65.0
 20
115.0
 30
0.0
 10
-65.0
 20
115.0
 30
0.0
 10
-65.0
 20
115.0
 30
0.0
 10
-65.0
 20
115.0
 30
0.0
 10
-85.0
 20
115.0
 30
0.0
 10
-85.0
 20
115.0
 30
0.0
 10
-85.0
 20
115.0
 30
0.0
 10
-85.0
 20
115.0
 30
0.0
 10
-85.0
 20
109.0
 30
0.0
 10
-85.0
 20
109.0
 30
0.0
 10
-85.0
 20
109.0
 30
0.0
 10
-85.0
 20
109.0
 30
0.0
 10
-105.0
 20
109.0
 30
0.0
 10
-105.0
 20
109.0
 30
0.0
 10
-105.0
 20
109.0
 30
0.0
 10
-105.0
 20
109.0
 30
0.0
 10
-105.0
 20
115.0
 30
0.0
 10
-105.0
 20
115.0
 30
0.0
 10
-105.0
 20
115.0
 30
0.0
 10
-105.0
 20
115.0
 30
0.0
 10
-125.0
 20
115.0
 30
0.0
 10
-125.0
 20
115.0
 30
0.0
 10
-125.0
 20
115.0
 30
0.0
 10
-125.0
 20
115.0
 30
0.0
 10
-125.0
 20
109.0
 30
0.0
 10
-125.0
 20
109.0
 30
0.0
 10
-125.0
 20
109.0
 30
0.0
 10
-125.0
 20
109.0
 30
0.0
 10
-145.0
 20
109.0
 30
0.0
 10
-145.0
 20
109.0
 30
0.0
 10
-145.0
 20
109.0
 30
0.0
 10
-145.0
 20
109.0
 30
0.0
 10
-145.0
 20
115.0
 30
0.0
 10
-145.0
 20
115.0
 30
0.0
 10
-145.0
 20
115.0
 30
0.0
 10
-145.0
 20
115.0
 30
0.0
 10
-165.0
 20
115.0
 30
0.0
 10
-165.0
 20
115.0
 30
0.0
 10
-165.0
 20
115.0
 30
0.0
 10
-165.0
 20
115.0
 30
0.0
 10
-165.0
 20
109.0
 30
0.0
 10
-165.0
 20
109.0
 30
0.0
 10
-165.0
 20
109.0
 30
0.0
 10
-165.0
 20
109.0
 30
0.0
 10
-185.0
 20
109.0
 30
0.0
 10
-185.0
 20
109.0
 30
0.0
 10
-185.0
 20
109.0
 30
0.0
 10
-185.0
 20
109.0
 30
0.0
 10
-185.0
 20
115.0
 30
0.0
 10
-185.0
 20
115.0
 30
0.0
 10
-185.0
 20
115.0
 30
0.0
 10
-185.0
 20
115.0
 30
0.0
 10
-205.0
 20
115.0
 30
0.0
 10
-205.0
 20
115.0
 30
0.0
 10
-205.0
 20
115.0
 30
0.0
 10
-205.0
 20
115.0
 30
0.0
 10
-205.0
 20
109.0
 30
0.0
 10
-205.0
 20
109.0
 30
0.0
 10
-205.0
 20
109.0
 30
0.0
 10
-205.0
 20
109.0
 30
0.0
 10
-225.0
 20
109.0
 30
0.0
 10
-225.0
 20
109.0
 30
0.0
 10
-225.0
 20
109.0
 30
0.0
 10
-225.0
 20
109.0
 30
0.0
 10
-225.0
 20
115.0
 30
0.0
 10
-225.0
 20
115.0
 30
0.0
 10
-225.0
 20
115.0
 30
0.0
 10
-225.0
 20
115.0
 30
0.0
 10
-245.0
 20
115.0
 30
0.0
 10
-245.0
 20
115.0
 30
0.0
 10
-245.0
 20
115.0
 30
0.0
 10
-245.0
 20
115.0
 30
0.0
 10
-245.0
 20
109.0
 30
0.0
 10
-245.0
 20
109.0
 30
0.0
 10
-245.0
 20
109.0
 30
0.0
 10
-245.0
 20
109.0
 30
0.0
 10
-265.0
 20
109.0
 30
0.0
 10
-265.0
 20
109.0
 30
0.0
 10
-265.0
 20
109.0
 30
0.0
 10
-265.0
 20
109.0
 30
0.0
 10
-265.0
 20
90.0
 30
0.0
 10
-265.0
 20
90.0
 30
0.0
 10
-265.0
 20
90.0
 30
0.0
 10
-265.0
 20
90.0
 30
0.0
 10
-259.0
 20
90.0
 30
0.0
 10
-259.0
 20
90.0
 30
0.0
 10
-259.0
 20
90.0
 30
0.0
 10
-259.0
 20
90.0
 30
0.0
 10
-259.0
 20
70.0
 30
0.0
 10
-259.0
 20
70.0
 30
0.0
 10
-259.0
 20
70.0
 30
0.0
 10
-259.0
 20
70.0
 30
0.0
 10
-265.0
 20
70.0
 30
0.0
 10
-265.0
 20
70.0
 30
0.0
 10
-265.0
 20
70.0
 30
0.0
 10
-265.0
 20
70.0
 30
0.0
 10
-265.0
 20
51.0
 30
0.0
 10
-265.0
 20
51.0
 30
0.0
 10
-265.0
 20
51.0
 30
0.0
 10
-265.0
 20
51.0
 30
0.0
 10
-245.0
 20
51.0
 30
0.0
 10
-245.0
 20
51.0
 30
0.0
 10
-245.0
 20
51.0
 30
0.0
 10
-245.0
 20
51.0
 30
0.0
 10
-245.0
 20
45.0
 30
0.0
 10
-245.0
 20
45.0
 30
0.0
  0
SPLINE
  5
75
330
1F
100
AcDbEntity
  8
draw
 62
   250
370
    20
100
AcDbSpline
210
0.0
220
0.0
230
1.0
 70
    11
 71
     3
 72
    36
 73
    32
 74
     0
 42
0.000000001
 43
0.0000000001
 40
0.0
 40
0.0
 40
0.0
 40
0.0
 40
0.1111111111111111
 40
0.1111111111111111
 40
0.1111111111111111
 40
0.1111111111111111
 40
0.2222222222222222
 40
0.2222222222222222
 40
0.2222222222222222
 40
0.2222222222222222
 40
0.3333333333333333
 40
0.3333333333333333
 40
0.3333333333333333
 40
0.3333333333333333
 40
0.4444444444444444
 40
0.4444444444444444
 40
0.4444444444444444
 40
0.4444444444444444
 40
0.5555555555555556
 40
0.5555555555555556
 40
0.5555555555555556
 40
0.5555555555555556
 40
0.6666666666666666
 40
0.6666666666666666
 40
0.6666666666666666
 40
0.6666666666666666
 40
0.7777777777777778
 40
0.7777777777777778
 40
0.7777777777777778
 40
0.7777777777777778
 40
1.0
 40
1.0
 40
1.0
 40
1.0
 10
-77.5001
 20
97.5
 30
0.0
 10
-77.5001
 20
97.5
 30
0.0
 10
-12.4999
 20
97.5
 30
0.0
 10
-12.4999
 20
97.5
 30
0.0
 10
-12.4999
 20
97.5
 30
0.0
 10
-2.8749
 20
97.5
 30
0.0
 10
5.0
 20
89.6251
 30
0.0
 10
5.0
 20
80.0001
 30
0.0
 10
5.0
 20
80.0001
 30
0.0
 10
5.0
 20
80.0001
 30
0.0
 10
5.0
 20
79.9999
 30
0.0
 10
5.0
 20
79.9999
 30
0.0
 10
5.0
 20
79.9999
 30
0.0
 10
5.0
 20
70.3749
 30
0.0
 10
-2.8749
 20
62.5
 30
0.0
 10
-12.4999
 20
62.5
 30
0.0
 10
-12.4999
 20
62.5
 30
0.0
 10
-12.4999
 20
62.5
 30
0.0
 10
-77.5001
 20
62.5
 30
0.0
 10
-77.5001
 20
62.5
 30
0.0
 10
-77.5001
 20
62.5
 30
0.0
 10
-87.1251
 20
62.5
 30
0.0
 10
-95.0
 20
70.3749
 30
0.0
 10
-95.0
 20
79.9999
 30
0.0
 10
-95.0
 20
79.9999
 30
0.0
 10
-95.0
 20
79.9999
 30
0.0
 10
-95.0
 20
80.0001
 30
0.0
 10
-95.0
 20
80.0001
 30
0.0
 10
-95.0
 20
80.0001
 30
0.0
 10
-95.0
 20
89.6251
 30
0.0
 10
-87.1251
 20
97.5
 30
0.0
 10
-77.5001
 20
97.5
 30
0.0
  0
SPLINE
  5
76
330
1F
100
AcDbEntity
  8
draw
 62
   250
370
    20
100
AcDbSpline
210
0.0
220
0.0
230
1.0
 70
    11
 71
     3
 72
    36
 73
    32
 74
     0
 42
0.000000001
 43
0.0000000001
 40
0.0
 40
0.0
 40
0.0
 40
0.0
 40
0.1111111111111111
 40
0.1111111111111111
 40
0.1111111111111111
 40
0.1111111111111111
 40
0.2222222222222222
 40
0.2222222222222222
 40
0.2222222222222222
 40
0.2222222222222222
 40
0.3333333333333333
 40
0.3333333333333333
 40
0.3333333333333333
 40
0.3333333333333333
 40
0.4444444444444444
 40
0.4444444444444444
 40
0.4444444444444444
 40
0.4444444444444444
 40
0.5555555555555556
 40
0.5555555555555556
 40
0.5555555555555556
 40
0.5555555555555556
 40
0.6666666666666666
 40
0.6666666666666666
 40
0.6666666666666666
 40
0.6666666666666666
 40
0.7777777777777778
 40
0.7777777777777778
 40
0.7777777777777778
 40
0.7777777777777778
 40
1.0
 40
1.0
 40
1.0
 40
1.0
 10
-217.5001
 20
97.5
 30
0.0
 10
-217.5001
 20
97.5
 30
0.0
 10
-152.4999
 20
97.5
 30
0.0
 10
-152.4999
 20
97.5
 30
0.0
 10
-152.4999
 20
97.5
 30
0.0
 10
-142.8749
 20
97.5
 30
0.0
 10
-135.0
 20
89.6251
 30
0.0
 10
-135.0
 20
80.0001
 30
0.0
 10
-135.0
 20
80.0001
 30
0.0
 10
-135.0
 20
80.0001
 30
0.0
 10
-135.0
 20
79.9999
 30
0.0
 10
-135.0
 20
79.9999
 30
0.0
 10
-135.0
 20
79.9999
 30
0.0
 10
-135.0
 20
70.3749
 30
0.0
 10
-142.8749
 20
62.5
 30
0.0
 10
-152.4999
 20
62.5
 30
0.0
 10
-152.4999
 20
62.5
 30
0.0
 10
-152.4999
 20
62.5
 30
0.0
 10
-217.5001
 20
62.5
 30
0.0
 10
-217.5001
 20
62.5
 30
0.0
 10
-217.5001
 20
62.5
 30
0.0
 10
-227.1251
 20
62.5
 30
0.0
 10
-235.0
 20
70.3749
 30
0.0
 10
-235.0
 20
79.9999
 30
0.0
 10
-235.0
 20
79.9999
 30
0.0
 10
-235.0
 20
79.9999
 30
0.0
 10
-235.0
 20
80.0001
 30
0.0
 10
-235.0
 20
80.0001
 30
0.0
 10
-235.0
 20
80.0001
 30
0.0
 10
-235.0
 20
89.6251
 30
0.0
 10
-227.1251
 20
97.5
 30
0.0
 10
-217.5001
 20
97.5
 30
0.0
  0
SPLINE
  5
77
330
1F
100
AcDbEntity
  8
draw
 62
   250
370
    20
100
AcDbSpline
210
0.0
220
0.0
230
1.0
 70
    11
 71
     3
 72
   468
 73
   464
 74
     0
 42
0.000000001
 43
0.0000000001
 40
0.0
 40
0.0
 40
0.0
 40
0.0
 40
0.0085470085470085
 40
0.0085470085470085
 40
0.0085470085470085
 40
0.0085470085470085
 40
0.0170940170940171
 40
0.0170940170940171
 40
0.0170940170940171
 40
0.0170940170940171
 40
0.0256410256410256
 40
0.0256410256410256
 40
0.0256410256410256
 40
0.0256410256410256
 40
0.0341880341880342
 40
0.0341880341880342
 40
0.0341880341880342
 40
0.0341880341880342
 40
0.0427350427350427
 40
0.0427350427350427
 40
0.0427350427350427
 40
0.0427350427350427
 40
0.0512820512820513
 40
0.0512820512820513
 40
0.0512820512820513
 40
0.0512820512820513
 40
0.0598290598290598
 40
0.0598290598290598
 40
0.0598290598290598
 40
0.0598290598290598
 40
0.0683760683760684
 40
0.0683760683760684
 40
0.0683760683760684
 40
0.0683760683760684
 40
0.0769230769230769
 40
0.0769230769230769
 40
0.0769230769230769
 40
0.0769230769230769
 40
0.0854700854700855
 40
0.0854700854700855
 40
0.0854700854700855
 40
0.0854700854700855
 40
0.094017094017094
 40
0.094017094017094
 40
0.094017094017094
 40
0.094017094017094
 40
0.1025641025641026
 40
0.1025641025641026
 40
0.1025641025641026
 40
0.1025641025641026
 40
0.1111111111111111
 40
0.1111111111111111
 40
0.1111111111111111
 40
0.1111111111111111
 40
0.1196581196581197
 40
0.1196581196581197
 40
0.1196581196581197
 40
0.1196581196581197
 40
0.1282051282051282
 40
0.1282051282051282
 40
0.1282051282051282
 40
0.1282051282051282
 40
0.1367521367521368
 40
0.1367521367521368
 40
0.1367521367521368
 40
0.1367521367521368
 40
0.1452991452991453
 40
0.1452991452991453
 40
0.1452991452991453
 40
0.1452991452991453
 40
0.1538461538461539
 40
0.1538461538461539
 40
0.1538461538461539
 40
0.1538461538461539
 40
0.1623931623931624
 40
0.1623931623931624
 40
0.1623931623931624
 40
0.1623931623931624
 40
0.1709401709401709
 40
0.1709401709401709
 40
0.1709401709401709
 40
0.1709401709401709
 40
0.1794871794871795
 40
0.1794871794871795
 40
0.1794871794871795
 40
0.1794871794871795
 40
0.188034188034188
 40
0.188034188034188
 40
0.188034188034188
 40
0.188034188034188
 40
0.1965811965811966
 40
0.1965811965811966
 40
0.1965811965811966
 40
0.1965811965811966
 40
0.2051282051282051
 40
0.2051282051282051
 40
0.2051282051282051
 40
0.2051282051282051
 40
0.2136752136752137
 40
0.2136752136752137
 40
0.2136752136752137
 40
0.2136752136752137
 40
0.2222222222222222
 40
0.2222222222222222
 40
0.2222222222222222
 40
0.2222222222222222
 40
0.2307692307692308
 40
0.2307692307692308
 40
0.2307692307692308
 40
0.2307692307692308
 40
0.2393162393162393
 40
0.2393162393162393
 40
0.2393162393162393
 40
0.2393162393162393
 40
0.2478632478632479
 40
0.2478632478632479
 40
0.2478632478632479
 40
0.2478632478632479
 40
0.2564102564102564
 40
0.2564102564102564
 40
0.2564102564102564
 40
0.2564102564102564
 40
0.264957264957265
 40
0.264957264957265
 40
0.264957264957265
 40
0.264957264957265
 40
0.2735042735042735
 40
0.2735042735042735
 40
0.2735042735042735
 40
0.2735042735042735
 40
0.282051282051282
 40
0.282051282051282
 40
0.282051282051282
 40
0.282051282051282
 40
0.2905982905982906
 40
0.2905982905982906
 40
0.2905982905982906
 40
0.2905982905982906
 40
0.2991452991452991
 40
0.2991452991452991
 40
0.2991452991452991
 40
0.2991452991452991
 40
0.3076923076923077
 40
0.3076923076923077
 40
0.3076923076923077
 40
0.3076923076923077
 40
0.3162393162393162
 40
0.3162393162393162
 40
0.3162393162393162
 40
0.3162393162393162
 40
0.3247863247863248
 40
0.3247863247863248
 40
0.3247863247863248
 40
0.3247863247863248
 40
0.3333333333333333
 40
0.3333333333333333
 40
0.3333333333333333
 40
0.3333333333333333
 40
0.3418803418803419
 40
0.3418803418803419
 40
0.3418803418803419
 40
0.3418803418803419
 40
0.3504273504273504
 40
0.3504273504273504
 40
0.3504273504273504
 40
0.3504273504273504
 40
0.358974358974359
 40
0.358974358974359
 40
0.358974358974359
 40
0.358974358974359
 40
0.3675213675213675
 40
0.3675213675213675
 40
0.3675213675213675
 40
0.3675213675213675
 40
0.3760683760683761
 40
0.3760683760683761
 40
0.3760683760683761
 40
0.3760683760683761
 40
0.3846153846153846
 40
0.3846153846153846
 40
0.3846153846153846
 40
0.3846153846153846
 40
0.3931623931623932
 40
0.3931623931623932
 40
0.3931623931623932
 40
0.3931623931623932
 40
0.4017094017094017
 40
0.4017094017094017
 40
0.4017094017094017
 40
0.4017094017094017
 40
0.4102564102564102
 40
0.4102564102564102
 40
0.4102564102564102
 40
0.4102564102564102
 40
0.4188034188034188
 40
0.4188034188034188
 40
0.4188034188034188
 40
0.4188034188034188
 40
0.4273504273504273
 40
0.4273504273504273
 40
0.4273504273504273
 40
0.4273504273504273
 40
0.4358974358974359
 40
0.4358974358974359
 40
0.4358974358974359
 40
0.4358974358974359
 40
0.4444444444444444
 40
0.4444444444444444
 40
0.4444444444444444
 40
0.4444444444444444
 40
0.452991452991453
 40
0.452991452991453
 40
0.452991452991453
 40
0.452991452991453
 40
0.4615384615384616
 40
0.4615384615384616
 40
0.4615384615384616
 40
0.4615384615384616
 40
0.4700854700854701
 40
0.4700854700854701
 40
0.4700854700854701
 40
0.4700854700854701
 40
0.4786324786324787
 40
0.4786324786324787
 40
0.4786324786324787
 40
0.4786324786324787
 40
0.4871794871794872
 40
0.4871794871794872
 40
0.4871794871794872
 40
0.4871794871794872
 40
0.4957264957264957
 40
0.4957264957264957
 40
0.4957264957264957
 40
0.4957264957264957
 40
0.5042735042735043
 40
0.5042735042735043
 40
0.5042735042735043
 40
0.5042735042735043
 40
0.5128205128205128
 40
0.5128205128205128
 40
0.5128205128205128
 40
0.5128205128205128
 40
0.5213675213675214
 40
0.5213675213675214
 40
0.5213675213675214
 40
0.5213675213675214
 40
0.5299145299145299
 40
0.5299145299145299
 40
0.5299145299145299
 40
0.5299145299145299
 40
0.5384615384615384
 40
0.5384615384615384
 40
0.5384615384615384
 40
0.5384615384615384
 40
0.5470085470085471
 40
0.5470085470085471
 40
0.5470085470085471
 40
0.5470085470085471
 40
0.5555555555555556
 40
0.5555555555555556
 40
0.5555555555555556
 40
0.5555555555555556
 40
0.5641025641025641
 40
0.5641025641025641
 40
0.5641025641025641
 40
0.5641025641025641
 40
0.5726495726495726
 40
0.5726495726495726
 40
0.5726495726495726
 40
0.5726495726495726
 40
0.5811965811965812
 40
0.5811965811965812
 40
0.5811965811965812
 40
0.5811965811965812
 40
0.5897435897435898
 40
0.5897435897435898
 40
0.5897435897435898
 40
0.5897435897435898
 40
0.5982905982905983
 40
0.5982905982905983
 40
0.5982905982905983
 40
0.5982905982905983
 40
0.6068376068376068
 40
0.6068376068376068
 40
0.6068376068376068
 40
0.6068376068376068
 40
0.6153846153846154
 40
0.6153846153846154
 40
0.6153846153846154
 40
0.6153846153846154
 40
0.6239316239316239
 40
0.6239316239316239
 40
0.6239316239316239
 40
0.6239316239316239
 40
0.6324786324786325
 40
0.6324786324786325
 40
0.6324786324786325
 40
0.6324786324786325
 40
0.6410256410256411
 40
0.6410256410256411
 40
0.6410256410256411
 40
0.6410256410256411
 40
0.6495726495726496
 40
0.6495726495726496
 40
0.6495726495726496
 40
0.6495726495726496
 40
0.6581196581196581
 40
0.6581196581196581
 40
0.6581196581196581
 40
0.6581196581196581
 40
0.6666666666666666
 40
0.6666666666666666
 40
0.6666666666666666
 40
0.6666666666666666
 40
0.6752136752136753
 40
0.6752136752136753
 40
0.6752136752136753
 40
0.6752136752136753
 40
0.6837606837606838
 40
0.6837606837606838
 40
0.6837606837606838
 40
0.6837606837606838
 40
0.6923076923076923
 40
0.6923076923076923
 40
0.6923076923076923
 40
0.6923076923076923
 40
0.7008547008547008
 40
0.7008547008547008
 40
0.7008547008547008
 40
0.7008547008547008
 40
0.7094017094017094
 40
0.7094017094017094
 40
0.7094017094017094
 40
0.7094017094017094
 40
0.717948717948718
 40
0.717948717948718
 40
0.717948717948718
 40
0.717948717948718
 40
0.7264957264957265
 40
0.7264957264957265
 40
0.7264957264957265
 40
0.7264957264957265
 40
0.7350427350427351
 40
0.7350427350427351
 40
0.7350427350427351
 40
0.7350427350427351
 40
0.7435897435897436
 40
0.7435897435897436
 40
0.7435897435897436
 40
0.7435897435897436
 40
0.7521367521367521
 40
0.7521367521367521
 40
0.7521367521367521
 40
0.7521367521367521
 40
0.7606837606837606
 40
0.7606837606837606
 40
0.7606837606837606
 40
0.7606837606837606
 40
0.7692307692307693
 40
0.7692307692307693
 40
0.7692307692307693
 40
0.7692307692307693
 40
0.7777777777777778
 40
0.7777777777777778
 40
0.7777777777777778
 40
0.7777777777777778
 40
0.7863247863247863
 40
0.7863247863247863
 40
0.7863247863247863
 40
0.7863247863247863
 40
0.7948717948717948
 40
0.7948717948717948
 40
0.7948717948717948
 40
0.7948717948717948
 40
0.8034188034188035
 40
0.8034188034188035
 40
0.8034188034188035
 40
0.8034188034188035
 40
0.811965811965812
 40
0.811965811965812
 40
0.811965811965812
 40
0.811965811965812
 40
0.8205128205128205
 40
0.8205128205128205
 40
0.8205128205128205
 40
0.8205128205128205
 40
0.8290598290598291
 40
0.8290598290598291
 40
0.8290598290598291
 40
0.8290598290598291
 40
0.8376068376068376
 40
0.8376068376068376
 40
0.8376068376068376
 40
0.8376068376068376
 40
0.8461538461538461
 40
0.8461538461538461
 40
0.8461538461538461
 40
0.8461538461538461
 40
0.8547008547008547
 40
0.8547008547008547
 40
0.8547008547008547
 40
0.8547008547008547
 40
0.8632478632478633
 40
0.8632478632478633
 40
0.8632478632478633
 40
0.8632478632478633
 40
0.8717948717948718
 40
0.8717948717948718
 40
0.8717948717948718
 40
0.8717948717948718
 40
0.8803418803418803
 40
0.8803418803418803
 40
0.8803418803418803
 40
0.8803418803418803
 40
0.8888888888888888
 40
0.8888888888888888
 40
0.8888888888888888
 40
0.8888888888888888
 40
0.8974358974358975
 40
0.8974358974358975
 40
0.8974358974358975
 40
0.8974358974358975
 40
0.905982905982906
 40
0.905982905982906
 40
0.905982905982906
 40
0.905982905982906
 40
0.9145299145299145
 40
0.9145299145299145
 40
0.9145299145299145
 40
0.9145299145299145
 40
0.9230769230769231
 40
0.9230769230769231
 40
0.9230769230769231
 40
0.9230769230769231
 40
0.9316239316239316
 40
0.9316239316239316
 40
0.9316239316239316
 40
0.9316239316239316
 40
0.9401709401709402
 40
0.9401709401709402
 40
0.9401709401709402
 40
0.9401709401709402
 40
0.9487179487179487
 40
0.9487179487179487
 40
0.9487179487179487
 40
0.9487179487179487
 40
0.9572649572649573
 40
0.9572649572649573
 40
0.9572649572649573
 40
0.9572649572649573
 40
0.9658119658119658
 40
0.9658119658119658
 40
0.9658119658119658
 40
0.9658119658119658
 40
0.9743589743589743
 40
0.9743589743589743
 40
0.9743589743589743
 40
0.9743589743589743
 40
0.9829059829059829
 40
0.9829059829059829
 40
0.9829059829059829
 40
0.9829059829059829
 40
1.0
 40
1.0
 40
1.0
 40
1.0
 10
45.0
 20
45.0
 30
0.0
 10
45.0
 20
45.0
 30
0.0
 10
65.0
 20
45.0
 30
0.0
 10
65.0
 20
45.0
 30
0.0
 10
65.0
 20
45.0
 30
0.0
 10
65.0
 20
45.0
 30
0.0
 10
65.0
 20
51.0
 30
0.0
 10
65.0
 20
51.0
 30
0.0
 10
65.0
 20
51.0
 30
0.0
 10
65.0
 20
51.0
 30
0.0
 10
85.0
 20
51.0
 30
0.0
 10
85.0
 20
51.0
 30
0.0
 10
85.0
 20
51.0
 30
0.0
 10
85.0
 20
51.0
 30
0.0
 10
85.0
 20
45.0
 30
0.0
 10
85.0
 20
45.0
 30
0.0
 10
85.0
 20
45.0
 30
0.0
 10
85.0
 20
45.0
 30
0.0
 10
105.0
 20
45.0
 30
0.0
 10
105.0
 20
45.0
 30
0.0
 10
105.0
 20
45.0
 30
0.0
 10
105.0
 20
45.0
 30
0.0
 10
105.0
 20
51.0
 30
0.0
 10
105.0
 20
51.0
 30
0.0
 10
105.0
 20
51.0
 30
0.0
 10
105.0
 20
51.0
 30
0.0
 10
125.0
 20
51.0
 30
0.0
 10
125.0
 20
51.0
 30
0.0
 10
125.0
 20
51.0
 30
0.0
 10
125.0
 20
51.0
 30
0.0
 10
125.0
 20
45.0
 30
0.0
 10
125.0
 20
45.0
 30
0.0
 10
125.0
 20
45.0
 30
0.0
 10
125.0
 20
45.0
 30
0.0
 10
145.0
 20
45.0
 30
0.0
 10
145.0
 20
45.0
 30
0.0
 10
145.0
 20
45.0
 30
0.0
 10
145.0
 20
45.0
 30
0.0
 10
145.0
 20
51.0
 30
0.0
 10
145.0
 20
51.0
 30
0.0
 10
145.0
 20
51.0
 30
0.0
 10
145.0
 20
51.0
 30
0.0
 10
165.0
 20
51.0
 30
0.0
 10
165.0
 20
51.0
 30
0.0
 10
165.0
 20
51.0
 30
0.0
 10
165.0
 20
51.0
 30
0.0
 10
165.0
 20
45.0
 30
0.0
 10
165.0
 20
45.0
 30
0.0
 10
165.0
 20
45.0
 30
0.0
 10
165.0
 20
45.0
 30
0.0
 10
185.0
 20
45.0
 30
0.0
 10
185.0
 20
45.0
 30
0.0
 10
185.0
 20
45.0
 30
0.0
 10
185.0
 20
45.0
 30
0.0
 10
185.0
 20
51.0
 30
0.0
 10
185.0
 20
51.0
 30
0.0
 10
185.0
 20
51.0
 30
0.0
 10
185.0
 20
51.0
 30
0.0
 10
205.0
 20
51.0
 30
0.0
 10
205.0
 20
51.0
 30
0.0
 10
205.0
 20
51.0
 30
0.0
 10
205.0
 20
51.0
 30
0.0
 10
205.0
 20
45.0
 30
0.0
 10
205.0
 20
45.0
 30
0.0
 10
205.0
 20
45.0
 30
0.0
 10
205.0
 20
45.0
 30
0.0
 10
225.0
 20
45.0
 30
0.0
 10
225.0
 20
45.0
 30
0.0
 10
225.0
 20
45.0
 30
0.0
 10
225.0
 20
45.0
 30
0.0
 10
225.0
 20
51.0
 30
0.0
 10
225.0
 20
51.0
 30
0.0
 10
225.0
 20
51.0
 30
0.0
 10
225.0
 20
51.0
 30
0.0
 10
245.0
 20
51.0
 30
0.0
 10
245.0
 20
51.0
 30
0.0
 10
245.0
 20
51.0
 30
0.0
 10
245.0
 20
51.0
 30
0.0
 10
245.0
 20
45.0
 30
0.0
 10
245.0
 20
45.0
 30
0.0
 10
245.0
 20
45.0
 30
0.0
 10
245.0
 20
45.0
 30
0.0
 10
265.0
 20
45.0
 30
0.0
 10
265.0
 20
45.0
 30
0.0
 10
265.0
 20
45.0
 30
0.0
 10
265.0
 20
45.0
 30
0.0
 10
265.0
 20
51.0
 30
0.0
 10
265.0
 20
51.0
 30
0.0
 10
265.0
 20
51.0
 30
0.0
 10
265.0
 20
51.0
 30
0.0
 10
285.0
 20
51.0
 30
0.0
 10
285.0
 20
51.0
 30
0.0
 10
285.0
 20
51.0
 30
0.0
 10
285.0
 20
51.0
 30
0.0
 10
285.0
 20
45.0
 30
0.0
 10
285.0
 20
45.0
 30
0.0
 10
285.0
 20
45.0
 30
0.0
 10
285.0
 20
45.0
 30
0.0
 10
305.0
 20
45.0
 30
0.0
 10
305.0
 20
45.0
 30
0.0
 10
305.0
 20
45.0
 30
0.0
 10
305.0
 20
45.0
 30
0.0
 10
305.0
 20
51.0
 30
0.0
 10
305.0
 20
51.0
 30
0.0
 10
305.0
 20
51.0
 30
0.0
 10
305.0
 20
51.0
 30
0.0
 10
325.0
 20
51.0
 30
0.0
 10
325.0
 20
51.0
 30
0.0
 10
325.0
 20
51.0
 30
0.0
 10
325.0
 20
51.0
 30
0.0
 10
325.0
 20
45.0
 30
0.0
 10
325.0
 20
45.0
 30
0.0
 10
325.0
 20
45.0
 30
0.0
 10
325.0
 20
45.0
 30
0.0
 10
345.0
 20
45.0
 30
0.0
 10
345.0
 20
45.0
 30
0.0
 10
345.0
 20
45.0
 30
0.0
 10
345.0
 20
45.0
 30
0.0
 10
345.0
 20
65.0
 30
0.0
 10
345.0
 20
65.0
 30
0.0
 10
345.0
 20
65.0
 30
0.0
 10
345.0
 20
65.0
 30
0.0
 10
339.0
 20
65.0
 30
0.0
 10
339.0
 20
65.0
 30
0.0
 10
339.0
 20
65.0
 30
0.0
 10
339.0
 20
65.0
 30
0.0
 10
339.0
 20
85.0
 30
0.0
 10
339.0
 20
85.0
 30
0.0
 10
339.0
 20
85.0
 30
0.0
 10
339.0
 20
85.0
 30
0.0
 10
345.0
 20
85.0
 30
0.0
 10
345.0
 20
85.0
 30
0.0
 10
345.0
 20
85.0
 30
0.0
 10
345.0
 20
85.0
 30
0.0
 10
345.0
 20
105.0
 30
0.0
 10
345.0
 20
105.0
 30
0.0
 10
345.0
 20
105.0
 30
0.0
 10
345.0
 20
105.0
 30
0.0
 10
339.0
 20
105.0
 30
0.0
 10
339.0
 20
105.0
 30
0.0
 10
339.0
 20
105.0
 30
0.0
 10
339.0
 20
105.0
 30
0.0
 10
339.0
 20
125.0
 30
0.0
 10
339.0
 20
125.0
 30
0.0
 10
339.0
 20
125.0
 30
0.0
 10
339.0
 20
125.0
 30
0.0
 10
345.0
 20
125.0
 30
0.0
 10
345.0
 20
125.0
 30
0.0
 10
345.0
 20
125.0
 30
0.0
 10
345.0
 20
125.0
 30
0.0
 10
345.0
 20
145.0
 30
0.0
 10
345.0
 20
145.0
 30
0.0
 10
345.0
 20
145.0
 30
0.0
 10
345.0
 20
145.0
 30
0.0
 10
339.0
 20
145.0
 30
0.0
 10
339.0
 20
145.0
 30
0.0
 10
339.0
 20
145.0
 30
0.0
 10
339.0
 20
145.0
 30
0.0
 10
339.0
 20
165.0
 30
0.0
 10
339.0
 20
165.0
 30
0.0
 10
339.0
 20
165.0
 30
0.0
 10
339.0
 20
165.0
 30
0.0
 10
345.0
 20
165.0
 30
0.0
 10
345.0
 20
165.0
 30
0.0
 10
345.0
 20
165.0
 30
0.0
 10
345.0
 20
165.0
 30
0.0
 10
345.0
 20
185.0
 30
0.0
 10
345.0
 20
185.0
 30
0.0
 10
345.0
 20
185.0
 30
0.0
 10
345.0
 20
185.0
 30
0.0
 10
339.0
 20
185.0
 30
0.0
 10
339.0
 20
185.0
 30
0.0
 10
339.0
 20
185.0
 30
0.0
 10
339.0
 20
185.0
 30
0.0
 10
339.0
 20
205.0
 30
0.0
 10
339.0
 20
205.0
 30
0.0
 10
339.0
 20
205.0
 30
0.0
 10
339.0
 20
205.0
 30
0.0
 10
345.0
 20
205.0
 30
0.0
 10
345.0
 20
205.0
 30
0.0
 10
345.0
 20
205.0
 30
0.0
 10
345.0
 20
205.0
 30
0.0
 10
345.0
 20
225.0
 30
0.0
 10
345.0
 20
225.0
 30
0.0
 10
345.0
 20
225.0
 30
0.0
 10
345.0
 20
225.0
 30
0.0
 10
339.0
 20
225.0
 30
0.0
 10
339.0
 20
225.0
 30
0.0
 10
339.0
 20
225.0
 30
0.0
 10
339.0
 20
225.0
 30
0.0
 10
339.0
 20
245.0
 30
0.0
 10
339.0
 20
245.0
 30
0.0
 10
339.0
 20
245.0
 30
0.0
 10
339.0
 20
245.0
 30
0.0
 10
345.0
 20
245.0
 30
0.0
 10
345.0
 20
245.0
 30
0.0
 10
345.0
 20
245.0
 30
0.0
 10
345.0
 20
245.0
 30
0.0
 10
345.0
 20
265.0
 30
0.0
 10
345.0
 20
265.0
 30
0.0
 10
345.0
 20
265.0
 30
0.0
 10
345.0
 20
265.0
 30
0.0
 10
339.0
 20
265.0
 30
0.0
 10
339.0
 20
265.0
 30
0.0
 10
339.0
 20
265.0
 30
0.0
 10
339.0
 20
265.0
 30
0.0
 10
339.0
 20
285.0
 30
0.0
 10
339.0
 20
285.0
 30
0.0
 10
339.0
 20
285.0
 30
0.0
 10
339.0
 20
285.0
 30
0.0
 10
345.0
 20
285.0
 30
0.0
 10
345.0
 20
285.0
 30
0.0
 10
345.0
 20
285.0
 30
0.0
 10
345.0
 20
285.0
 30
0.0
 10
345.0
 20
305.0
 30
0.0
 10
345.0
 20
305.0
 30
0.0
 10
345.0
 20
305.0
 30
0.0
 10
345.0
 20
305.0
 30
0.0
 10
339.0
 20
305.0
 30
0.0
 10
339.0
 20
305.0
 30
0.0
 10
339.0
 20
305.0
 30
0.0
 10
339.0
 20
305.0
 30
0.0
 10
339.0
 20
325.0
 30
0.0
 10
339.0
 20
325.0
 30
0.0
 10
339.0
 20
325.0
 30
0.0
 10
339.0
 20
325.0
 30
0.0
 10
345.0
 20
325.0
 30
0.0
 10
345.0
 20
325.0
 30
0.0
 10
345.0
 20
325.0
 30
0.0
 10
345.0
 20
325.0
 30
0.0
 10
345.0
 20
345.0
 30
0.0
 10
345.0
 20
345.0
 30
0.0
 10
345.0
 20
345.0
 30
0.0
 10
345.0
 20
345.0
 30
0.0
 10
325.0
 20
345.0
 30
0.0
 10
325.0
 20
345.0
 30
0.0
 10
325.0
 20
345.0
 30
0.0
 10
325.0
 20
345.0
 30
0.0
 10
325.0
 20
339.0
 30
0.0
 10
325.0
 20
339.0
 30
0.0
 10
325.0
 20
339.0
 30
0.0
 10
325.0
 20
339.0
 30
0.0
 10
305.0
 20
339.0
 30
0.0
 10
305.0
 20
339.0
 30
0.0
 10
305.0
 20
339.0
 30
0.0
 10
305.0
 20
339.0
 30
0.0
 10
305.0
 20
345.0
 30
0.0
 10
305.0
 20
345.0
 30
0.0
 10
305.0
 20
345.0
 30
0.0
 10
305.0
 20
345.0
 30
0.0
 10
285.0
 20
345.0
 30
0.0
 10
285.0
 20
345.0
 30
0.0
 10
285.0
 20
345.0
 30
0.0
 10
285.0
 20
345.0
 30
0.0
 10
285.0
 20
339.0
 30
0.0
 10
285.0
 20
339.0
 30
0.0
 10
285.0
 20
339.0
 30
0.0
 10
285.0
 20
339.0
 30
0.0
 10
265.0
 20
339.0
 30
0.0
 10
265.0
 20
339.0
 30
0.0
 10
265.0
 20
339.0
 30
0.0
 10
265.0
 20
339.0
 30
0.0
 10
265.0
 20
345.0
 30
0.0
 10
265.0
 20
345.0
 30
0.0
 10
265.0
 20
345.0
 30
0.0
 10
265.0
 20
345.0
 30
0.0
 10
245.0
 20
345.0
 30
0.0
 10
245.0
 20
345.0
 30
0.0
 10
245.0
 20
345.0
 30
0.0
 10
245.0
 20
345.0
 30
0.0
 10
245.0
 20
339.0
 30
0.0
 10
245.0
 20
339.0
 30
0.0
 10
245.0
 20
339.0
 30
0.0
 10
245.0
 20
339.0
 30
0.0
 10
225.0
 20
339.0
 30
0.0
 10
225.0
 20
339.0
 30
0.0
 10
225.0
 20
339.0
 30
0.0
 10
225.0
 20
339.0
 30
0.0
 10
225.0
 20
345.0
 30
0.0
 10
225.0
 20
345.0
 30
0.0
 10
225.0
 20
345.0
 30
0.0
 10
225.0
 20
345.0
 30
0.0
 10
205.0
 20
345.0
 30
0.0
 10
205.0
 20
345.0
 30
0.0
 10
205.0
 20
345.0
 30
0.0
 10
205.0
 20
345.0
 30
0.0
 10
205.0
 20
339.0
 30
0.0
 10
205.0
 20
339.0
 30
0.0
 10
205.0
 20
339.0
 30
0.0
 10
205.0
 20
339.0
 30
0.0
 10
185.0
 20
339.0
 30
0.0
 10
185.0
 20
339.0
 30
0.0
 10
185.0
 20
339.0
 30
0.0
 10
185.0
 20
339.0
 30
0.0
 10
185.0
 20
345.0
 30
0.0
 10
185.0
 20
345.0
 30
0.0
 10
185.0
 20
345.0
 30
0.0
 10
185.0
 20
345.0
 30
0.0
 10
165.0
 20
345.0
 30
0.0
 10
165.0
 20
345.0
 30
0.0
 10
165.0
 20
345.0
 30
0.0
 10
165.0
 20
345.0
 30
0.0
 10
165.0
 20
339.0
 30
0.0
 10
165.0
 20
339.0
 30
0.0
 10
165.0
 20
339.0
 30
0.0
 10
165.0
 20
339.0
 30
0.0
 10
145.0
 20
339.0
 30
0.0
 10
145.0
 20
339.0
 30
0.0
 10
145.0
 20
339.0
 30
0.0
 10
145.0
 20
339.0
 30
0.0
 10
145.0
 20
345.0
 30
0.0
 10
145.0
 20
345.0
 30
0.0
 10
145.0
 20
345.0
 30
0.0
 10
145.0
 20
345.0
 30
0.0
 10
125.0
 20
345.0
 30
0.0
 10
125.0
 20
345.0
 30
0.0
 10
125.0
 20
345.0
 30
0.0
 10
125.0
 20
345.0
 30
0.0
 10
125.0
 20
339.0
 30
0.0
 10
125.0
 20
339.0
 30
0.0
 10
125.0
 20
339.0
 30
0.0
 10
125.0
 20
339.0
 30
0.0
 10
105.0
 20
339.0
 30
0.0
 10
105.0
 20
339.0
 30
0.0
 10
105.0
 20
339.0
 30
0.0
 10
105.0
 20
339.0
 30
0.0
 10
105.0
 20
345.0
 30
0.0
 10
105.0
 20
345.0
 30
0.0
 10
105.0
 20
345.0
 30
0.0
 10
105.0
 20
345.0
 30
0.0
 10
85.0
 20
345.0
 30
0.0
 10
85.0
 20
345.0
 30
0.0
 10
85.0
 20
345.0
 30
0.0
 10
85.0
 20
345.0
 30
0.0
 10
85.0
 20
339.0
 30
0.0
 10
85.0
 20
339.0
 30
0.0
 10
85.0
 20
339.0
 30
0.0
 10
85.0
 20
339.0
 30
0.0
 10
65.0
 20
339.0
 30
0.0
 10
65.0
 20
339.0
 30
0.0
 10
65.0
 20
339.0
 30
0.0
 10
65.0
 20
339.0
 30
0.0
 10
65.0
 20
345.0
 30
0.0
 10
65.0
 20
345.0
 30
0.0
 10
65.0
 20
345.0
 30
0.0
 10
65.0
 20
345.0
 30
0.0
 10
45.0
 20
345.0
 30
0.0
 10
45.0
 20
345.0
 30
0.0
 10
45.0
 20
345.0
 30
0.0
 10
45.0
 20
345.0
 30
0.0
 10
45.0
 20
325.0
 30
0.0
 10
45.0
 20
325.0
 30
0.0
 10
45.0
 20
325.0
 30
0.0
 10
45.0
 20
325.0
 30
0.0
 10
51.0
 20
325.0
 30
0.0
 10
51.0
 20
325.0
 30
0.0
 10
51.0
 20
325.0
 30
0.0
 10
51.0
 20
325.0
 30
0.0
 10
51.0
 20
305.0
 30
0.0
 10
51.0
 20
305.0
 30
0.0
 10
51.0
 20
305.0
 30
0.0
 10
51.0
 20
305.0
 30
0.0
 10
45.0
 20
305.0
 30
0.0
 10
45.0
 20
305.0
 30
0.0
 10
45.0
 20
305.0
 30
0.0
 10
45.0
 20
305.0
 30
0.0
 10
45.0
 20
285.0
 30
0.0
 10
45.0
 20
285.0
 30
0.0
 10
45.0
 20
285.0
 30
0.0
 10
45.0
 20
285.0
 30
0.0
 10
51.0
 20
285.0
 30
0.0
 10
51.0
 20
285.0
 30
0.0
 10
51.0
 20
285.0
 30
0.0
 10
51.0
 20
285.0
 30
0.0
 10
51.0
 20
265.0
 30
0.0
 10
51.0
 20
265.0
 30
0.0
 10
51.0
 20
265.0
 30
0.0
 10
51.0
 20
265.0
 30
0.0
 10
45.0
 20
265.0
 30
0.0
 10
45.0
 20
265.0
 30
0.0
 10
45.0
 20
265.0
 30
0.0
 10
45.0
 20
265.0
 30
0.0
 10
45.0
 20
245.0
 30
0.0
 10
45.0
 20
245.0
 30
0.0
 10
45.0
 20
245.0
 30
0.0
 10
45.0
 20
245.0
 30
0.0
 10
51.0
 20
245.0
 30
0.0
 10
51.0
 20
245.0
 30
0.0
 10
51.0
 20
245.0
 30
0.0
 10
51.0
 20
245.0
 30
0.0
 10
51.0
 20
225.0
 30
0.0
 10
51.0
 20
225.0
 30
0.0
 10
51.0
 20
225.0
 30
0.0
 10
51.0
 20
225.0
 30
0.0
 10
45.0
 20
225.0
 30
0.0
 10
45.0
 20
225.0
 30
0.0
 10
45.0
 20
225.0
 30
0.0
 10
45.0
 20
225.0
 30
0.0
 10
45.0
 20
205.0
 30
0.0
 10
45.0
 20
205.0
 30
0.0
 10
45.0
 20
205.0
 30
0.0
 10
45.0
 20
205.0
 30
0.0
 10
51.0
 20
205.0
 30
0.0
 10
51.0
 20
205.0
 30
0.0
 10
51.0
 20
205.0
 30
0.0
 10
51.0
 20
205.0
 30
0.0
 10
51.0
 20
185.0
 30
0.0
 10
51.0
 20
185.0
 30
0.0
 10
51.0
 20
185.0
 30
0.0
 10
51.0
 20
185.0
 30
0.0
 10
45.0
 20
185.0
 30
0.0
 10
45.0
 20
185.0
 30
0.0
 10
45.0
 20
185.0
 30
0.0
 10
45.0
 20
185.0
 30
0.0
 10
45.0
 20
165.0
 30
0.0
 10
45.0
 20
165.0
 30
0.0
 10
45.0
 20
165.0
 30
0.0
 10
45.0
 20
165.0
 30
0.0
 10
51.0
 20
165.0
 30
0.0
 10
51.0
 20
165.0
 30
0.0
 10
51.0
 20
165.0
 30
0.0
 10
51.0
 20
165.0
 30
0.0
 10
51.0
 20
145.0
 30
0.0
 10
51.0
 20
145.0
 30
0.0
 10
51.0
 20
145.0
 30
0.0
 10
51.0
 20
145.0
 30
0.0
 10
45.0
 20
145.0
 30
0.0
 10
45.0
 20
145.0
 30
0.0
 10
45.0
 20
145.0
 30
0.0
 10
45.0
 20
145.0
 30
0.0
 10
45.0
 20
125.0
 30
0.0
 10
45.0
 20
125.0
 30
0.0
 10
45.0
 20
125.0
 30
0.0
 10
45.0
 20
125.0
 30
0.0
 10
51.0
 20
125.0
 30
0.0
 10
51.0
 20
125.0
 30
0.0
 10
51.0
 20
125.0
 30
0.0
 10
51.0
 20
125.0
 30
0.0
 10
51.0
 20
105.0
 30
0.0
 10
51.0
 20
105.0
 30
0.0
 10
51.0
 20
105.0
 30
0.0
 10
51.0
 20
105.0
 30
0.0
 10
45.0
 20
105.0
 30
0.0
 10
45.0
 20
105.0
 30
0.0
 10
45.0
 20
105.0
 30
0.0
 10
45.0
 20
105.0
 30
0.0
 10
45.0
 20
85.0
 30
0.0
 10
45.0
 20
85.0
 30
0.0
 10
45.0
 20
85.0
 30
0.0
 10
45.0
 20
85.0
 30
0.0
 10
51.0
 20
85.0
 30
0.0
 10
51.0
 20
85.0
 30
0.0
 10
51.0
 20
85.0
 30
0.0
 10
51.0
 20
85.0
 30
0.0
 10
51.0
 20
65.0
 30
0.0
 10
51.0
 20
65.0
 30
0.0
 10
51.0
 20
65.0
 30
0.0
 10
51.0
 20
65.0
 30
0.0
 10
45.0
 20
65.0
 30
0.0
 10
45.0
 20
65.0
 30
0.0
 10
45.0
 20
65.0
 30
0.0
 10
45.0
 20
65.0
 30
0.0
 10
45.0
 20
45.0
 30
0.0
 10
45.0
 20
45.0
 30
0.0
  0
SPLINE
  5
78
330
1F
100
AcDbEntity
  8
draw
 62
   250
370
    20
100
AcDbSpline
210
0.0
220
0.0
230
1.0
 70
    11
 71
     3
 72
    28
 73
    24
 74
     0
 42
0.000000001
 43
0.0000000001
 40
0.0
 40
0.0
 40
0.0
 40
0.0
 40
0.1428571428571428
 40
0.1428571428571428
 40
0.1428571428571428
 40
0.1428571428571428
 40
0.2857142857142857
 40
0.2857142857142857
 40
0.2857142857142857
 40
0.2857142857142857
 40
0.4285714285714285
 40
0.4285714285714285
 40
0.4285714285714285
 40
0.4285714285714285
 40
0.5714285714285714
 40
0.5714285714285714
 40
0.5714285714285714
 40
0.5714285714285714
 40
0.7142857142857143
 40
0.7142857142857143
 40
0.7142857142857143
 40
0.7142857142857143
 40
1.0
 40
1.0
 40
1.0
 40
1.0
 10
132.1232
 20
107.3744
 30
0.0
 10
132.1232
 20
107.3744
 30
0.0
 10
107.3744
 20
82.6256
 30
0.0
 10
107.3744
 20
82.6256
 30
0.0
 10
107.3744
 20
82.6256
 30
0.0
 10
100.5588
 20
75.8101
 30
0.0
 10
89.4412
 20
75.8101
 30
0.0
 10
82.6256
 20
82.6256
 30
0.0
 10
82.6256
 20
82.6256
 30
0.0
 10
75.8101
 20
89.4412
 30
0.0
 10
75.8101
 20
100.5588
 30
0.0
 10
82.6256
 20
107.3744
 30
0.0
 10
82.6256
 20
107.3744
 30
0.0
 10
82.6256
 20
107.3744
 30
0.0
 10
107.3744
 20
132.1232
 30
0.0
 10
107.3744
 20
132.1232
 30
0.0
 10
107.3744
 20
132.1232
 30
0.0
 10
114.19
 20
138.9387
 30
0.0
 10
125.3076
 20
138.9387
 30
0.0
 10
132.1232
 20
132.1232
 30
0.0
 10
132.1232
 20
132.1232
 30
0.0
 10
138.9387
 20
125.3076
 30
0.0
 10
138.9387
 20
114.19
 30
0.0
 10
132.1232
 20
107.3744
 30
0.0
  0
SPLINE
  5
79
330
1F
100
AcDbEntity
  8
draw
 62
   250
370
    20
100
AcDbSpline
210
0.0
220
0.0
230
1.0
 70
    11
 71
     3
 72
    52
 73
    48
 74
     0
 42
0.000000001
 43
0.0000000001
 40
0.0
 40
0.0
 40
0.0
 40
0.0
 40
0.0769230769230769
 40
0.0769230769230769
 40
0.0769230769230769
 40
0.0769230769230769
 40
0.1538461538461539
 40
0.1538461538461539
 40
0.1538461538461539
 40
0.1538461538461539
 40
0.2307692307692308
 40
0.2307692307692308
 40
0.2307692307692308
 40
0.2307692307692308
 40
0.3076923076923077
 40
0.3076923076923077
 40
0.3076923076923077
 40
0.3076923076923077
 40
0.3846153846153846
 40
0.3846153846153846
 40
0.3846153846153846
 40
0.3846153846153846
 40
0.4615384615384616
 40
0.4615384615384616
 40
0.4615384615384616
 40
0.4615384615384616
 40
0.5384615384615384
 40
0.5384615384615384
 40
0.5384615384615384
 40
0.5384615384615384
 40
0.6153846153846154
 40
0.6153846153846154
 40
0.6153846153846154
 40
0.6153846153846154
 40
0.6923076923076923
 40
0.6923076923076923
 40
0.6923076923076923
 40
0.6923076923076923
 40
0.7692307692307693
 40
0.7692307692307693
 40
0.7692307692307693
 40
0.7692307692307693
 40
0.8461538461538461
 40
0.8461538461538461
 40
0.8461538461538461
 40
0.8461538461538461
 40
1.0
 40
1.0
 40
1.0
 40
1.0
 10
162.0572
 20
195.0
 30
0.0
 10
162.0572
 20
190.6476
 30
0.0
 10
162.9081
 20
186.3645
 30
0.0
 10
164.6041
 20
182.3547
 30
0.0
 10
164.6041
 20
182.3547
 30
0.0
 10
166.2367
 20
178.4948
 30
0.0
 10
168.6133
 20
174.9819
 30
0.0
 10
171.5762
 20
172.019
 30
0.0
 10
171.5762
 20
172.019
 30
0.0
 10
174.5391
 20
169.0561
 30
0.0
 10
178.052
 20
166.6795
 30
0.0
 10
181.9119
 20
165.0469
 30
0.0
 10
181.9119
 20
165.0469
 30
0.0
 10
185.9217
 20
163.3509
 30
0.0
 10
190.2048
 20
162.5
 30
0.0
 10
194.5572
 20
162.5
 30
0.0
 10
194.5572
 20
162.5
 30
0.0
 10
204.1958
 20
162.5
 30
0.0
 10
212.0572
 20
154.6387
 30
0.0
 10
212.0572
 20
145.0
 30
0.0
 10
212.0572
 20
145.0
 30
0.0
 10
212.0572
 20
135.3614
 30
0.0
 10
204.1958
 20
127.5
 30
0.0
 10
194.5572
 20
127.5
 30
0.0
 10
194.5572
 20
127.5
 30
0.0
 10
185.5231
 20
127.5
 30
0.0
 10
176.5996
 20
129.2919
 30
0.0
 10
168.2779
 20
132.8115
 30
0.0
 10
168.2779
 20
132.8115
 30
0.0
 10
160.2676
 20
136.1995
 30
0.0
 10
152.9768
 20
141.1209
 30
0.0
 10
146.8274
 20
147.2702
 30
0.0
 10
146.8274
 20
147.2702
 30
0.0
 10
140.6781
 20
153.4196
 30
0.0
 10
135.7567
 20
160.7104
 30
0.0
 10
132.3687
 20
168.7207
 30
0.0
 10
132.3687
 20
168.7207
 30
0.0
 10
128.8491
 20
177.0424
 30
0.0
 10
127.0572
 20
185.9659
 30
0.0
 10
127.0572
 20
195.0
 30
0.0
 10
127.0572
 20
195.0
 30
0.0
 10
127.0572
 20
204.6387
 30
0.0
 10
134.9185
 20
212.5
 30
0.0
 10
144.5572
 20
212.5
 30
0.0
 10
144.5572
 20
212.5
 30
0.0
 10
154.1958
 20
212.5
 30
0.0
 10
162.0572
 20
204.6387
 30
0.0
 10
162.0572
 20
195.0
 30
0.0
  0
SPLINE
  5
7A
330
1F
100
AcDbEntity
  8
draw
 62
   250
370
    20
100
AcDbSpline
210
0.0
220
0.0
230
1.0
 70
    11
 71
     3
 72
    52
 73
    48
 74
     0
 42
0.000000001
 43
0.0000000001
 40
0.0
 40
0.0
 40
0.0
 40
0.0
 40
0.0769230769230769
 40
0.0769230769230769
 40
0.0769230769230769
 40
0.0769230769230769
 40
0.1538461538461539
 40
0.1538461538461539
 40
0.1538461538461539
 40
0.1538461538461539
 40
0.2307692307692308
 40
0.2307692307692308
 40
0.2307692307692308
 40
0.2307692307692308
 40
0.3076923076923077
 40
0.3076923076923077
 40
0.3076923076923077
 40
0.3076923076923077
 40
0.3846153846153846
 40
0.3846153846153846
 40
0.3846153846153846
 40
0.3846153846153846
 40
0.4615384615384616
 40
0.4615384615384616
 40
0.4615384615384616
 40
0.4615384615384616
 40
0.5384615384615384
 40
0.5384615384615384
 40
0.5384615384615384
 40
0.5384615384615384
 40
0.6153846153846154
 40
0.6153846153846154
 40
0.6153846153846154
 40
0.6153846153846154
 40
0.6923076923076923
 40
0.6923076923076923
 40
0.6923076923076923
 40
0.6923076923076923
 40
0.7692307692307693
 40
0.7692307692307693
 40
0.7692307692307693
 40
0.7692307692307693
 40
0.8461538461538461
 40
0.8461538461538461
 40
0.8461538461538461
 40
0.8461538461538461
 40
1.0
 40
1.0
 40
1.0
 40
1.0
 10
227.0572
 20
195.0
 30
0.0
 10
227.0572
 20
199.3524
 30
0.0
 10
226.2064
 20
203.6355
 30
0.0
 10
224.5104
 20
207.6453
 30
0.0
 10
224.5104
 20
207.6453
 30
0.0
 10
222.8778
 20
211.5051
 30
0.0
 10
220.5011
 20
215.0182
 30
0.0
 10
217.5382
 20
217.981
 30
0.0
 10
217.5382
 20
217.981
 30
0.0
 10
214.5753
 20
220.9439
 30
0.0
 10
211.0623
 20
223.3205
 30
0.0
 10
207.2024
 20
224.953
 30
0.0
 10
207.2024
 20
224.953
 30
0.0
 10
203.1926
 20
226.649
 30
0.0
 10
198.9096
 20
227.5
 30
0.0
 10
194.5572
 20
227.5
 30
0.0
 10
194.5572
 20
227.5
 30
0.0
 10
184.9185
 20
227.5
 30
0.0
 10
177.0572
 20
235.3614
 30
0.0
 10
177.0572
 20
245.0
 30
0.0
 10
177.0572
 20
245.0
 30
0.0
 10
177.0572
 20
254.6387
 30
0.0
 10
184.9185
 20
262.5
 30
0.0
 10
194.5572
 20
262.5
 30
0.0
 10
194.5572
 20
262.5
 30
0.0
 10
203.5914
 20
262.5001
 30
0.0
 10
212.5149
 20
260.708
 30
0.0
 10
220.8366
 20
257.1883
 30
0.0
 10
220.8366
 20
257.1883
 30
0.0
 10
228.8468
 20
253.8003
 30
0.0
 10
236.1377
 20
248.8791
 30
0.0
 10
242.287
 20
242.7298
 30
0.0
 10
242.287
 20
242.7298
 30
0.0
 10
248.4363
 20
236.5805
 30
0.0
 10
253.3576
 20
229.2897
 30
0.0
 10
256.7456
 20
221.2796
 30
0.0
 10
256.7456
 20
221.2796
 30
0.0
 10
260.2653
 20
212.9578
 30
0.0
 10
262.0573
 20
204.0342
 30
0.0
 10
262.0572
 20
195.0
 30
0.0
 10
262.0572
 20
195.0
 30
0.0
 10
262.0572
 20
185.3614
 30
0.0
 10
254.1958
 20
177.5
 30
0.0
 10
244.5572
 20
177.5
 30
0.0
 10
244.5572
 20
177.5
 30
0.0
 10
234.9185
 20
177.5
 30
0.0
 10
227.0572
 20
185.3614
 30
0.0
 10
227.0572
 20
195.0
 30
0.0
  0
SPLINE
  5
7B
330
1F
100
AcDbEntity
  8
draw
 62
   250
370
    20
100
AcDbSpline
210
0.0
220
0.0
230
1.0
 70
    11
 71
     3
 72
    28
 73
    24
 74
     0
 42
0.000000001
 43
0.0000000001
 40
0.0
 40
0.0
 40
0.0
 40
0.0
 40
0.1428571428571428
 40
0.1428571428571428
 40
0.1428571428571428
 40
0.1428571428571428
 40
0.2857142857142857
 40
0.2857142857142857
 40
0.2857142857142857
 40
0.2857142857142857
 40
0.4285714285714285
 40
0.4285714285714285
 40
0.4285714285714285
 40
0.4285714285714285
 40
0.5714285714285714
 40
0.5714285714285714
 40
0.5714285714285714
 40
0.5714285714285714
 40
0.7142857142857143
 40
0.7142857142857143
 40
0.7142857142857143
 40
0.7142857142857143
 40
1.0
 40
1.0
 40
1.0
 40
1.0
 10
146.5625
 20
92.0633
 30
0.0
 10
143.877
 20
82.8965
 30
0.0
 10
149.1614
 20
73.0663
 30
0.0
 10
158.4366
 20
70.3486
 30
0.0
 10
158.4366
 20
70.3486
 30
0.0
 10
252.996
 20
42.5353
 30
0.0
 10
345.1686
 20
127.714
 30
0.0
 10
321.3048
 20
225.8282
 30
0.0
 10
321.3048
 20
225.8282
 30
0.0
 10
319.0206
 20
235.2194
 30
0.0
 10
309.5559
 20
240.9808
 30
0.0
 10
300.1647
 20
238.6966
 30
0.0
 10
300.1647
 20
238.6966
 30
0.0
 10
290.7734
 20
236.4124
 30
0.0
 10
285.0121
 20
226.9477
 30
0.0
 10
287.2963
 20
217.5565
 30
0.0
 10
287.2963
 20
217.5565
 30
0.0
 10
304.661
 20
146.1627
 30
0.0
 10
237.8873
 20
83.9783
 30
0.0
 10
168.9064
 20
103.7383
 30
0.0
 10
168.9064
 20
103.7383
 30
0.0
 10
159.4733
 20
106.8861
 30
0.0
 10
149.3579
 20
101.6049
 30
0.0
 10
146.5625
 20
92.0633
 30
0.0
  0
SPLINE
  5
7C
330
1F
100
AcDbEntity
  8
draw
 62
   250
370
    20
100
AcDbSpline
210
0.0
220
0.0
230
1.0
 70
    11
 71
     3
 72
    28
 73
    24
 74
     0
 42
0.000000001
 43
0.0000000001
 40
0.0
 40
0.0
 40
0.0
 40
0.0
 40
0.1428571428571428
 40
0.1428571428571428
 40
0.1428571428571428
 40
0.1428571428571428
 40
0.2857142857142857
 40
0.2857142857142857
 40
0.2857142857142857
 40
0.2857142857142857
 40
0.4285714285714285
 40
0.4285714285714285
 40
0.4285714285714285
 40
0.4285714285714285
 40
0.5714285714285714
 40
0.5714285714285714
 40
0.5714285714285714
 40
0.5714285714285714
 40
0.7142857142857143
 40
0.7142857142857143
 40
0.7142857142857143
 40
0.7142857142857143
 40
1.0
 40
1.0
 40
1.0
 40
1.0
 10
242.5519
 20
297.9368
 30
0.0
 10
245.2375
 20
307.1035
 30
0.0
 10
239.9531
 20
316.9337
 30
0.0
 10
230.6779
 20
319.6515
 30
0.0
 10
230.6779
 20
319.6515
 30
0.0
 10
136.1185
 20
347.4648
 30
0.0
 10
43.9459
 20
262.286
 30
0.0
 10
67.8097
 20
164.1718
 30
0.0
 10
67.8097
 20
164.1718
 30
0.0
 10
70.0939
 20
154.7806
 30
0.0
 10
79.5586
 20
149.0193
 30
0.0
 10
88.9498
 20
151.3034
 30
0.0
 10
88.9498
 20
151.3034
 30
0.0
 10
98.3411
 20
153.5876
 30
0.0
 10
104.1024
 20
163.0523
 30
0.0
 10
101.8182
 20
172.4435
 30
0.0
 10
101.8182
 20
172.4435
 30
0.0
 10
84.4535
 20
243.8373
 30
0.0
 10
151.2272
 20
306.0218
 30
0.0
 10
220.2081
 20
286.2617
 30
0.0
 10
220.2081
 20
286.2617
 30
0.0
 10
229.6412
 20
283.1139
 30
0.0
 10
239.7566
 20
288.3951
 30
0.0
 10
242.5519
 20
297.9368
 30
0.0
  0
SPLINE
  5
7D
330
1F
100
AcDbEntity
  8
draw
 62
   250
370
    20
100
AcDbSpline
210
0.0
220
0.0
230
1.0
 70
    11
 71
     3
 72
    20
 73
    16
 74
     0
 42
0.000000001
 43
0.0000000001
 40
0.0
 40
0.0
 40
0.0
 40
0.0
 40
0.2
 40
0.2
 40
0.2
 40
0.2
 40
0.4
 40
0.4
 40
0.4
 40
0.4
 40
0.6
 40
0.6
 40
0.6
 40
0.6
 40
1.0
 40
1.0
 40
1.0
 40
1.0
 10
295.0
 20
316.5686
 30
0.0
 10
307.4264
 20
316.5686
 30
0.0
 10
317.5
 20
306.495
 30
0.0
 10
317.5
 20
294.0686
 30
0.0
 10
317.5
 20
294.0686
 30
0.0
 10
317.5
 20
281.6422
 30
0.0
 10
307.4264
 20
271.5686
 30
0.0
 10
295.0
 20
271.5686
 30
0.0
 10
295.0
 20
271.5686
 30
0.0
 10
282.5736
 20
271.5686
 30
0.0
 10
272.5
 20
281.6422
 30
0.0
 10
272.5
 20
294.0686
 30
0.0
 10
272.5
 20
294.0686
 30
0.0
 10
272.5
 20
306.495
 30
0.0
 10
282.5736
 20
316.5686
 30
0.0
 10
295.0
 20
316.5686
 30
0.0
  0
SPLINE
  5
7E
330
1F
100
AcDbEntity
  8
draw
 62
   250
370
    20
100
AcDbSpline
210
0.0
220
0.0
230
1.0
 70
    11
 71
     3
 72
   276
 73
   272
 74
     0
 42
0.000000001
 43
0.0000000001
 40
0.0
 40
0.0
 40
0.0
 40
0.0
 40
0.0144927536231884
 40
0.0144927536231884
 40
0.0144927536231884
 40
0.0144927536231884
 40
0.0289855072463768
 40
0.0289855072463768
 40
0.0289855072463768
 40
0.0289855072463768
 40
0.0434782608695652
 40
0.0434782608695652
 40
0.0434782608695652
 40
0.0434782608695652
 40
0.0579710144927536
 40
0.0579710144927536
 40
0.0579710144927536
 40
0.0579710144927536
 40
0.072463768115942
 40
0.072463768115942
 40
0.072463768115942
 40
0.072463768115942
 40
0.0869565217391304
 40
0.0869565217391304
 40
0.0869565217391304
 40
0.0869565217391304
 40
0.1014492753623188
 40
0.1014492753623188
 40
0.1014492753623188
 40
0.1014492753623188
 40
0.1159420289855072
 40
0.1159420289855072
 40
0.1159420289855072
 40
0.1159420289855072
 40
0.1304347826086956
 40
0.1304347826086956
 40
0.1304347826086956
 40
0.1304347826086956
 40
0.1449275362318841
 40
0.1449275362318841
 40
0.1449275362318841
 40
0.1449275362318841
 40
0.1594202898550725
 40
0.1594202898550725
 40
0.1594202898550725
 40
0.1594202898550725
 40
0.1739130434782609
 40
0.1739130434782609
 40
0.1739130434782609
 40
0.1739130434782609
 40
0.1884057971014493
 40
0.1884057971014493
 40
0.1884057971014493
 40
0.1884057971014493
 40
0.2028985507246377
 40
0.2028985507246377
 40
0.2028985507246377
 40
0.2028985507246377
 40
0.2173913043478261
 40
0.2173913043478261
 40
0.2173913043478261
 40
0.2173913043478261
 40
0.2318840579710145
 40
0.2318840579710145
 40
0.2318840579710145
 40
0.2318840579710145
 40
0.2463768115942029
 40
0.2463768115942029
 40
0.2463768115942029
 40
0.2463768115942029
 40
0.2608695652173913
 40
0.2608695652173913
 40
0.2608695652173913
 40
0.2608695652173913
 40
0.2753623188405797
 40
0.2753623188405797
 40
0.2753623188405797
 40
0.2753623188405797
 40
0.2898550724637681
 40
0.2898550724637681
 40
0.2898550724637681
 40
0.2898550724637681
 40
0.3043478260869565
 40
0.3043478260869565
 40
0.3043478260869565
 40
0.3043478260869565
 40
0.3188405797101449
 40
0.3188405797101449
 40
0.3188405797101449
 40
0.3188405797101449
 40
0.3333333333333333
 40
0.3333333333333333
 40
0.3333333333333333
 40
0.3333333333333333
 40
0.3478260869565217
 40
0.3478260869565217
 40
0.3478260869565217
 40
0.3478260869565217
 40
0.3623188405797101
 40
0.3623188405797101
 40
0.3623188405797101
 40
0.3623188405797101
 40
0.3768115942028986
 40
0.3768115942028986
 40
0.3768115942028986
 40
0.3768115942028986
 40
0.391304347826087
 40
0.391304347826087
 40
0.391304347826087
 40
0.391304347826087
 40
0.4057971014492754
 40
0.4057971014492754
 40
0.4057971014492754
 40
0.4057971014492754
 40
0.4202898550724637
 40
0.4202898550724637
 40
0.4202898550724637
 40
0.4202898550724637
 40
0.4347826086956522
 40
0.4347826086956522
 40
0.4347826086956522
 40
0.4347826086956522
 40
0.4492753623188406
 40
0.4492753623188406
 40
0.4492753623188406
 40
0.4492753623188406
 40
0.463768115942029
 40
0.463768115942029
 40
0.463768115942029
 40
0.463768115942029
 40
0.4782608695652174
 40
0.4782608695652174
 40
0.4782608695652174
 40
0.4782608695652174
 40
0.4927536231884058
 40
0.4927536231884058
 40
0.4927536231884058
 40
0.4927536231884058
 40
0.5072463768115942
 40
0.5072463768115942
 40
0.5072463768115942
 40
0.5072463768115942
 40
0.5217391304347826
 40
0.5217391304347826
 40
0.5217391304347826
 40
0.5217391304347826
 40
0.5362318840579711
 40
0.5362318840579711
 40
0.5362318840579711
 40
0.5362318840579711
 40
0.5507246376811594
 40
0.5507246376811594
 40
0.5507246376811594
 40
0.5507246376811594
 40
0.5652173913043478
 40
0.5652173913043478
 40
0.5652173913043478
 40
0.5652173913043478
 40
0.5797101449275363
 40
0.5797101449275363
 40
0.5797101449275363
 40
0.5797101449275363
 40
0.5942028985507246
 40
0.5942028985507246
 40
0.5942028985507246
 40
0.5942028985507246
 40
0.6086956521739131
 40
0.6086956521739131
 40
0.6086956521739131
 40
0.6086956521739131
 40
0.6231884057971014
 40
0.6231884057971014
 40
0.6231884057971014
 40
0.6231884057971014
 40
0.6376811594202898
 40
0.6376811594202898
 40
0.6376811594202898
 40
0.6376811594202898
 40
0.6521739130434783
 40
0.6521739130434783
 40
0.6521739130434783
 40
0.6521739130434783
 40
0.6666666666666666
 40
0.6666666666666666
 40
0.6666666666666666
 40
0.6666666666666666
 40
0.6811594202898551
 40
0.6811594202898551
 40
0.6811594202898551
 40
0.6811594202898551
 40
0.6956521739130435
 40
0.6956521739130435
 40
0.6956521739130435
 40
0.6956521739130435
 40
0.7101449275362319
 40
0.7101449275362319
 40
0.7101449275362319
 40
0.7101449275362319
 40
0.7246376811594203
 40
0.7246376811594203
 40
0.7246376811594203
 40
0.7246376811594203
 40
0.7391304347826086
 40
0.7391304347826086
 40
0.7391304347826086
 40
0.7391304347826086
 40
0.7536231884057971
 40
0.7536231884057971
 40
0.7536231884057971
 40
0.7536231884057971
 40
0.7681159420289855
 40
0.7681159420289855
 40
0.7681159420289855
 40
0.7681159420289855
 40
0.782608695652174
 40
0.782608695652174
 40
0.782608695652174
 40
0.782608695652174
 40
0.7971014492753623
 40
0.7971014492753623
 40
0.7971014492753623
 40
0.7971014492753623
 40
0.8115942028985508
 40
0.8115942028985508
 40
0.8115942028985508
 40
0.8115942028985508
 40
0.8260869565217391
 40
0.8260869565217391
 40
0.8260869565217391
 40
0.8260869565217391
 40
0.8405797101449275
 40
0.8405797101449275
 40
0.8405797101449275
 40
0.8405797101449275
 40
0.855072463768116
 40
0.855072463768116
 40
0.855072463768116
 40
0.855072463768116
 40
0.8695652173913043
 40
0.8695652173913043
 40
0.8695652173913043
 40
0.8695652173913043
 40
0.8840579710144928
 40
0.8840579710144928
 40
0.8840579710144928
 40
0.8840579710144928
 40
0.8985507246376812
 40
0.8985507246376812
 40
0.8985507246376812
 40
0.8985507246376812
 40
0.9130434782608695
 40
0.9130434782608695
 40
0.9130434782608695
 40
0.9130434782608695
 40
0.927536231884058
 40
0.927536231884058
 40
0.927536231884058
 40
0.927536231884058
 40
0.9420289855072463
 40
0.9420289855072463
 40
0.9420289855072463
 40
0.9420289855072463
 40
0.9565217391304348
 40
0.9565217391304348
 40
0.9565217391304348
 40
0.9565217391304348
 40
0.9710144927536232
 40
0.9710144927536232
 40
0.9710144927536232
 40
0.9710144927536232
 40
1.0
 40
1.0
 40
1.0
 40
1.0
 10
-245.0
 20
-348.7002
 30
0.0
 10
-245.0
 20
-348.7002
 30
0.0
 10
-225.0
 20
-348.7002
 30
0.0
 10
-225.0
 20
-348.7002
 30
0.0
 10
-225.0
 20
-348.7002
 30
0.0
 10
-225.0
 20
-348.7002
 30
0.0
 10
-225.0
 20
-342.7002
 30
0.0
 10
-225.0
 20
-342.7002
 30
0.0
 10
-225.0
 20
-342.7002
 30
0.0
 10
-225.0
 20
-342.7002
 30
0.0
 10
-205.0
 20
-342.7002
 30
0.0
 10
-205.0
 20
-342.7002
 30
0.0
 10
-205.0
 20
-342.7002
 30
0.0
 10
-205.0
 20
-342.7002
 30
0.0
 10
-205.0
 20
-348.7002
 30
0.0
 10
-205.0
 20
-348.7002
 30
0.0
 10
-205.0
 20
-348.7002
 30
0.0
 10
-205.0
 20
-348.7002
 30
0.0
 10
-185.0
 20
-348.7002
 30
0.0
 10
-185.0
 20
-348.7002
 30
0.0
 10
-185.0
 20
-348.7002
 30
0.0
 10
-185.0
 20
-348.7002
 30
0.0
 10
-185.0
 20
-342.7002
 30
0.0
 10
-185.0
 20
-342.7002
 30
0.0
 10
-185.0
 20
-342.7002
 30
0.0
 10
-185.0
 20
-342.7002
 30
0.0
 10
-165.0
 20
-342.7002
 30
0.0
 10
-165.0
 20
-342.7002
 30
0.0
 10
-165.0
 20
-342.7002
 30
0.0
 10
-165.0
 20
-342.7002
 30
0.0
 10
-165.0
 20
-348.7002
 30
0.0
 10
-165.0
 20
-348.7002
 30
0.0
 10
-165.0
 20
-348.7002
 30
0.0
 10
-165.0
 20
-348.7002
 30
0.0
 10
-145.0
 20
-348.7002
 30
0.0
 10
-145.0
 20
-348.7002
 30
0.0
 10
-145.0
 20
-348.7002
 30
0.0
 10
-145.0
 20
-348.7002
 30
0.0
 10
-145.0
 20
-342.7002
 30
0.0
 10
-145.0
 20
-342.7002
 30
0.0
 10
-145.0
 20
-342.7002
 30
0.0
 10
-145.0
 20
-342.7002
 30
0.0
 10
-125.0
 20
-342.7002
 30
0.0
 10
-125.0
 20
-342.7002
 30
0.0
 10
-125.0
 20
-342.7002
 30
0.0
 10
-125.0
 20
-342.7002
 30
0.0
 10
-125.0
 20
-348.7002
 30
0.0
 10
-125.0
 20
-348.7002
 30
0.0
 10
-125.0
 20
-348.7002
 30
0.0
 10
-125.0
 20
-348.7002
 30
0.0
 10
-105.0
 20
-348.7002
 30
0.0
 10
-105.0
 20
-348.7002
 30
0.0
 10
-105.0
 20
-348.7002
 30
0.0
 10
-105.0
 20
-348.7002
 30
0.0
 10
-105.0
 20
-342.7002
 30
0.0
 10
-105.0
 20
-342.7002
 30
0.0
 10
-105.0
 20
-342.7002
 30
0.0
 10
-105.0
 20
-342.7002
 30
0.0
 10
-85.0
 20
-342.7002
 30
0.0
 10
-85.0
 20
-342.7002
 30
0.0
 10
-85.0
 20
-342.7002
 30
0.0
 10
-85.0
 20
-342.7002
 30
0.0
 10
-85.0
 20
-348.7002
 30
0.0
 10
-85.0
 20
-348.7002
 30
0.0
 10
-85.0
 20
-348.7002
 30
0.0
 10
-85.0
 20
-348.7002
 30
0.0
 10
-65.0
 20
-348.7002
 30
0.0
 10
-65.0
 20
-348.7002
 30
0.0
 10
-65.0
 20
-348.7002
 30
0.0
 10
-65.0
 20
-348.7002
 30
0.0
 10
-65.0
 20
-342.7002
 30
0.0
 10
-65.0
 20
-342.7002
 30
0.0
 10
-65.0
 20
-342.7002
 30
0.0
 10
-65.0
 20
-342.7002
 30
0.0
 10
-45.0
 20
-342.7002
 30
0.0
 10
-45.0
 20
-342.7002
 30
0.0
 10
-45.0
 20
-342.7002
 30
0.0
 10
-45.0
 20
-342.7002
 30
0.0
 10
-45.0
 20
-348.7002
 30
0.0
 10
-45.0
 20
-348.7002
 30
0.0
 10
-45.0
 20
-348.7002
 30
0.0
 10
-45.0
 20
-348.7002
 30
0.0
 10
-25.0
 20
-348.7002
 30
0.0
 10
-25.0
 20
-348.7002
 30
0.0
 10
-25.0
 20
-348.7002
 30
0.0
 10
-25.0
 20
-348.7002
 30
0.0
 10
-25.0
 20
-342.7002
 30
0.0
 10
-25.0
 20
-342.7002
 30
0.0
 10
-25.0
 20
-342.7002
 30
0.0
 10
-25.0
 20
-342.7002
 30
0.0
 10
-5.0
 20
-342.7002
 30
0.0
 10
-5.0
 20
-342.7002
 30
0.0
 10
-5.0
 20
-342.7002
 30
0.0
 10
-5.0
 20
-342.7002
 30
0.0
 10
-5.0
 20
-348.7002
 30
0.0
 10
-5.0
 20
-348.7002
 30
0.0
 10
-5.0
 20
-348.7002
 30
0.0
 10
-5.0
 20
-348.7002
 30
0.0
 10
15.0
 20
-348.7002
 30
0.0
 10
15.0
 20
-348.7002
 30
0.0
 10
15.0
 20
-348.7002
 30
0.0
 10
15.0
 20
-348.7002
 30
0.0
 10
15.0
 20
-342.7002
 30
0.0
 10
15.0
 20
-342.7002
 30
0.0
 10
15.0
 20
-342.7002
 30
0.0
 10
15.0
 20
-342.7002
 30
0.0
 10
35.0
 20
-342.7002
 30
0.0
 10
35.0
 20
-342.7002
 30
0.0
 10
35.0
 20
-342.7002
 30
0.0
 10
35.0
 20
-342.7002
 30
0.0
 10
35.0
 20
-323.7002
 30
0.0
 10
35.0
 20
-323.7002
 30
0.0
 10
35.0
 20
-323.7002
 30
0.0
 10
35.0
 20
-323.7002
 30
0.0
 10
29.0
 20
-323.7002
 30
0.0
 10
29.0
 20
-323.7002
 30
0.0
 10
29.0
 20
-323.7002
 30
0.0
 10
29.0
 20
-323.7002
 30
0.0
 10
29.0
 20
-303.7002
 30
0.0
 10
29.0
 20
-303.7002
 30
0.0
 10
29.0
 20
-303.7002
 30
0.0
 10
29.0
 20
-303.7002
 30
0.0
 10
35.0
 20
-303.7002
 30
0.0
 10
35.0
 20
-303.7002
 30
0.0
 10
35.0
 20
-303.7002
 30
0.0
 10
35.0
 20
-303.7002
 30
0.0
 10
35.0
 20
-284.7002
 30
0.0
 10
35.0
 20
-284.7002
 30
0.0
 10
35.0
 20
-284.7002
 30
0.0
 10
35.0
 20
-284.7002
 30
0.0
 10
15.0
 20
-284.7002
 30
0.0
 10
15.0
 20
-284.7002
 30
0.0
 10
15.0
 20
-284.7002
 30
0.0
 10
15.0
 20
-284.7002
 30
0.0
 10
15.0
 20
-278.7002
 30
0.0
 10
15.0
 20
-278.7002
 30
0.0
 10
15.0
 20
-278.7002
 30
0.0
 10
15.0
 20
-278.7002
 30
0.0
 10
-5.0
 20
-278.7002
 30
0.0
 10
-5.0
 20
-278.7002
 30
0.0
 10
-5.0
 20
-278.7002
 30
0.0
 10
-5.0
 20
-278.7002
 30
0.0
 10
-5.0
 20
-284.7002
 30
0.0
 10
-5.0
 20
-284.7002
 30
0.0
 10
-5.0
 20
-284.7002
 30
0.0
 10
-5.0
 20
-284.7002
 30
0.0
 10
-25.0
 20
-284.7002
 30
0.0
 10
-25.0
 20
-284.7002
 30
0.0
 10
-25.0
 20
-284.7002
 30
0.0
 10
-25.0
 20
-284.7002
 30
0.0
 10
-25.0
 20
-278.7002
 30
0.0
 10
-25.0
 20
-278.7002
 30
0.0
 10
-25.0
 20
-278.7002
 30
0.0
 10
-25.0
 20
-278.7002
 30
0.0
 10
-45.0
 20
-278.7002
 30
0.0
 10
-45.0
 20
-278.7002
 30
0.0
 10
-45.0
 20
-278.7002
 30
0.0
 10
-45.0
 20
-278.7002
 30
0.0
 10
-45.0
 20
-284.7002
 30
0.0
 10
-45.0
 20
-284.7002
 30
0.0
 10
-45.0
 20
-284.7002
 30
0.0
 10
-45.0
 20
-284.7002
 30
0.0
 10
-65.0
 20
-284.7002
 30
0.0
 10
-65.0
 20
-284.7002
 30
0.0
 10
-65.0
 20
-284.7002
 30
0.0
 10
-65.0
 20
-284.7002
 30
0.0
 10
-65.0
 20
-278.7002
 30
0.0
 10
-65.0
 20
-278.7002
 30
0.0
 10
-65.0
 20
-278.7002
 30
0.0
 10
-65.0
 20
-278.7002
 30
0.0
 10
-85.0
 20
-278.7002
 30
0.0
 10
-85.0
 20
-278.7002
 30
0.0
 10
-85.0
 20
-278.7002
 30
0.0
 10
-85.0
 20
-278.7002
 30
0.0
 10
-85.0
 20
-284.7002
 30
0.0
 10
-85.0
 20
-284.7002
 30
0.0
 10
-85.0
 20
-284.7002
 30
0.0
 10
-85.0
 20
-284.7002
 30
0.0
 10
-105.0
 20
-284.7002
 30
0.0
 10
-105.0
 20
-284.7002
 30
0.0
 10
-105.0
 20
-284.7002
 30
0.0
 10
-105.0
 20
-284.7002
 30
0.0
 10
-105.0
 20
-278.7002
 30
0.0
 10
-105.0
 20
-278.7002
 30
0.0
 10
-105.0
 20
-278.7002
 30
0.0
 10
-105.0
 20
-278.7002
 30
0.0
 10
-125.0
 20
-278.7002
 30
0.0
 10
-125.0
 20
-278.7002
 30
0.0
 10
-125.0
 20
-278.7002
 30
0.0
 10
-125.0
 20
-278.7002
 30
0.0
 10
-125.0
 20
-284.7002
 30
0.0
 10
-125.0
 20
-284.7002
 30
0.0
 10
-125.0
 20
-284.7002
 30
0.0
 10
-125.0
 20
-284.7002
 30
0.0
 10
-145.0
 20
-284.7002
 30
0.0
 10
-145.0
 20
-284.7002
 30
0.0
 10
-145.0
 20
-284.7002
 30
0.0
 10
-145.0
 20
-284.7002
 30
0.0
 10
-145.0
 20
-278.7002
 30
0.0
 10
-145.0
 20
-278.7002
 30
0.0
 10
-145.0
 20
-278.7002
 30
0.0
 10
-145.0
 20
-278.7002
 30
0.0
 10
-165.0
 20
-278.7002
 30
0.0
 10
-165.0
 20
-278.7002
 30
0.0
 10
-165.0
 20
-278.7002
 30
0.0
 10
-165.0
 20
-278.7002
 30
0.0
 10
-165.0
 20
-284.7002
 30
0.0
 10
-165.0
 20
-284.7002
 30
0.0
 10
-165.0
 20
-284.7002
 30
0.0
 10
-165.0
 20
-284.7002
 30
0.0
 10
-185.0
 20
-284.7002
 30
0.0
 10
-185.0
 20
-284.7002
 30
0.0
 10
-185.0
 20
-284.7002
 30
0.0
 10
-185.0
 20
-284.7002
 30
0.0
 10
-185.0
 20
-278.7002
 30
0.0
 10
-185.0
 20
-278.7002
 30
0.0
 10
-185.0
 20
-278.7002
 30
0.0
 10
-185.0
 20
-278.7002
 30
0.0
 10
-205.0
 20
-278.7002
 30
0.0
 10
-205.0
 20
-278.7002
 30
0.0
 10
-205.0
 20
-278.7002
 30
0.0
 10
-205.0
 20
-278.7002
 30
0.0
 10
-205.0
 20
-284.7002
 30
0.0
 10
-205.0
 20
-284.7002
 30
0.0
 10
-205.0
 20
-284.7002
 30
0.0
 10
-205.0
 20
-284.7002
 30
0.0
 10
-225.0
 20
-284.7002
 30
0.0
 10
-225.0
 20
-284.7002
 30
0.0
 10
-225.0
 20
-284.7002
 30
0.0
 10
-225.0
 20
-284.7002
 30
0.0
 10
-225.0
 20
-278.7002
 30
0.0
 10
-225.0
 20
-278.7002
 30
0.0
 10
-225.0
 20
-278.7002
 30
0.0
 10
-225.0
 20
-278.7002
 30
0.0
 10
-245.0
 20
-278.7002
 30
0.0
 10
-245.0
 20
-278.7002
 30
0.0
 10
-245.0
 20
-278.7002
 30
0.0
 10
-245.0
 20
-278.7002
 30
0.0
 10
-245.0
 20
-284.7002
 30
0.0
 10
-245.0
 20
-284.7002
 30
0.0
 10
-245.0
 20
-284.7002
 30
0.0
 10
-245.0
 20
-284.7002
 30
0.0
 10
-265.0
 20
-284.7002
 30
0.0
 10
-265.0
 20
-284.7002
 30
0.0
 10
-265.0
 20
-284.7002
 30
0.0
 10
-265.0
 20
-284.7002
 30
0.0
 10
-265.0
 20
-303.7002
 30
0.0
 10
-265.0
 20
-303.7002
 30
0.0
 10
-265.0
 20
-303.7002
 30
0.0
 10
-265.0
 20
-303.7002
 30
0.0
 10
-259.0
 20
-303.7002
 30
0.0
 10
-259.0
 20
-303.7002
 30
0.0
 10
-259.0
 20
-303.7002
 30
0.0
 10
-259.0
 20
-303.7002
 30
0.0
 10
-259.0
 20
-323.7002
 30
0.0
 10
-259.0
 20
-323.7002
 30
0.0
 10
-259.0
 20
-323.7002
 30
0.0
 10
-259.0
 20
-323.7002
 30
0.0
 10
-265.0
 20
-323.7002
 30
0.0
 10
-265.0
 20
-323.7002
 30
0.0
 10
-265.0
 20
-323.7002
 30
0.0
 10
-265.0
 20
-323.7002
 30
0.0
 10
-265.0
 20
-342.7002
 30
0.0
 10
-265.0
 20
-342.7002
 30
0.0
 10
-265.0
 20
-342.7002
 30
0.0
 10
-265.0
 20
-342.7002
 30
0.0
 10
-245.0
 20
-342.7002
 30
0.0
 10
-245.0
 20
-342.7002
 30
0.0
 10
-245.0
 20
-342.7002
 30
0.0
 10
-245.0
 20
-342.7002
 30
0.0
 10
-245.0
 20
-348.7002
 30
0.0
 10
-245.0
 20
-348.7002
 30
0.0
  0
SPLINE
  5
7F
330
1F
100
AcDbEntity
  8
draw
 62
   250
370
    20
100
AcDbSpline
210
0.0
220
0.0
230
1.0
 70
    11
 71
     3
 72
    36
 73
    32
 74
     0
 42
0.000000001
 43
0.0000000001
 40
0.0
 40
0.0
 40
0.0
 40
0.0
 40
0.1111111111111111
 40
0.1111111111111111
 40
0.1111111111111111
 40
0.1111111111111111
 40
0.2222222222222222
 40
0.2222222222222222
 40
0.2222222222222222
 40
0.2222222222222222
 40
0.3333333333333333
 40
0.3333333333333333
 40
0.3333333333333333
 40
0.3333333333333333
 40
0.4444444444444444
 40
0.4444444444444444
 40
0.4444444444444444
 40
0.4444444444444444
 40
0.5555555555555556
 40
0.5555555555555556
 40
0.5555555555555556
 40
0.5555555555555556
 40
0.6666666666666666
 40
0.6666666666666666
 40
0.6666666666666666
 40
0.6666666666666666
 40
0.7777777777777778
 40
0.7777777777777778
 40
0.7777777777777778
 40
0.7777777777777778
 40
1.0
 40
1.0
 40
1.0
 40
1.0
 10
-77.5001
 20
-296.2002
 30
0.0
 10
-77.5001
 20
-296.2002
 30
0.0
 10
-12.4999
 20
-296.2002
 30
0.0
 10
-12.4999
 20
-296.2002
 30
0.0
 10
-12.4999
 20
-296.2002
 30
0.0
 10
-2.8749
 20
-296.2002
 30
0.0
 10
5.0
 20
-304.0751
 30
0.0
 10
5.0
 20
-313.7001
 30
0.0
 10
5.0
 20
-313.7001
 30
0.0
 10
5.0
 20
-313.7001
 30
0.0
 10
5.0
 20
-313.7003
 30
0.0
 10
5.0
 20
-313.7003
 30
0.0
 10
5.0
 20
-313.7003
 30
0.0
 10
5.0
 20
-323.3253
 30
0.0
 10
-2.8749
 20
-331.2002
 30
0.0
 10
-12.4999
 20
-331.2002
 30
0.0
 10
-12.4999
 20
-331.2002
 30
0.0
 10
-12.4999
 20
-331.2002
 30
0.0
 10
-77.5001
 20
-331.2002
 30
0.0
 10
-77.5001
 20
-331.2002
 30
0.0
 10
-77.5001
 20
-331.2002
 30
0.0
 10
-87.1251
 20
-331.2002
 30
0.0
 10
-95.0
 20
-323.3253
 30
0.0
 10
-95.0
 20
-313.7003
 30
0.0
 10
-95.0
 20
-313.7003
 30
0.0
 10
-95.0
 20
-313.7003
 30
0.0
 10
-95.0
 20
-313.7001
 30
0.0
 10
-95.0
 20
-313.7001
 30
0.0
 10
-95.0
 20
-313.7001
 30
0.0
 10
-95.0
 20
-304.0751
 30
0.0
 10
-87.1251
 20
-296.2002
 30
0.0
 10
-77.5001
 20
-296.2002
 30
0.0
  0
SPLINE
  5
80
330
1F
100
AcDbEntity
  8
draw
 62
   250
370
    20
100
AcDbSpline
210
0.0
220
0.0
230
1.0
 70
    11
 71
     3
 72
    36
 73
    32
 74
     0
 42
0.000000001
 43
0.0000000001
 40
0.0
 40
0.0
 40
0.0
 40
0.0
 40
0.1111111111111111
 40
0.1111111111111111
 40
0.1111111111111111
 40
0.1111111111111111
 40
0.2222222222222222
 40
0.2222222222222222
 40
0.2222222222222222
 40
0.2222222222222222
 40
0.3333333333333333
 40
0.3333333333333333
 40
0.3333333333333333
 40
0.3333333333333333
 40
0.4444444444444444
 40
0.4444444444444444
 40
0.4444444444444444
 40
0.4444444444444444
 40
0.5555555555555556
 40
0.5555555555555556
 40
0.5555555555555556
 40
0.5555555555555556
 40
0.6666666666666666
 40
0.6666666666666666
 40
0.6666666666666666
 40
0.6666666666666666
 40
0.7777777777777778
 40
0.7777777777777778
 40
0.7777777777777778
 40
0.7777777777777778
 40
1.0
 40
1.0
 40
1.0
 40
1.0
 10
-217.5001
 20
-296.2002
 30
0.0
 10
-217.5001
 20
-296.2002
 30
0.0
 10
-152.4999
 20
-296.2002
 30
0.0
 10
-152.4999
 20
-296.2002
 30
0.0
 10
-152.4999
 20
-296.2002
 30
0.0
 10
-142.8749
 20
-296.2002
 30
0.0
 10
-135.0
 20
-304.0751
 30
0.0
 10
-135.0
 20
-313.7001
 30
0.0
 10
-135.0
 20
-313.7001
 30
0.0
 10
-135.0
 20
-313.7001
 30
0.0
 10
-135.0
 20
-313.7003
 30
0.0
 10
-135.0
 20
-313.7003
 30
0.0
 10
-135.0
 20
-313.7003
 30
0.0
 10
-135.0
 20
-323.3253
 30
0.0
 10
-142.8749
 20
-331.2002
 30
0.0
 10
-152.4999
 20
-331.2002
 30
0.0
 10
-152.4999
 20
-331.2002
 30
0.0
 10
-152.4999
 20
-331.2002
 30
0.0
 10
-217.5001
 20
-331.2002
 30
0.0
 10
-217.5001
 20
-331.2002
 30
0.0
 10
-217.5001
 20
-331.2002
 30
0.0
 10
-227.1251
 20
-331.2002
 30
0.0
 10
-235.0
 20
-323.3253
 30
0.0
 10
-235.0
 20
-313.7003
 30
0.0
 10
-235.0
 20
-313.7003
 30
0.0
 10
-235.0
 20
-313.7003
 30
0.0
 10
-235.0
 20
-313.7001
 30
0.0
 10
-235.0
 20
-313.7001
 30
0.0
 10
-235.0
 20
-313.7001
 30
0.0
 10
-235.0
 20
-304.0751
 30
0.0
 10
-227.1251
 20
-296.2002
 30
0.0
 10
-217.5001
 20
-296.2002
 30
0.0
  0
SPLINE
  5
81
330
1F
100
AcDbEntity
  8
draw
 62
   250
370
    20
100
AcDbSpline
210
0.0
220
0.0
230
1.0
 70
    11
 71
     3
 72
   276
 73
   272
 74
     0
 42
0.000000001
 43
0.0000000001
 40
0.0
 40
0.0
 40
0.0
 40
0.0
 40
0.0144927536231884
 40
0.0144927536231884
 40
0.0144927536231884
 40
0.0144927536231884
 40
0.0289855072463768
 40
0.0289855072463768
 40
0.0289855072463768
 40
0.0289855072463768
 40
0.0434782608695652
 40
0.0434782608695652
 40
0.0434782608695652
 40
0.0434782608695652
 40
0.0579710144927536
 40
0.0579710144927536
 40
0.0579710144927536
 40
0.0579710144927536
 40
0.072463768115942
 40
0.072463768115942
 40
0.072463768115942
 40
0.072463768115942
 40
0.0869565217391304
 40
0.0869565217391304
 40
0.0869565217391304
 40
0.0869565217391304
 40
0.1014492753623188
 40
0.1014492753623188
 40
0.1014492753623188
 40
0.1014492753623188
 40
0.1159420289855072
 40
0.1159420289855072
 40
0.1159420289855072
 40
0.1159420289855072
 40
0.1304347826086956
 40
0.1304347826086956
 40
0.1304347826086956
 40
0.1304347826086956
 40
0.1449275362318841
 40
0.1449275362318841
 40
0.1449275362318841
 40
0.1449275362318841
 40
0.1594202898550725
 40
0.1594202898550725
 40
0.1594202898550725
 40
0.1594202898550725
 40
0.1739130434782609
 40
0.1739130434782609
 40
0.1739130434782609
 40
0.1739130434782609
 40
0.1884057971014493
 40
0.1884057971014493
 40
0.1884057971014493
 40
0.1884057971014493
 40
0.2028985507246377
 40
0.2028985507246377
 40
0.2028985507246377
 40
0.2028985507246377
 40
0.2173913043478261
 40
0.2173913043478261
 40
0.2173913043478261
 40
0.2173913043478261
 40
0.2318840579710145
 40
0.2318840579710145
 40
0.2318840579710145
 40
0.2318840579710145
 40
0.2463768115942029
 40
0.2463768115942029
 40
0.2463768115942029
 40
0.2463768115942029
 40
0.2608695652173913
 40
0.2608695652173913
 40
0.2608695652173913
 40
0.2608695652173913
 40
0.2753623188405797
 40
0.2753623188405797
 40
0.2753623188405797
 40
0.2753623188405797
 40
0.2898550724637681
 40
0.2898550724637681
 40
0.2898550724637681
 40
0.2898550724637681
 40
0.3043478260869565
 40
0.3043478260869565
 40
0.3043478260869565
 40
0.3043478260869565
 40
0.3188405797101449
 40
0.3188405797101449
 40
0.3188405797101449
 40
0.3188405797101449
 40
0.3333333333333333
 40
0.3333333333333333
 40
0.3333333333333333
 40
0.3333333333333333
 40
0.3478260869565217
 40
0.3478260869565217
 40
0.3478260869565217
 40
0.3478260869565217
 40
0.3623188405797101
 40
0.3623188405797101
 40
0.3623188405797101
 40
0.3623188405797101
 40
0.3768115942028986
 40
0.3768115942028986
 40
0.3768115942028986
 40
0.3768115942028986
 40
0.391304347826087
 40
0.391304347826087
 40
0.391304347826087
 40
0.391304347826087
 40
0.4057971014492754
 40
0.4057971014492754
 40
0.4057971014492754
 40
0.4057971014492754
 40
0.4202898550724637
 40
0.4202898550724637
 40
0.4202898550724637
 40
0.4202898550724637
 40
0.4347826086956522
 40
0.4347826086956522
 40
0.4347826086956522
 40
0.4347826086956522
 40
0.4492753623188406
 40
0.4492753623188406
 40
0.4492753623188406
 40
0.4492753623188406
 40
0.463768115942029
 40
0.463768115942029
 40
0.463768115942029
 40
0.463768115942029
 40
0.4782608695652174
 40
0.4782608695652174
 40
0.4782608695652174
 40
0.4782608695652174
 40
0.4927536231884058
 40
0.4927536231884058
 40
0.4927536231884058
 40
0.4927536231884058
 40
0.5072463768115942
 40
0.5072463768115942
 40
0.5072463768115942
 40
0.5072463768115942
 40
0.5217391304347826
 40
0.5217391304347826
 40
0.5217391304347826
 40
0.5217391304347826
 40
0.5362318840579711
 40
0.5362318840579711
 40
0.5362318840579711
 40
0.5362318840579711
 40
0.5507246376811594
 40
0.5507246376811594
 40
0.5507246376811594
 40
0.5507246376811594
 40
0.5652173913043478
 40
0.5652173913043478
 40
0.5652173913043478
 40
0.5652173913043478
 40
0.5797101449275363
 40
0.5797101449275363
 40
0.5797101449275363
 40
0.5797101449275363
 40
0.5942028985507246
 40
0.5942028985507246
 40
0.5942028985507246
 40
0.5942028985507246
 40
0.6086956521739131
 40
0.6086956521739131
 40
0.6086956521739131
 40
0.6086956521739131
 40
0.6231884057971014
 40
0.6231884057971014
 40
0.6231884057971014
 40
0.6231884057971014
 40
0.6376811594202898
 40
0.6376811594202898
 40
0.6376811594202898
 40
0.6376811594202898
 40
0.6521739130434783
 40
0.6521739130434783
 40
0.6521739130434783
 40
0.6521739130434783
 40
0.6666666666666666
 40
0.6666666666666666
 40
0.6666666666666666
 40
0.6666666666666666
 40
0.6811594202898551
 40
0.6811594202898551
 40
0.6811594202898551
 40
0.6811594202898551
 40
0.6956521739130435
 40
0.6956521739130435
 40
0.6956521739130435
 40
0.6956521739130435
 40
0.7101449275362319
 40
0.7101449275362319
 40
0.7101449275362319
 40
0.7101449275362319
 40
0.7246376811594203
 40
0.7246376811594203
 40
0.7246376811594203
 40
0.7246376811594203
 40
0.7391304347826086
 40
0.7391304347826086
 40
0.7391304347826086
 40
0.7391304347826086
 40
0.7536231884057971
 40
0.7536231884057971
 40
0.7536231884057971
 40
0.7536231884057971
 40
0.7681159420289855
 40
0.7681159420289855
 40
0.7681159420289855
 40
0.7681159420289855
 40
0.782608695652174
 40
0.782608695652174
 40
0.782608695652174
 40
0.782608695652174
 40
0.7971014492753623
 40
0.7971014492753623
 40
0.7971014492753623
 40
0.7971014492753623
 40
0.8115942028985508
 40
0.8115942028985508
 40
0.8115942028985508
 40
0.8115942028985508
 40
0.8260869565217391
 40
0.8260869565217391
 40
0.8260869565217391
 40
0.8260869565217391
 40
0.8405797101449275
 40
0.8405797101449275
 40
0.8405797101449275
 40
0.8405797101449275
 40
0.855072463768116
 40
0.855072463768116
 40
0.855072463768116
 40
0.855072463768116
 40
0.8695652173913043
 40
0.8695652173913043
 40
0.8695652173913043
 40
0.8695652173913043
 40
0.8840579710144928
 40
0.8840579710144928
 40
0.8840579710144928
 40
0.8840579710144928
 40
0.8985507246376812
 40
0.8985507246376812
 40
0.8985507246376812
 40
0.8985507246376812
 40
0.9130434782608695
 40
0.9130434782608695
 40
0.9130434782608695
 40
0.9130434782608695
 40
0.927536231884058
 40
0.927536231884058
 40
0.927536231884058
 40
0.927536231884058
 40
0.9420289855072463
 40
0.9420289855072463
 40
0.9420289855072463
 40
0.9420289855072463
 40
0.9565217391304348
 40
0.9565217391304348
 40
0.9565217391304348
 40
0.9565217391304348
 40
0.9710144927536232
 40
0.9710144927536232
 40
0.9710144927536232
 40
0.9710144927536232
 40
1.0
 40
1.0
 40
1.0
 40
1.0
 10
117.8536
 20
-245.0
 30
0.0
 10
117.8536
 20
-245.0
 30
0.0
 10
117.8536
 20
-225.0
 30
0.0
 10
117.8536
 20
-225.0
 30
0.0
 10
117.8536
 20
-225.0
 30
0.0
 10
117.8536
 20
-225.0
 30
0.0
 10
111.8536
 20
-225.0
 30
0.0
 10
111.8536
 20
-225.0
 30
0.0
 10
111.8536
 20
-225.0
 30
0.0
 10
111.8536
 20
-225.0
 30
0.0
 10
111.8536
 20
-205.0
 30
0.0
 10
111.8536
 20
-205.0
 30
0.0
 10
111.8536
 20
-205.0
 30
0.0
 10
111.8536
 20
-205.0
 30
0.0
 10
117.8536
 20
-205.0
 30
0.0
 10
117.8536
 20
-205.0
 30
0.0
 10
117.8536
 20
-205.0
 30
0.0
 10
117.8536
 20
-205.0
 30
0.0
 10
117.8536
 20
-185.0
 30
0.0
 10
117.8536
 20
-185.0
 30
0.0
 10
117.8536
 20
-185.0
 30
0.0
 10
117.8536
 20
-185.0
 30
0.0
 10
111.8536
 20
-185.0
 30
0.0
 10
111.8536
 20
-185.0
 30
0.0
 10
111.8536
 20
-185.0
 30
0.0
 10
111.8536
 20
-185.0
 30
0.0
 10
111.8536
 20
-165.0
 30
0.0
 10
111.8536
 20
-165.0
 30
0.0
 10
111.8536
 20
-165.0
 30
0.0
 10
111.8536
 20
-165.0
 30
0.0
 10
117.8536
 20
-165.0
 30
0.0
 10
117.8536
 20
-165.0
 30
0.0
 10
117.8536
 20
-165.0
 30
0.0
 10
117.8536
 20
-165.0
 30
0.0
 10
117.8536
 20
-145.0
 30
0.0
 10
117.8536
 20
-145.0
 30
0.0
 10
117.8536
 20
-145.0
 30
0.0
 10
117.8536
 20
-145.0
 30
0.0
 10
111.8536
 20
-145.0
 30
0.0
 10
111.8536
 20
-145.0
 30
0.0
 10
111.8536
 20
-145.0
 30
0.0
 10
111.8536
 20
-145.0
 30
0.0
 10
111.8536
 20
-125.0
 30
0.0
 10
111.8536
 20
-125.0
 30
0.0
 10
111.8536
 20
-125.0
 30
0.0
 10
111.8536
 20
-125.0
 30
0.0
 10
117.8536
 20
-125.0
 30
0.0
 10
117.8536
 20
-125.0
 30
0.0
 10
117.8536
 20
-125.0
 30
0.0
 10
117.8536
 20
-125.0
 30
0.0
 10
117.8536
 20
-105.0
 30
0.0
 10
117.8536
 20
-105.0
 30
0.0
 10
117.8536
 20
-105.0
 30
0.0
 10
117.8536
 20
-105.0
 30
0.0
 10
111.8536
 20
-105.0
 30
0.0
 10
111.8536
 20
-105.0
 30
0.0
 10
111.8536
 20
-105.0
 30
0.0
 10
111.8536
 20
-105.0
 30
0.0
 10
111.8536
 20
-85.0
 30
0.0
 10
111.8536
 20
-85.0
 30
0.0
 10
111.8536
 20
-85.0
 30
0.0
 10
111.8536
 20
-85.0
 30
0.0
 10
117.8536
 20
-85.0
 30
0.0
 10
117.8536
 20
-85.0
 30
0.0
 10
117.8536
 20
-85.0
 30
0.0
 10
117.8536
 20
-85.0
 30
0.0
 10
117.8536
 20
-65.0
 30
0.0
 10
117.8536
 20
-65.0
 30
0.0
 10
117.8536
 20
-65.0
 30
0.0
 10
117.8536
 20
-65.0
 30
0.0
 10
111.8536
 20
-65.0
 30
0.0
 10
111.8536
 20
-65.0
 30
0.0
 10
111.8536
 20
-65.0
 30
0.0
 10
111.8536
 20
-65.0
 30
0.0
 10
111.8536
 20
-45.0
 30
0.0
 10
111.8536
 20
-45.0
 30
0.0
 10
111.8536
 20
-45.0
 30
0.0
 10
111.8536
 20
-45.0
 30
0.0
 10
117.8536
 20
-45.0
 30
0.0
 10
117.8536
 20
-45.0
 30
0.0
 10
117.8536
 20
-45.0
 30
0.0
 10
117.8536
 20
-45.0
 30
0.0
 10
117.8536
 20
-25.0
 30
0.0
 10
117.8536
 20
-25.0
 30
0.0
 10
117.8536
 20
-25.0
 30
0.0
 10
117.8536
 20
-25.0
 30
0.0
 10
111.8536
 20
-25.0
 30
0.0
 10
111.8536
 20
-25.0
 30
0.0
 10
111.8536
 20
-25.0
 30
0.0
 10
111.8536
 20
-25.0
 30
0.0
 10
111.8536
 20
-5.0
 30
0.0
 10
111.8536
 20
-5.0
 30
0.0
 10
111.8536
 20
-5.0
 30
0.0
 10
111.8536
 20
-5.0
 30
0.0
 10
117.8536
 20
-5.0
 30
0.0
 10
117.8536
 20
-5.0
 30
0.0
 10
117.8536
 20
-5.0
 30
0.0
 10
117.8536
 20
-5.0
 30
0.0
 10
117.8536
 20
15.0
 30
0.0
 10
117.8536
 20
15.0
 30
0.0
 10
117.8536
 20
15.0
 30
0.0
 10
117.8536
 20
15.0
 30
0.0
 10
111.8536
 20
15.0
 30
0.0
 10
111.8536
 20
15.0
 30
0.0
 10
111.8536
 20
15.0
 30
0.0
 10
111.8536
 20
15.0
 30
0.0
 10
111.8536
 20
29.0
 30
0.0
 10
111.8536
 20
29.0
 30
0.0
 10
111.8536
 20
29.0
 30
0.0
 10
111.8536
 20
29.0
 30
0.0
 10
92.8536
 20
29.0
 30
0.0
 10
92.8536
 20
29.0
 30
0.0
 10
92.8536
 20
29.0
 30
0.0
 10
92.8536
 20
29.0
 30
0.0
 10
92.8536
 20
35.0
 30
0.0
 10
92.8536
 20
35.0
 30
0.0
 10
92.8536
 20
35.0
 30
0.0
 10
92.8536
 20
35.0
 30
0.0
 10
72.8536
 20
35.0
 30
0.0
 10
72.8536
 20
35.0
 30
0.0
 10
72.8536
 20
35.0
 30
0.0
 10
72.8536
 20
35.0
 30
0.0
 10
72.8536
 20
29.0
 30
0.0
 10
72.8536
 20
29.0
 30
0.0
 10
72.8536
 20
29.0
 30
0.0
 10
72.8536
 20
29.0
 30
0.0
 10
53.8536
 20
29.0
 30
0.0
 10
53.8536
 20
29.0
 30
0.0
 10
53.8536
 20
29.0
 30
0.0
 10
53.8536
 20
29.0
 30
0.0
 10
53.8536
 20
15.0
 30
0.0
 10
53.8536
 20
15.0
 30
0.0
 10
53.8536
 20
15.0
 30
0.0
 10
53.8536
 20
15.0
 30
0.0
 10
47.8536
 20
15.0
 30
0.0
 10
47.8536
 20
15.0
 30
0.0
 10
47.8536
 20
15.0
 30
0.0
 10
47.8536
 20
15.0
 30
0.0
 10
47.8536
 20
-5.0
 30
0.0
 10
47.8536
 20
-5.0
 30
0.0
 10
47.8536
 20
-5.0
 30
0.0
 10
47.8536
 20
-5.0
 30
0.0
 10
53.8536
 20
-5.0
 30
0.0
 10
53.8536
 20
-5.0
 30
0.0
 10
53.8536
 20
-5.0
 30
0.0
 10
53.8536
 20
-5.0
 30
0.0
 10
53.8536
 20
-25.0
 30
0.0
 10
53.8536
 20
-25.0
 30
0.0
 10
53.8536
 20
-25.0
 30
0.0
 10
53.8536
 20
-25.0
 30
0.0
 10
47.8536
 20
-25.0
 30
0.0
 10
47.8536
 20
-25.0
 30
0.0
 10
47.8536
 20
-25.0
 30
0.0
 10
47.8536
 20
-25.0
 30
0.0
 10
47.8536
 20
-45.0
 30
0.0
 10
47.8536
 20
-45.0
 30
0.0
 10
47.8536
 20
-45.0
 30
0.0
 10
47.8536
 20
-45.0
 30
0.0
 10
53.8536
 20
-45.0
 30
0.0
 10
53.8536
 20
-45.0
 30
0.0
 10
53.8536
 20
-45.0
 30
0.0
 10
53.8536
 20
-45.0
 30
0.0
 10
53.8536
 20
-65.0
 30
0.0
 10
53.8536
 20
-65.0
 30
0.0
 10
53.8536
 20
-65.0
 30
0.0
 10
53.8536
 20
-65.0
 30
0.0
 10
47.8536
 20
-65.0
 30
0.0
 10
47.8536
 20
-65.0
 30
0.0
 10
47.8536
 20
-65.0
 30
0.0
 10
47.8536
 20
-65.0
 30
0.0
 10
47.8536
 20
-85.0
 30
0.0
 10
47.8536
 20
-85.0
 30
0.0
 10
47.8536
 20
-85.0
 30
0.0
 10
47.8536
 20
-85.0
 30
0.0
 10
53.8536
 20
-85.0
 30
0.0
 10
53.8536
 20
-85.0
 30
0.0
 10
53.8536
 20
-85.0
 30
0.0
 10
53.8536
 20
-85.0
 30
0.0
 10
53.8536
 20
-105.0
 30
0.0
 10
53.8536
 20
-105.0
 30
0.0
 10
53.8536
 20
-105.0
 30
0.0
 10
53.8536
 20
-105.0
 30
0.0
 10
47.8536
 20
-105.0
 30
0.0
 10
47.8536
 20
-105.0
 30
0.0
 10
47.8536
 20
-105.0
 30
0.0
 10
47.8536
 20
-105.0
 30
0.0
 10
47.8536
 20
-125.0
 30
0.0
 10
47.8536
 20
-125.0
 30
0.0
 10
47.8536
 20
-125.0
 30
0.0
 10
47.8536
 20
-125.0
 30
0.0
 10
53.8536
 20
-125.0
 30
0.0
 10
53.8536
 20
-125.0
 30
0.0
 10
53.8536
 20
-125.0
 30
0.0
 10
53.8536
 20
-125.0
 30
0.0
 10
53.8536
 20
-145.0
 30
0.0
 10
53.8536
 20
-145.0
 30
0.0
 10
53.8536
 20
-145.0
 30
0.0
 10
53.8536
 20
-145.0
 30
0.0
 10
47.8536
 20
-145.0
 30
0.0
 10
47.8536
 20
-145.0
 30
0.0
 10
47.8536
 20
-145.0
 30
0.0
 10
47.8536
 20
-145.0
 30
0.0
 10
47.8536
 20
-165.0
 30
0.0
 10
47.8536
 20
-165.0
 30
0.0
 10
47.8536
 20
-165.0
 30
0.0
 10
47.8536
 20
-165.0
 30
0.0
 10
53.8536
 20
-165.0
 30
0.0
 10
53.8536
 20
-165.0
 30
0.0
 10
53.8536
 20
-165.0
 30
0.0
 10
53.8536
 20
-165.0
 30
0.0
 10
53.8536
 20
-185.0
 30
0.0
 10
53.8536
 20
-185.0
 30
0.0
 10
53.8536
 20
-185.0
 30
0.0
 10
53.8536
 20
-185.0
 30
0.0
 10
47.8536
 20
-185.0
 30
0.0
 10
47.8536
 20
-185.0
 30
0.0
 10
47.8536
 20
-185.0
 30
0.0
 10
47.8536
 20
-185.0
 30
0.0
 10
47.8536
 20
-205.0
 30
0.0
 10
47.8536
 20
-205.0
 30
0.0
 10
47.8536
 20
-205.0
 30
0.0
 10
47.8536
 20
-205.0
 30
0.0
 10
53.8536
 20
-205.0
 30
0.0
 10
53.8536
 20
-205.0
 30
0.0
 10
53.8536
 20
-205.0
 30
0.0
 10
53.8536
 20
-205.0
 30
0.0
 10
53.8536
 20
-225.0
 30
0.0
 10
53.8536
 20
-225.0
 30
0.0
 10
53.8536
 20
-225.0
 30
0.0
 10
53.8536
 20
-225.0
 30
0.0
 10
47.8536
 20
-225.0
 30
0.0
 10
47.8536
 20
-225.0
 30
0.0
 10
47.8536
 20
-225.0
 30
0.0
 10
47.8536
 20
-225.0
 30
0.0
 10
47.8536
 20
-245.0
 30
0.0
 10
47.8536
 20
-245.0
 30
0.0
 10
47.8536
 20
-245.0
 30
0.0
 10
47.8536
 20
-245.0
 30
0.0
 10
53.8536
 20
-245.0
 30
0.0
 10
53.8536
 20
-245.0
 30
0.0
 10
53.8536
 20
-245.0
 30
0.0
 10
53.8536
 20
-245.0
 30
0.0
 10
53.8536
 20
-259.0
 30
0.0
 10
53.8536
 20
-259.0
 30
0.0
 10
53.8536
 20
-259.0
 30
0.0
 10
53.8536
 20
-259.0
 30
0.0
 10
72.8536
 20
-259.0
 30
0.0
 10
72.8536
 20
-259.0
 30
0.0
 10
72.8536
 20
-259.0
 30
0.0
 10
72.8536
 20
-259.0
 30
0.0
 10
72.8536
 20
-265.0
 30
0.0
 10
72.8536
 20
-265.0
 30
0.0
 10
72.8536
 20
-265.0
 30
0.0
 10
72.8536
 20
-265.0
 30
0.0
 10
92.8536
 20
-265.0
 30
0.0
 10
92.8536
 20
-265.0
 30
0.0
 10
92.8536
 20
-265.0
 30
0.0
 10
92.8536
 20
-265.0
 30
0.0
 10
92.8536
 20
-259.0
 30
0.0
 10
92.8536
 20
-259.0
 30
0.0
 10
92.8536
 20
-259.0
 30
0.0
 10
92.8536
 20
-259.0
 30
0.0
 10
111.8536
 20
-259.0
 30
0.0
 10
111.8536
 20
-259.0
 30
0.0
 10
111.8536
 20
-259.0
 30
0.0
 10
111.8536
 20
-259.0
 30
0.0
 10
111.8536
 20
-245.0
 30
0.0
 10
111.8536
 20
-245.0
 30
0.0
 10
111.8536
 20
-245.0
 30
0.0
 10
111.8536
 20
-245.0
 30
0.0
 10
117.8536
 20
-245.0
 30
0.0
 10
117.8536
 20
-245.0
 30
0.0
  0
SPLINE
  5
82
330
1F
100
AcDbEntity
  8
draw
 62
   250
370
    20
100
AcDbSpline
210
0.0
220
0.0
230
1.0
 70
    11
 71
     3
 72
    36
 73
    32
 74
     0
 42
0.000000001
 43
0.0000000001
 40
0.0
 40
0.0
 40
0.0
 40
0.0
 40
0.1111111111111111
 40
0.1111111111111111
 40
0.1111111111111111
 40
0.1111111111111111
 40
0.2222222222222222
 40
0.2222222222222222
 40
0.2222222222222222
 40
0.2222222222222222
 40
0.3333333333333333
 40
0.3333333333333333
 40
0.3333333333333333
 40
0.3333333333333333
 40
0.4444444444444444
 40
0.4444444444444444
 40
0.4444444444444444
 40
0.4444444444444444
 40
0.5555555555555556
 40
0.5555555555555556
 40
0.5555555555555556
 40
0.5555555555555556
 40
0.6666666666666666
 40
0.6666666666666666
 40
0.6666666666666666
 40
0.6666666666666666
 40
0.7777777777777778
 40
0.7777777777777778
 40
0.7777777777777778
 40
0.7777777777777778
 40
1.0
 40
1.0
 40
1.0
 40
1.0
 10
65.3537
 20
-77.5001
 30
0.0
 10
65.3537
 20
-77.5001
 30
0.0
 10
65.3537
 20
-12.4999
 30
0.0
 10
65.3537
 20
-12.4999
 30
0.0
 10
65.3537
 20
-12.4999
 30
0.0
 10
65.3537
 20
-2.8749
 30
0.0
 10
73.2286
 20
5.0
 30
0.0
 10
82.8536
 20
5.0
 30
0.0
 10
82.8536
 20
5.0
 30
0.0
 10
82.8536
 20
5.0
 30
0.0
 10
82.8538
 20
5.0
 30
0.0
 10
82.8538
 20
5.0
 30
0.0
 10
82.8538
 20
5.0
 30
0.0
 10
92.4788
 20
5.0
 30
0.0
 10
100.3537
 20
-2.8749
 30
0.0
 10
100.3537
 20
-12.4999
 30
0.0
 10
100.3537
 20
-12.4999
 30
0.0
 10
100.3537
 20
-12.4999
 30
0.0
 10
100.3537
 20
-77.5001
 30
0.0
 10
100.3537
 20
-77.5001
 30
0.0
 10
100.3537
 20
-77.5001
 30
0.0
 10
100.3537
 20
-87.1251
 30
0.0
 10
92.4788
 20
-95.0
 30
0.0
 10
82.8538
 20
-95.0
 30
0.0
 10
82.8538
 20
-95.0
 30
0.0
 10
82.8538
 20
-95.0
 30
0.0
 10
82.8536
 20
-95.0
 30
0.0
 10
82.8536
 20
-95.0
 30
0.0
 10
82.8536
 20
-95.0
 30
0.0
 10
73.2286
 20
-95.0
 30
0.0
 10
65.3537
 20
-87.1251
 30
0.0
 10
65.3537
 20
-77.5001
 30
0.0
  0
SPLINE
  5
83
330
1F
100
AcDbEntity
  8
draw
 62
   250
370
    20
100
AcDbSpline
210
0.0
220
0.0
230
1.0
 70
    11
 71
     3
 72
    36
 73
    32
 74
     0
 42
0.000000001
 43
0.0000000001
 40
0.0
 40
0.0
 40
0.0
 40
0.0
 40
0.1111111111111111
 40
0.1111111111111111
 40
0.1111111111111111
 40
0.1111111111111111
 40
0.2222222222222222
 40
0.2222222222222222
 40
0.2222222222222222
 40
0.2222222222222222
 40
0.3333333333333333
 40
0.3333333333333333
 40
0.3333333333333333
 40
0.3333333333333333
 40
0.4444444444444444
 40
0.4444444444444444
 40
0.4444444444444444
 40
0.4444444444444444
 40
0.5555555555555556
 40
0.5555555555555556
 40
0.5555555555555556
 40
0.5555555555555556
 40
0.6666666666666666
 40
0.6666666666666666
 40
0.6666666666666666
 40
0.6666666666666666
 40
0.7777777777777778
 40
0.7777777777777778
 40
0.7777777777777778
 40
0.7777777777777778
 40
1.0
 40
1.0
 40
1.0
 40
1.0
 10
65.3537
 20
-217.5001
 30
0.0
 10
65.3537
 20
-217.5001
 30
0.0
 10
65.3537
 20
-152.4999
 30
0.0
 10
65.3537
 20
-152.4999
 30
0.0
 10
65.3537
 20
-152.4999
 30
0.0
 10
65.3537
 20
-142.8749
 30
0.0
 10
73.2286
 20
-135.0
 30
0.0
 10
82.8536
 20
-135.0
 30
0.0
 10
82.8536
 20
-135.0
 30
0.0
 10
82.8536
 20
-135.0
 30
0.0
 10
82.8538
 20
-135.0
 30
0.0
 10
82.8538
 20
-135.0
 30
0.0
 10
82.8538
 20
-135.0
 30
0.0
 10
92.4788
 20
-135.0
 30
0.0
 10
100.3537
 20
-142.8749
 30
0.0
 10
100.3537
 20
-152.4999
 30
0.0
 10
100.3537
 20
-152.4999
 30
0.0
 10
100.3537
 20
-152.4999
 30
0.0
 10
100.3537
 20
-217.5001
 30
0.0
 10
100.3537
 20
-217.5001
 30
0.0
 10
100.3537
 20
-217.5001
 30
0.0
 10
100.3537
 20
-227.1251
 30
0.0
 10
92.4788
 20
-235.0
 30
0.0
 10
82.8538
 20
-235.0
 30
0.0
 10
82.8538
 20
-235.0
 30
0.0
 10
82.8538
 20
-235.0
 30
0.0
 10
82.8536
 20
-235.0
 30
0.0
 10
82.8536
 20
-235.0
 30
0.0
 10
82.8536
 20
-235.0
 30
0.0
 10
73.2286
 20
-235.0
 30
0.0
 10
65.3537
 20
-227.1251
 30
0.0
 10
65.3537
 20
-217.5001
 30
0.0
  0
ENDSEC
  0
SECTION
  2
OBJECTS
  0
DICTIONARY
  5
C
330
0
100
AcDbDictionary
281
     1
  3
ACAD_GROUP
350
D
  3
ACAD_LAYOUT
350
1A
  3
ACAD_MATERIAL
350
43
  3
ACAD_MLEADERSTYLE
350
6B
  3
ACAD_MLINESTYLE
350
17
  3
ACAD_PLOTSETTINGS
350
19
  3
ACAD_PLOTSTYLENAME
350
E
  3
ACAD_SCALELIST
350
47
  3
ACAD_TABLESTYLE
350
69
  3
ACAD_VISUALSTYLE
350
2A
  3
AcDbVariableDictionary
350
84
  0
DICTIONARY
  5
8B
330
8
100
AcDbDictionary
280
     1
281
     1
  3
ACAD_XREC_ROUNDTRIP
360
8C
  0
DICTIONARY
  5
D
102
{ACAD_REACTORS
330
C
102
}
330
C
100
AcDbDictionary
281
     1
  0
DICTIONARY
  5
1A
102
{ACAD_REACTORS
330
C
102
}
330
C
100
AcDbDictionary
281
     1
  3
Layout1
350
1E
  3
Layout2
350
26
  3
Model
350
22
  0
DICTIONARY
  5
43
102
{ACAD_REACTORS
330
C
102
}
330
C
100
AcDbDictionary
281
     1
  3
ByBlock
350
45
  3
ByLayer
350
44
  3
Global
350
46
  0
DICTIONARY
  5
6B
102
{ACAD_REACTORS
330
C
102
}
330
C
100
AcDbDictionary
281
     1
  3
Standard
350
6C
  0
DICTIONARY
  5
17
102
{ACAD_REACTORS
330
C
102
}
330
C
100
AcDbDictionary
281
     1
  3
Standard
350
18
  0
DICTIONARY
  5
19
102
{ACAD_REACTORS
330
C
102
}
330
C
100
AcDbDictionary
281
     1
  0
ACDBDICTIONARYWDFLT
  5
E
102
{ACAD_REACTORS
330
C
102
}
330
C
100
AcDbDictionary
281
     1
  3
Normal
350
F
100
AcDbDictionaryWithDefault
340
F
  0
DICTIONARY
  5
47
102
{ACAD_REACTORS
330
C
102
}
330
C
100
AcDbDictionary
281
     1
  3
A0
350
48
  3
A1
350
49
  3
A2
350
4A
  3
A3
350
4B
  3
A4
350
4C
  3
A5
350
4D
  3
A6
350
4E
  3
A7
350
4F
  3
A8
350
50
  3
A9
350
51
  3
B0
350
52
  3
B1
350
53
  3
B2
350
54
  3
B3
350
55
  3
B4
350
56
  3
B5
350
57
  3
B6
350
58
  3
B7
350
59
  3
B8
350
5A
  3
B9
350
5B
  3
C0
350
5C
  3
C1
350
5D
  3
C2
350
5E
  3
C3
350
5F
  3
C4
350
60
  3
C5
350
61
  3
C6
350
62
  3
C7
350
63
  3
C8
350
64
  3
C9
350
65
  3
D0
350
66
  3
D1
350
67
  3
D2
350
68
  0
DICTIONARY
  5
69
102
{ACAD_REACTORS
330
C
102
}
330
C
100
AcDbDictionary
281
     1
  3
Standard
350
6A
  0
DICTIONARY
  5
2A
102
{ACAD_REACTORS
330
C
102
}
330
C
100
AcDbDictionary
281
     1
  3
2dWireframe
350
2F
  3
Basic
350
32
  3
Brighten
350
36
  3
ColorChange
350
3A
  3
Conceptual
350
34
  3
Dim
350
35
  3
EdgeColorOff
350
3D
  3
Facepattern
350
39
  3
Flat
350
2B
  3
FlatWithEdges
350
2C
  3
Gouraud
350
2D
  3
GouraudWithEdges
350
2E
  3
Hidden
350
31
  3
JitterOff
350
3B
  3
Linepattern
350
38
  3
OverhangOff
350
3C
  3
Realistic
350
33
  3
Shaded
350
42
  3
Shaded with edges
350
41
  3
Shades of Gray
350
3E
  3
Sketchy
350
3F
  3
Thicken
350
37
  3
Wireframe
350
30
  3
X-Ray
350
40
  0
DICTIONARY
  5
84
102
{ACAD_REACTORS
330
C
102
}
330
C
100
AcDbDictionary
281
     1
  3
CANNOSCALE
350
8D
  3
CMLEADERSTYLE
350
86
  3
CTABLESTYLE
350
85
  3
DIMASSOC
350
89
  3
HIDETEXT
350
8A
  3
MSLTSCALE
350
8E
  0
XRECORD
  5
8C
102
{ACAD_REACTORS
330
8B
102
}
330
8B
100
AcDbXrecord
280
     1
102
VTR_0.000_0.000_1.000_1.000_GRIDDISPLAY
 70
     3
102
VTR_0.000_0.000_1.000_1.000_GRIDMAJOR
 70
     5
102
VTR_0.000_0.000_1.000_1.000_DEFAULTLIGHTING
280
     1
102
VTR_0.000_0.000_1.000_1.000_DEFAULTLIGHTINGTYPE
 70
     1
102
VTR_0.000_0.000_1.000_1.000_BRIGHTNESS
141
0.0
102
VTR_0.000_0.000_1.000_1.000_CONTRAST
142
0.0
  0
LAYOUT
  5
1E
102
{ACAD_REACTORS
330
1A
102
}
330
1A
100
AcDbPlotSettings
  1

  2
none_device
  4

  6

 40
0.0
 41
0.0
 42
0.0
 43
0.0
 44
0.0
 45
0.0
 46
0.0
 47
0.0
 48
0.0
 49
0.0
140
0.0
141
0.0
142
1.0
143
1.0
 70
   688
 72
     0
 73
     0
 74
     5
  7

 75
    16
147
1.0
148
0.0
149
0.0
100
AcDbLayout
  1
Layout1
 70
     1
 71
     1
 10
0.0
 20
0.0
 11
12.0
 21
9.0
 12
0.0
 22
0.0
 32
0.0
 14
1.000000000000000E+20
 24
1.000000000000000E+20
 34
1.000000000000000E+20
 15
-1.000000000000000E+20
 25
-1.000000000000000E+20
 35
-1.000000000000000E+20
146
0.0
 13
0.0
 23
0.0
 33
0.0
 16
1.0
 26
0.0
 36
0.0
 17
0.0
 27
1.0
 37
0.0
 76
     0
330
1B
  0
LAYOUT
  5
26
102
{ACAD_REACTORS
330
1A
102
}
330
1A
100
AcDbPlotSettings
  1

  2
none_device
  4

  6

 40
0.0
 41
0.0
 42
0.0
 43
0.0
 44
0.0
 45
0.0
 46
0.0
 47
0.0
 48
0.0
 49
0.0
140
0.0
141
0.0
142
1.0
143
1.0
 70
   688
 72
     0
 73
     0
 74
     5
  7

 75
    16
147
1.0
148
0.0
149
0.0
100
AcDbLayout
  1
Layout2
 70
     1
 71
     2
 10
0.0
 20
0.0
 11
0.0
 21
0.0
 12
0.0
 22
0.0
 32
0.0
 14
0.0
 24
0.0
 34
0.0
 15
0.0
 25
0.0
 35
0.0
146
0.0
 13
0.0
 23
0.0
 33
0.0
 16
1.0
 26
0.0
 36
0.0
 17
0.0
 27
1.0
 37
0.0
 76
     0
330
23
  0
LAYOUT
  5
22
102
{ACAD_REACTORS
330
1A
102
}
330
1A
100
AcDbPlotSettings
  1

  2
none_device
  4
Letter_(8.50_x_11.00_Inches)
  6

 40
6.35
 41
6.35
 42
6.35000508
 43
6.35000508
 44
215.9
 45
279.4
 46
0.0
 47
0.0
 48
0.0
 49
0.0
140
0.0
141
0.0
142
1.0
143
1.0
 70
  1712
 72
     0
 73
     0
 74
     0
  7

 75
     0
147
1.0
148
0.0
149
0.0
100
AcDbLayout
  1
Model
 70
     1
 71
     0
 10
0.0
 20
0.0
 11
12.0
 21
9.0
 12
0.0
 22
0.0
 32
0.0
 14
-345.1
 24
-348.8002
 34
0.0
 15
345.1
 25
345.1
 35
0.0
146
0.0
 13
0.0
 23
0.0
 33
0.0
 16
1.0
 26
0.0
 36
0.0
 17
0.0
 27
1.0
 37
0.0
 76
     0
330
1F
331
29
  0
MATERIAL
  5
45
102
{ACAD_REACTORS
330
43
102
}
102
{ACAD_XDICTIONARY
360
C1
102
}
330
43
100
AcDbMaterial
  1
ByBlock
  0
MATERIAL
  5
44
102
{ACAD_REACTORS
330
43
102
}
102
{ACAD_XDICTIONARY
360
BF
102
}
330
43
100
AcDbMaterial
  1
ByLayer
  0
MATERIAL
  5
46
102
{ACAD_REACTORS
330
43
102
}
102
{ACAD_XDICTIONARY
360
C3
102
}
330
43
100
AcDbMaterial
  1
Global
  0
MLEADERSTYLE
  5
6C
102
{ACAD_REACTORS
330
6B
102
}
102
{ACAD_XDICTIONARY
360
C6
102
}
330
6B
100
AcDbMLeaderStyle
170
     2
171
     1
172
     0
 90
        2
 40
0.0
 41
0.0
173
     1
 91
-1056964608
340
14
 92
       -2
290
     1
 42
0.09
291
     1
 43
0.36
  3
Standard
341
0
 44
0.18
300

342
11
174
     1
178
     6
175
     1
176
     0
 93
-1056964608
 45
0.18
292
     0
297
     0
 46
0.18
343
0
 94
-1056964608
 47
1.0
 49
1.0
140
1.0
293
     1
141
0.0
294
     1
177
     0
142
1.0
295
     0
296
     0
143
0.125
1001
ACAD_MLEADERVER
1070
     2
  0
MLINESTYLE
  5
18
102
{ACAD_REACTORS
330
17
102
}
330
17
100
AcDbMlineStyle
  2
Standard
 70
     0
  3

 62
   256
 51
90.0
 52
90.0
 71
     2
 49
0.5
 62
   256
  6
BYLAYER
 49
-0.5
 62
   256
  6
BYLAYER
  0
ACDBPLACEHOLDER
  5
F
102
{ACAD_REACTORS
330
E
102
}
330
E
  0
SCALE
  5
48
102
{ACAD_REACTORS
330
47
102
}
330
47
100
AcDbScale
 70
     0
300
1:1
140
1.0
141
1.0
290
     1
  0
SCALE
  5
49
102
{ACAD_REACTORS
330
47
102
}
330
47
100
AcDbScale
 70
     0
300
1:2
140
1.0
141
2.0
290
     0
  0
SCALE
  5
4A
102
{ACAD_REACTORS
330
47
102
}
330
47
100
AcDbScale
 70
     0
300
1:4
140
1.0
141
4.0
290
     0
  0
SCALE
  5
4B
102
{ACAD_REACTORS
330
47
102
}
330
47
100
AcDbScale
 70
     0
300
1:5
140
1.0
141
5.0
290
     0
  0
SCALE
  5
4C
102
{ACAD_REACTORS
330
47
102
}
330
47
100
AcDbScale
 70
     0
300
1:8
140
1.0
141
8.0
290
     0
  0
SCALE
  5
4D
102
{ACAD_REACTORS
330
47
102
}
330
47
100
AcDbScale
 70
     0
300
1:10
140
1.0
141
10.0
290
     0
  0
SCALE
  5
4E
102
{ACAD_REACTORS
330
47
102
}
330
47
100
AcDbScale
 70
     0
300
1:16
140
1.0
141
16.0
290
     0
  0
SCALE
  5
4F
102
{ACAD_REACTORS
330
47
102
}
330
47
100
AcDbScale
 70
     0
300
1:20
140
1.0
141
20.0
290
     0
  0
SCALE
  5
50
102
{ACAD_REACTORS
330
47
102
}
330
47
100
AcDbScale
 70
     0
300
1:30
140
1.0
141
30.0
290
     0
  0
SCALE
  5
51
102
{ACAD_REACTORS
330
47
102
}
330
47
100
AcDbScale
 70
     0
300
1:40
140
1.0
141
40.0
290
     0
  0
SCALE
  5
52
102
{ACAD_REACTORS
330
47
102
}
330
47
100
AcDbScale
 70
     0
300
1:50
140
1.0
141
50.0
290
     0
  0
SCALE
  5
53
102
{ACAD_REACTORS
330
47
102
}
330
47
100
AcDbScale
 70
     0
300
1:100
140
1.0
141
100.0
290
     0
  0
SCALE
  5
54
102
{ACAD_REACTORS
330
47
102
}
330
47
100
AcDbScale
 70
     0
300
2:1
140
2.0
141
1.0
290
     0
  0
SCALE
  5
55
102
{ACAD_REACTORS
330
47
102
}
330
47
100
AcDbScale
 70
     0
300
4:1
140
4.0
141
1.0
290
     0
  0
SCALE
  5
56
102
{ACAD_REACTORS
330
47
102
}
330
47
100
AcDbScale
 70
     0
300
8:1
140
8.0
141
1.0
290
     0
  0
SCALE
  5
57
102
{ACAD_REACTORS
330
47
102
}
330
47
100
AcDbScale
 70
     0
300
10:1
140
10.0
141
1.0
290
     0
  0
SCALE
  5
58
102
{ACAD_REACTORS
330
47
102
}
330
47
100
AcDbScale
 70
     0
300
100:1
140
100.0
141
1.0
290
     0
  0
SCALE
  5
59
102
{ACAD_REACTORS
330
47
102
}
330
47
100
AcDbScale
 70
     0
300
1/128" = 1'-0"
140
0.0078125
141
12.0
290
     0
  0
SCALE
  5
5A
102
{ACAD_REACTORS
330
47
102
}
330
47
100
AcDbScale
 70
     0
300
1/64" = 1'-0"
140
0.015625
141
12.0
290
     0
  0
SCALE
  5
5B
102
{ACAD_REACTORS
330
47
102
}
330
47
100
AcDbScale
 70
     0
300
1/32" = 1'-0"
140
0.03125
141
12.0
290
     0
  0
SCALE
  5
5C
102
{ACAD_REACTORS
330
47
102
}
330
47
100
AcDbScale
 70
     0
300
1/16" = 1'-0"
140
0.0625
141
12.0
290
     0
  0
SCALE
  5
5D
102
{ACAD_REACTORS
330
47
102
}
330
47
100
AcDbScale
 70
     0
300
3/32" = 1'-0"
140
0.09375
141
12.0
290
     0
  0
SCALE
  5
5E
102
{ACAD_REACTORS
330
47
102
}
330
47
100
AcDbScale
 70
     0
300
1/8" = 1'-0"
140
0.125
141
12.0
290
     0
  0
SCALE
  5
5F
102
{ACAD_REACTORS
330
47
102
}
330
47
100
AcDbScale
 70
     0
300
3/16" = 1'-0"
140
0.1875
141
12.0
290
     0
  0
SCALE
  5
60
102
{ACAD_REACTORS
330
47
102
}
330
47
100
AcDbScale
 70
     0
300
1/4" = 1'-0"
140
0.25
141
12.0
290
     0
  0
SCALE
  5
61
102
{ACAD_REACTORS
330
47
102
}
330
47
100
AcDbScale
 70
     0
300
3/8" = 1'-0"
140
0.375
141
12.0
290
     0
  0
SCALE
  5
62
102
{ACAD_REACTORS
330
47
102
}
330
47
100
AcDbScale
 70
     0
300
1/2" = 1'-0"
140
0.5
141
12.0
290
     0
  0
SCALE
  5
63
102
{ACAD_REACTORS
330
47
102
}
330
47
100
AcDbScale
 70
     0
300
3/4" = 1'-0"
140
0.75
141
12.0
290
     0
  0
SCALE
  5
64
102
{ACAD_REACTORS
330
47
102
}
330
47
100
AcDbScale
 70
     0
300
1" = 1'-0"
140
1.0
141
12.0
290
     0
  0
SCALE
  5
65
102
{ACAD_REACTORS
330
47
102
}
330
47
100
AcDbScale
 70
     0
300
1-1/2" = 1'-0"
140
1.5
141
12.0
290
     0
  0
SCALE
  5
66
102
{ACAD_REACTORS
330
47
102
}
330
47
100
AcDbScale
 70
     0
300
3" = 1'-0"
140
3.0
141
12.0
290
     0
  0
SCALE
  5
67
102
{ACAD_REACTORS
330
47
102
}
330
47
100
AcDbScale
 70
     0
300
6" = 1'-0"
140
6.0
141
12.0
290
     0
  0
SCALE
  5
68
102
{ACAD_REACTORS
330
47
102
}
330
47
100
AcDbScale
 70
     0
300
1'-0" = 1'-0"
140
12.0
141
12.0
290
     0
  0
TABLESTYLE
  5
6A
102
{ACAD_REACTORS
330
69
102
}
330
69
100
AcDbTableStyle
  3
Standard
 70
     0
 71
     0
 40
0.06
 41
0.06
280
     0
281
     0
  7
Standard
140
0.18
170
     2
 62
     0
 63
   257
283
     0
274
    -2
284
     1
 64
     0
275
    -2
285
     1
 65
     0
276
    -2
286
     1
 66
     0
277
    -2
287
     1
 67
     0
278
    -2
288
     1
 68
     0
279
    -2
289
     1
 69
     0
  7
Standard
140
0.25
170
     5
 62
     0
 63
   257
283
     0
274
    -2
284
     1
 64
     0
275
    -2
285
     1
 65
     0
276
    -2
286
     1
 66
     0
277
    -2
287
     1
 67
     0
278
    -2
288
     1
 68
     0
279
    -2
289
     1
 69
     0
  7
Standard
140
0.18
170
     5
 62
     0
 63
   257
283
     0
274
    -2
284
     1
 64
     0
275
    -2
285
     1
 65
     0
276
    -2
286
     1
 66
     0
277
    -2
287
     1
 67
     0
278
    -2
288
     1
 68
     0
279
    -2
289
     1
 69
     0
  0
VISUALSTYLE
  5
2F
102
{ACAD_REACTORS
330
2A
102
}
102
{ACAD_XDICTIONARY
360
97
102
}
330
2A
100
AcDbVisualStyle
  2
2dWireframe
 70
     4
 71
     0
 72
     2
 73
     0
 90
        0
 40
0.6
 41
30.0
 62
     5
 63
     7
 74
     1
 91
        4
 64
     7
 65
   257
 75
     1
175
     1
 42
1.0
 92
        0
 66
   257
 43
1.0
 76
     1
 77
     6
 78
     2
 67
     7
 79
     5
170
     0
171
     0
290
     0
174
     0
 93
        1
 44
0.0
173
     0
291
     0
 45
0.0
1001
ACAD
1000
AcDbSavedByObjectVersion
1070
     0
  0
VISUALSTYLE
  5
32
102
{ACAD_REACTORS
330
2A
102
}
102
{ACAD_XDICTIONARY
360
9D
102
}
330
2A
100
AcDbVisualStyle
  2
Basic
 70
     7
 71
     1
 72
     0
 73
     1
 90
        0
 40
0.6
 41
30.0
 62
     5
 63
     7
 74
     0
 91
        4
 64
     7
 65
   257
 75
     1
175
     1
 42
1.0
 92
        8
 66
     7
 43
1.0
 76
     1
 77
     6
 78
     2
 67
     7
 79
     5
170
     0
171
     0
290
     0
174
     0
 93
        1
 44
0.0
173
     0
291
     1
 45
0.0
1001
ACAD
1000
AcDbSavedByObjectVersion
1070
     0
  0
VISUALSTYLE
  5
36
102
{ACAD_REACTORS
330
2A
102
}
102
{ACAD_XDICTIONARY
360
A5
102
}
330
2A
100
AcDbVisualStyle
  2
Brighten
 70
    12
 71
     2
 72
     2
 73
     0
 90
        0
 40
0.6
 41
30.0
 62
     5
 63
     7
 74
     1
 91
        4
 64
     7
 65
   257
 75
     1
175
     1
 42
1.0
 92
        8
 66
     7
 43
1.0
 76
     1
 77
     6
 78
     2
 67
     7
 79
     5
170
     0
171
     0
290
     0
174
     0
 93
        1
 44
50.0
173
     0
291
     1
 45
0.0
1001
ACAD
1000
AcDbSavedByObjectVersion
1070
     0
  0
VISUALSTYLE
  5
3A
102
{ACAD_REACTORS
330
2A
102
}
102
{ACAD_XDICTIONARY
360
AD
102
}
330
2A
100
AcDbVisualStyle
  2
ColorChange
 70
    16
 71
     2
 72
     2
 73
     3
 90
        0
 40
0.6
 41
30.0
 62
     5
 63
     8
 74
     1
 91
        4
 64
     7
 65
   257
 75
     1
175
     1
 42
1.0
 92
        8
 66
     8
 43
1.0
 76
     1
 77
     6
 78
     2
 67
     7
 79
     5
170
     0
171
     0
290
     0
174
     0
 93
        1
 44
0.0
173
     0
291
     1
 45
0.0
1001
ACAD
1000
AcDbSavedByObjectVersion
1070
     0
  0
VISUALSTYLE
  5
34
102
{ACAD_REACTORS
330
2A
102
}
102
{ACAD_XDICTIONARY
360
A1
102
}
330
2A
100
AcDbVisualStyle
  2
Conceptual
 70
     9
 71
     3
 72
     2
 73
     0
 90
        0
 40
0.6
 41
30.0
 62
     5
 63
     7
 74
     2
 91
        2
 64
     7
 65
   257
 75
     1
175
     1
 42
179.0
 92
        8
 66
     7
 43
1.0
 76
     1
 77
     6
 78
     2
 67
     7
 79
     3
170
     0
171
     0
290
     0
174
     0
 93
        1
 44
0.0
173
     0
291
     0
 45
0.0
1001
ACAD
1000
AcDbSavedByObjectVersion
1070
     0
  0
VISUALSTYLE
  5
35
102
{ACAD_REACTORS
330
2A
102
}
102
{ACAD_XDICTIONARY
360
A3
102
}
330
2A
100
AcDbVisualStyle
  2
Dim
 70
    11
 71
     2
 72
     2
 73
     0
 90
        0
 40
0.6
 41
30.0
 62
     5
 63
     7
 74
     1
 91
        4
 64
     7
 65
   257
 75
     1
175
     1
 42
1.0
 92
        8
 66
     7
 43
1.0
 76
     1
 77
     6
 78
     2
 67
     7
 79
     5
170
     0
171
     0
290
     0
174
     0
 93
        1
 44
-50.0
173
     0
291
     1
 45
0.0
1001
ACAD
1000
AcDbSavedByObjectVersion
1070
     0
  0
VISUALSTYLE
  5
3D
102
{ACAD_REACTORS
330
2A
102
}
102
{ACAD_XDICTIONARY
360
B3
102
}
330
2A
100
AcDbVisualStyle
  2
EdgeColorOff
 70
    22
 71
     2
 72
     2
 73
     0
 90
        0
 40
0.6
 41
30.0
 62
     5
 63
     7
 74
     1
 91
        4
 64
     7
 65
   257
 75
     1
175
     1
 42
1.0
 92
        8
 66
     7
 43
1.0
 76
     1
 77
     6
 78
     2
 67
     7
 79
     5
170
     0
171
     0
290
     0
174
     0
 93
        1
 44
0.0
173
     0
291
     1
 45
0.0
1001
ACAD
1000
AcDbSavedByObjectVersion
1070
     0
  0
VISUALSTYLE
  5
39
102
{ACAD_REACTORS
330
2A
102
}
102
{ACAD_XDICTIONARY
360
AB
102
}
330
2A
100
AcDbVisualStyle
  2
Facepattern
 70
    15
 71
     2
 72
     2
 73
     0
 90
        0
 40
0.6
 41
30.0
 62
     5
 63
     7
 74
     1
 91
        4
 64
     7
 65
   257
 75
     1
175
     1
 42
1.0
 92
        8
 66
     7
 43
1.0
 76
     1
 77
     6
 78
     2
 67
     7
 79
     5
170
     0
171
     0
290
     0
174
     0
 93
        1
 44
0.0
173
     0
291
     1
 45
0.0
1001
ACAD
1000
AcDbSavedByObjectVersion
1070
     0
  0
VISUALSTYLE
  5
2B
102
{ACAD_REACTORS
330
2A
102
}
102
{ACAD_XDICTIONARY
360
8F
102
}
330
2A
100
AcDbVisualStyle
  2
Flat
 70
     0
 71
     2
 72
     1
 73
     1
 90
        2
 40
0.6
 41
30.0
 62
     5
 63
     7
 74
     0
 91
        0
 64
     7
 65
   257
 75
     1
175
     1
 42
1.0
 92
        8
 66
     7
 43
1.0
 76
     1
 77
     6
 78
     2
 67
     7
 79
     5
170
     0
171
     0
290
     0
174
     0
 93
       13
 44
0.0
173
     0
291
     1
 45
0.0
1001
ACAD
1000
AcDbSavedByObjectVersion
1070
     0
  0
VISUALSTYLE
  5
2C
102
{ACAD_REACTORS
330
2A
102
}
102
{ACAD_XDICTIONARY
360
91
102
}
330
2A
100
AcDbVisualStyle
  2
FlatWithEdges
 70
     1
 71
     2
 72
     1
 73
     1
 90
        2
 40
0.6
 41
30.0
 62
     5
 63
     7
 74
     1
 91
        0
 64
     7
 65
   257
 75
     1
175
     1
 42
1.0
 92
        0
 66
   257
 43
1.0
 76
     1
 77
     6
 78
     2
 67
     7
 79
     5
170
     0
171
     0
290
     0
174
     0
 93
       13
 44
0.0
173
     0
291
     1
 45
0.0
1001
ACAD
1000
AcDbSavedByObjectVersion
1070
     0
  0
VISUALSTYLE
  5
2D
102
{ACAD_REACTORS
330
2A
102
}
102
{ACAD_XDICTIONARY
360
93
102
}
330
2A
100
AcDbVisualStyle
  2
Gouraud
 70
     2
 71
     2
 72
     2
 73
     1
 90
        2
 40
0.6
 41
30.0
 62
     5
 63
     7
 74
     0
 91
        0
 64
     7
 65
   257
 75
     1
175
     1
 42
1.0
 92
        0
 66
     7
 43
1.0
 76
     1
 77
     6
 78
     2
 67
     7
 79
     5
170
     0
171
     0
290
     0
174
     0
 93
       13
 44
0.0
173
     0
291
     1
 45
0.0
1001
ACAD
1000
AcDbSavedByObjectVersion
1070
     0
  0
VISUALSTYLE
  5
2E
102
{ACAD_REACTORS
330
2A
102
}
102
{ACAD_XDICTIONARY
360
95
102
}
330
2A
100
AcDbVisualStyle
  2
GouraudWithEdges
 70
     3
 71
     2
 72
     2
 73
     1
 90
        2
 40
0.6
 41
30.0
 62
     5
 63
     7
 74
     1
 91
        0
 64
     7
 65
   257
 75
     1
175
     1
 42
1.0
 92
        0
 66
   257
 43
1.0
 76
     1
 77
     6
 78
     2
 67
     7
 79
     5
170
     0
171
     0
290
     0
174
     0
 93
       13
 44
0.0
173
     0
291
     1
 45
0.0
1001
ACAD
1000
AcDbSavedByObjectVersion
1070
     0
  0
VISUALSTYLE
  5
31
102
{ACAD_REACTORS
330
2A
102
}
102
{ACAD_XDICTIONARY
360
9B
102
}
330
2A
100
AcDbVisualStyle
  2
Hidden
 70
     6
 71
     1
 72
     2
 73
     2
 90
        0
 40
0.6
 41
30.0
 62
     5
 63
     7
 74
     2
 91
        2
 64
     7
 65
   257
 75
     2
175
     1
 42
40.0
 92
        0
 66
   257
 43
1.0
 76
     1
 77
     6
 78
     2
 67
     7
 79
     3
170
     0
171
     0
290
     0
174
     0
 93
        1
 44
0.0
173
     0
291
     0
 45
0.0
1001
ACAD
1000
AcDbSavedByObjectVersion
1070
     0
  0
VISUALSTYLE
  5
3B
102
{ACAD_REACTORS
330
2A
102
}
102
{ACAD_XDICTIONARY
360
AF
102
}
330
2A
100
AcDbVisualStyle
  2
JitterOff
 70
    20
 71
     2
 72
     2
 73
     0
 90
        0
 40
0.6
 41
30.0
 62
     5
 63
     7
 74
     1
 91
        4
 64
     7
 65
   257
 75
     1
175
     1
 42
1.0
 92
       10
 66
     7
 43
1.0
 76
     1
 77
     6
 78
     2
 67
     7
 79
     5
170
     0
171
     0
290
     0
174
     0
 93
        1
 44
0.0
173
     0
291
     1
 45
0.0
1001
ACAD
1000
AcDbSavedByObjectVersion
1070
     0
  0
VISUALSTYLE
  5
38
102
{ACAD_REACTORS
330
2A
102
}
102
{ACAD_XDICTIONARY
360
A9
102
}
330
2A
100
AcDbVisualStyle
  2
Linepattern
 70
    14
 71
     2
 72
     2
 73
     0
 90
        0
 40
0.6
 41
30.0
 62
     5
 63
     7
 74
     1
 91
        4
 64
     7
 65
   257
 75
     7
175
     7
 42
1.0
 92
        8
 66
     7
 43
1.0
 76
     1
 77
     6
 78
     2
 67
     7
 79
     5
170
     0
171
     0
290
     0
174
     0
 93
        1
 44
0.0
173
     0
291
     1
 45
0.0
1001
ACAD
1000
AcDbSavedByObjectVersion
1070
     0
  0
VISUALSTYLE
  5
3C
102
{ACAD_REACTORS
330
2A
102
}
102
{ACAD_XDICTIONARY
360
B1
102
}
330
2A
100
AcDbVisualStyle
  2
OverhangOff
 70
    21
 71
     2
 72
     2
 73
     0
 90
        0
 40
0.6
 41
30.0
 62
     5
 63
     7
 74
     1
 91
        4
 64
     7
 65
   257
 75
     1
175
     1
 42
1.0
 92
        9
 66
     7
 43
1.0
 76
     1
 77
     6
 78
     2
 67
     7
 79
     5
170
     0
171
     0
290
     0
174
     0
 93
        1
 44
0.0
173
     0
291
     1
 45
0.0
1001
ACAD
1000
AcDbSavedByObjectVersion
1070
     0
  0
VISUALSTYLE
  5
33
102
{ACAD_REACTORS
330
2A
102
}
102
{ACAD_XDICTIONARY
360
9F
102
}
330
2A
100
AcDbVisualStyle
  2
Realistic
 70
     8
 71
     2
 72
     3
 73
     0
 90
        2
 40
0.6
 41
30.0
 62
     5
 63
     7
 74
     0
 91
        0
 64
     7
 65
   257
 75
     1
175
     1
 42
1.0
 92
        8
 66
   257
 43
1.0
 76
     1
 77
     6
 78
     2
 67
     7
 79
     3
170
     0
171
     0
290
     0
174
     0
 93
       13
 44
0.0
173
     0
291
     0
 45
0.0
1001
ACAD
1000
AcDbSavedByObjectVersion
1070
     0
  0
VISUALSTYLE
  5
42
102
{ACAD_REACTORS
330
2A
102
}
102
{ACAD_XDICTIONARY
360
BD
102
}
330
2A
100
AcDbVisualStyle
  2
Shaded
 70
    27
 71
     2
 72
     2
 73
     1
 90
        2
 40
0.6
 41
30.0
 62
     5
 63
     7
 74
     0
 91
        4
 64
     7
 65
   257
 75
     1
175
     1
 42
1.0
 92
        8
 66
   257
 43
1.0
 76
     1
 77
     6
 78
     2
 67
     8
 79
     3
170
     0
171
     0
290
     0
174
     0
 93
        5
 44
0.0
173
     0
291
     0
 45
0.0
1001
ACAD
1000
AcDbSavedByObjectVersion
1070
     0
  0
VISUALSTYLE
  5
41
102
{ACAD_REACTORS
330
2A
102
}
102
{ACAD_XDICTIONARY
360
BB
102
}
330
2A
100
AcDbVisualStyle
  2
Shaded with edges
 70
    26
 71
     2
 72
     2
 73
     1
 90
        2
 40
0.6
 41
30.0
 62
     5
 63
     7
 74
     1
 91
       10
 64
     7
 65
   257
 75
     2
175
     1
 42
1.0
 92
        8
 66
   257
 43
1.0
 76
     1
 77
     6
 78
     2
 67
     7
 79
     3
170
     0
171
     0
290
     0
174
     0
 93
        5
 44
0.0
173
     0
291
     0
 45
0.0
1001
ACAD
1000
AcDbSavedByObjectVersion
1070
     0
  0
VISUALSTYLE
  5
3E
102
{ACAD_REACTORS
330
2A
102
}
102
{ACAD_XDICTIONARY
360
B5
102
}
330
2A
100
AcDbVisualStyle
  2
Shades of Gray
 70
    23
 71
     2
 72
     2
 73
     3
 90
        0
 40
0.6
 41
30.0
 62
     5
 63
     7
 74
     2
 91
        2
 64
     7
 65
     7
 75
     1
175
     1
 42
40.0
 92
        8
 66
     7
 43
1.0
 76
     1
 77
     6
 78
     2
 67
     7
 79
     3
170
     0
171
     0
290
     0
174
     0
 93
        1
 44
0.0
173
     0
291
     0
 45
0.0
1001
ACAD
1000
AcDbSavedByObjectVersion
1070
     0
  0
VISUALSTYLE
  5
3F
102
{ACAD_REACTORS
330
2A
102
}
102
{ACAD_XDICTIONARY
360
B7
102
}
330
2A
100
AcDbVisualStyle
  2
Sketchy
 70
    24
 71
     1
 72
     2
 73
     2
 90
        0
 40
0.6
 41
30.0
 62
     5
 63
     7
 74
     2
 91
        2
 64
     7
 65
     7
 75
     1
175
     1
 42
40.0
 92
       11
 66
     7
 43
1.0
 76
     1
 77
     6
 78
     2
 67
     7
 79
     6
170
     0
171
     0
290
     0
174
     0
 93
        1
 44
0.0
173
     0
291
     0
 45
0.0
1001
ACAD
1000
AcDbSavedByObjectVersion
1070
     0
  0
VISUALSTYLE
  5
37
102
{ACAD_REACTORS
330
2A
102
}
102
{ACAD_XDICTIONARY
360
A7
102
}
330
2A
100
AcDbVisualStyle
  2
Thicken
 70
    13
 71
     2
 72
     2
 73
     0
 90
        0
 40
0.6
 41
30.0
 62
     5
 63
     7
 74
     1
 91
        4
 64
     7
 65
   257
 75
     1
175
     1
 42
1.0
 92
       12
 66
     7
 43
1.0
 76
     1
 77
     6
 78
     2
 67
     7
 79
     5
170
     0
171
     0
290
     0
174
     0
 93
        1
 44
0.0
173
     0
291
     1
 45
0.0
1001
ACAD
1000
AcDbSavedByObjectVersion
1070
     0
  0
VISUALSTYLE
  5
30
102
{ACAD_REACTORS
330
2A
102
}
102
{ACAD_XDICTIONARY
360
99
102
}
330
2A
100
AcDbVisualStyle
  2
Wireframe
 70
     5
 71
     0
 72
     2
 73
     0
 90
        0
 40
0.6
 41
30.0
 62
     5
 63
     7
 74
     1
 91
        4
 64
     7
 65
   257
 75
     1
175
     1
 42
1.0
 92
        0
 66
   257
 43
1.0
 76
     1
 77
     6
 78
     2
 67
     7
 79
     3
170
     0
171
     0
290
     0
174
     0
 93
        1
 44
0.0
173
     0
291
     0
 45
0.0
1001
ACAD
1000
AcDbSavedByObjectVersion
1070
     0
  0
VISUALSTYLE
  5
40
102
{ACAD_REACTORS
330
2A
102
}
102
{ACAD_XDICTIONARY
360
B9
102
}
330
2A
100
AcDbVisualStyle
  2
X-Ray
 70
    25
 71
     2
 72
     2
 73
     1
 90
        1
 40
0.5
 41
30.0
 62
     5
 63
     7
 74
     1
 91
        0
 64
     7
 65
   257
 75
     1
175
     1
 42
1.0
 92
        8
 66
     7
 43
1.0
 76
     1
 77
     6
 78
     2
 67
     7
 79
     3
170
     0
171
     0
290
     0
174
     0
 93
       13
 44
0.0
173
     0
291
     0
 45
0.0
1001
ACAD
1000
AcDbSavedByObjectVersion
1070
     0
  0
DICTIONARYVAR
  5
8D
102
{ACAD_REACTORS
330
84
102
}
330
84
100
DictionaryVariables
280
     0
  1
1:1
  0
DICTIONARYVAR
  5
86
102
{ACAD_REACTORS
330
84
102
}
330
84
100
DictionaryVariables
280
     0
  1
Standard
  0
DICTIONARYVAR
  5
85
102
{ACAD_REACTORS
330
84
102
}
330
84
100
DictionaryVariables
280
     0
  1
Standard
  0
DICTIONARYVAR
  5
89
102
{ACAD_REACTORS
330
84
102
}
330
84
100
DictionaryVariables
280
     0
  1
2
  0
DICTIONARYVAR
  5
8A
102
{ACAD_REACTORS
330
84
102
}
330
84
100
DictionaryVariables
280
     0
  1
1
  0
DICTIONARYVAR
  5
8E
102
{ACAD_REACTORS
330
84
102
}
330
84
100
DictionaryVariables
280
     0
  1
1
  0
DICTIONARY
  5
C1
330
45
100
AcDbDictionary
280
     1
281
     1
  3
ACAD_XREC_ROUNDTRIP
360
C2
  0
DICTIONARY
  5
BF
330
44
100
AcDbDictionary
280
     1
281
     1
  3
ACAD_XREC_ROUNDTRIP
360
C0
  0
DICTIONARY
  5
C3
330
46
100
AcDbDictionary
280
     1
281
     1
  3
ACAD_XREC_ROUNDTRIP
360
C4
  0
DICTIONARY
  5
C6
330
6C
100
AcDbDictionary
280
     1
281
     1
  3
ACAD_XREC_ROUNDTRIP
360
C7
  0
DICTIONARY
  5
97
330
2F
100
AcDbDictionary
280
     1
281
     1
  3
ACAD_XREC_ROUNDTRIP
360
98
  0
DICTIONARY
  5
9D
330
32
100
AcDbDictionary
280
     1
281
     1
  3
ACAD_XREC_ROUNDTRIP
360
9E
  0
DICTIONARY
  5
A5
330
36
100
AcDbDictionary
280
     1
281
     1
  3
ACAD_XREC_ROUNDTRIP
360
A6
  0
DICTIONARY
  5
AD
330
3A
100
AcDbDictionary
280
     1
281
     1
  3
ACAD_XREC_ROUNDTRIP
360
AE
  0
DICTIONARY
  5
A1
330
34
100
AcDbDictionary
280
     1
281
     1
  3
ACAD_XREC_ROUNDTRIP
360
A2
  0
DICTIONARY
  5
A3
330
35
100
AcDbDictionary
280
     1
281
     1
  3
ACAD_XREC_ROUNDTRIP
360
A4
  0
DICTIONARY
  5
B3
330
3D
100
AcDbDictionary
280
     1
281
     1
  3
ACAD_XREC_ROUNDTRIP
360
B4
  0
DICTIONARY
  5
AB
330
39
100
AcDbDictionary
280
     1
281
     1
  3
ACAD_XREC_ROUNDTRIP
360
AC
  0
DICTIONARY
  5
8F
330
2B
100
AcDbDictionary
280
     1
281
     1
  3
ACAD_XREC_ROUNDTRIP
360
90
  0
DICTIONARY
  5
91
330
2C
100
AcDbDictionary
280
     1
281
     1
  3
ACAD_XREC_ROUNDTRIP
360
92
  0
DICTIONARY
  5
93
330
2D
100
AcDbDictionary
280
     1
281
     1
  3
ACAD_XREC_ROUNDTRIP
360
94
  0
DICTIONARY
  5
95
330
2E
100
AcDbDictionary
280
     1
281
     1
  3
ACAD_XREC_ROUNDTRIP
360
96
  0
DICTIONARY
  5
9B
330
31
100
AcDbDictionary
280
     1
281
     1
  3
ACAD_XREC_ROUNDTRIP
360
9C
  0
DICTIONARY
  5
AF
330
3B
100
AcDbDictionary
280
     1
281
     1
  3
ACAD_XREC_ROUNDTRIP
360
B0
  0
DICTIONARY
  5
A9
330
38
100
AcDbDictionary
280
     1
281
     1
  3
ACAD_XREC_ROUNDTRIP
360
AA
  0
DICTIONARY
  5
B1
330
3C
100
AcDbDictionary
280
     1
281
     1
  3
ACAD_XREC_ROUNDTRIP
360
B2
  0
DICTIONARY
  5
9F
330
33
100
AcDbDictionary
280
     1
281
     1
  3
ACAD_XREC_ROUNDTRIP
360
A0
  0
DICTIONARY
  5
BD
330
42
100
AcDbDictionary
280
     1
281
     1
  3
ACAD_XREC_ROUNDTRIP
360
BE
  0
DICTIONARY
  5
BB
330
41
100
AcDbDictionary
280
     1
281
     1
  3
ACAD_XREC_ROUNDTRIP
360
BC
  0
DICTIONARY
  5
B5
330
3E
100
AcDbDictionary
280
     1
281
     1
  3
ACAD_XREC_ROUNDTRIP
360
B6
  0
DICTIONARY
  5
B7
330
3F
100
AcDbDictionary
280
     1
281
     1
  3
ACAD_XREC_ROUNDTRIP
360
B8
  0
DICTIONARY
  5
A7
330
37
100
AcDbDictionary
280
     1
281
     1
  3
ACAD_XREC_ROUNDTRIP
360
A8
  0
DICTIONARY
  5
99
330
30
100
AcDbDictionary
280
     1
281
     1
  3
ACAD_XREC_ROUNDTRIP
360
9A
  0
DICTIONARY
  5
B9
330
40
100
AcDbDictionary
280
     1
281
     1
  3
ACAD_XREC_ROUNDTRIP
360
BA
  0
XRECORD
  5
C2
102
{ACAD_REACTORS
330
C1
102
}
330
C1
100
AcDbXrecord
280
     1
102
MATERIAL
148
0.0
149
0.0
149
0.0
 93
        0
 94
      127
282
     0
 72
     1
 77
     1
171
     1
175
     1
179
     1
273
     0
  0
XRECORD
  5
C0
102
{ACAD_REACTORS
330
BF
102
}
330
BF
100
AcDbXrecord
280
     1
102
MATERIAL
148
0.0
149
0.0
149
0.0
 93
        0
 94
      127
282
     0
 72
     1
 77
     1
171
     1
175
     1
179
     1
273
     0
  0
XRECORD
  5
C4
102
{ACAD_REACTORS
330
C3
102
}
330
C3
100
AcDbXrecord
280
     1
102
MATERIAL
148
0.0
149
0.0
149
0.0
 93
        0
 94
      127
282
     0
 72
     1
 77
     1
171
     1
175
     1
179
     1
273
     0
  0
XRECORD
  5
C7
102
{ACAD_REACTORS
330
C6
102
}
330
C6
100
AcDbXrecord
280
     1
102
ACAD_ROUNDTRIP_2010_MLEADER_STYLE
  0
XRECORD
  5
98
102
{ACAD_REACTORS
330
97
102
}
330
97
100
AcDbXrecord
280
     1
102
RTVSPropertyOp0
 70
     1
102
RTVSPropertyOp1
 70
     1
102
RTVSPropertyOp2
 70
     1
102
RTVSPropertyOp3
 70
     1
102
RTVSPropertyOp4
 70
     1
102
RTVSPropertyOp5
 70
     1
102
RTVSPropertyOp6
 70
     1
102
RTVSPropertyOp7
 70
     1
102
RTVSPropertyOp8
 70
     1
102
RTVSPropertyOp9
 70
     1
102
RTVSPropertyOp10
 70
     1
102
RTVSPropertyOp11
 70
     1
102
RTVSPropertyOp12
 70
     1
102
RTVSPropertyOp13
 70
     1
102
RTVSPropertyOp14
 70
     1
102
RTVSPropertyOp15
 70
     1
102
RTVSPropertyOp16
 70
     1
102
RTVSPropertyOp17
 70
     1
102
RTVSPropertyOp18
 70
     1
102
RTVSPropertyOp19
 70
     1
102
RTVSPropertyOp20
 70
     1
102
RTVSPropertyOp21
 70
     1
102
RTVSPropertyOp22
 70
     1
102
RTVSPropertyOp23
 70
     1
102
RTVSPropertyOp24
 70
     1
102
RTVSPropertyOp25
 70
     1
102
RTVSPropertyOp26
 70
     1
102
RTVSPropertyOp27
 70
     1
102
RTVSPropertyOp28
 70
     1
102
RTVSPropertyOp29
 70
     1
102
RTVSPropertyOp30
 70
     1
102
RTVSPropertyOp31
 70
     1
102
RTVSPropertyOp32
 70
     1
102
RTVSPropertyOp33
 70
     1
102
RTVSPropertyOp34
 70
     1
102
RTVSPropertyOp35
 70
     1
102
RTVSPropertyOp36
 70
     1
102
RTVSPropertyOp37
 70
     1
102
RTVSPropertyOp38
 70
     1
102
RTVSPropertyOp39
 70
     1
102
RTVSPropertyOp40
 70
     1
102
RTVSPropertyOp41
 70
     1
102
RTVSPropertyOp42
 70
     1
102
RTVSPropertyOp43
 70
     1
102
RTVSPropertyOp44
 70
     1
102
RTVSPropertyOp45
 70
     1
102
RTVSPropertyOp46
 70
     1
102
RTVSPropertyOp47
 70
     1
102
RTVSPropertyOp48
 70
     1
102
RTVSPropertyOp49
 70
     1
102
RTVSPropertyOp50
 70
     1
102
RTVSPropertyOp51
 70
     0
102
RTVSPropertyOp52
 70
     0
102
RTVSPropertyOp53
 70
     1
102
RTVSPropertyOp54
 70
     1
102
RTVSPropertyOp55
 70
     1
102
RTVSPropertyOp56
 70
     1
102
RTVSPropertyOp57
 70
     1
102
RTVSPost2010Prop28
280
     1
102
RTVSPost2010PropOp28
 70
     1
102
RTVSPost2010Prop29
280
     1
102
RTVSPost2010PropOp29
 70
     1
102
RTVSPost2010Prop30
280
     0
102
RTVSPost2010PropOp30
 70
     1
102
RTVSPost2010Prop31
280
     0
102
RTVSPost2010PropOp31
 70
     1
102
RTVSPost2010Prop32
280
     0
102
RTVSPost2010PropOp32
 70
     1
102
RTVSPost2010Prop33
280
     0
102
RTVSPost2010PropOp33
 70
     1
102
RTVSPost2010Prop34
280
     0
102
RTVSPost2010PropOp34
 70
     1
102
RTVSPost2010Prop35
280
     0
102
RTVSPost2010PropOp35
 70
     1
102
RTVSPost2010Prop36
280
     0
102
RTVSPost2010PropOp36
 70
     1
102
RTVSPost2010Prop37
 90
       50
102
RTVSPost2010PropOp37
 70
     1
102
RTVSPost2010Prop38
140
0.0
102
RTVSPost2010PropOp38
 70
     1
102
RTVSPost2010Prop39
140
1.0
102
RTVSPost2010PropOp39
 70
     1
102
RTVSPost2010Prop40
 90
        0
102
RTVSPost2010PropOp40
 70
     1
102
RTVSPost2010Prop41ColorIndex
 90
       18
102
RTVSPost2010Prop41ColorRGB
 90
        0
102
RTVSPost2010PropOp41
 70
     1
102
RTVSPost2010Prop42
 90
       50
102
RTVSPost2010PropOp42
 70
     1
102
RTVSPost2010Prop43
 90
        3
102
RTVSPost2010PropOp43
 70
     1
102
RTVSPost2010Prop44ColorIndex
 90
        5
102
RTVSPost2010Prop44ColorRGB
 90
      255
102
RTVSPost2010PropOp44
 70
     1
102
RTVSPost2010Prop45
280
     0
102
RTVSPost2010PropOp45
 70
     1
102
RTVSPost2010Prop46
 90
       50
102
RTVSPost2010PropOp46
 70
     1
102
RTVSPost2010Prop47
 90
       50
102
RTVSPost2010PropOp47
 70
     1
102
RTVSPost2010Prop48
 90
       50
102
RTVSPost2010PropOp48
 70
     1
102
RTVSPost2010Prop49
280
     0
102
RTVSPost2010PropOp49
 70
     1
102
RTVSPost2010Prop50
 90
       50
102
RTVSPost2010PropOp50
 70
     1
102
RTVSPost2010Prop51ColorIndex
 90
      256
102
RTVSPost2010Prop51ColorRGB
 90
-16777216
102
RTVSPost2010PropOp51
 70
     0
102
RTVSPost2010Prop52
140
1.0
102
RTVSPost2010PropOp52
 70
     0
102
RTVSPost2010Prop53
 90
        2
102
RTVSPost2010PropOp53
 70
     1
102
RTVSPost2010Prop54
  1
strokes_ogs.tif
102
RTVSPost2010PropOp54
 70
     1
102
RTVSPost2010Prop55
280
     0
102
RTVSPost2010PropOp55
 70
     1
102
RTVSPost2010Prop56
140
1.0
102
RTVSPost2010PropOp56
 70
     1
102
RTVSPost2010Prop57
140
1.0
102
RTVSPost2010PropOp57
 70
     1
  0
XRECORD
  5
9E
102
{ACAD_REACTORS
330
9D
102
}
330
9D
100
AcDbXrecord
280
     1
102
RTVSPropertyOp0
 70
     1
102
RTVSPropertyOp1
 70
     1
102
RTVSPropertyOp2
 70
     1
102
RTVSPropertyOp3
 70
     1
102
RTVSPropertyOp4
 70
     1
102
RTVSPropertyOp5
 70
     1
102
RTVSPropertyOp6
 70
     1
102
RTVSPropertyOp7
 70
     1
102
RTVSPropertyOp8
 70
     1
102
RTVSPropertyOp9
 70
     1
102
RTVSPropertyOp10
 70
     1
102
RTVSPropertyOp11
 70
     1
102
RTVSPropertyOp12
 70
     1
102
RTVSPropertyOp13
 70
     1
102
RTVSPropertyOp14
 70
     1
102
RTVSPropertyOp15
 70
     1
102
RTVSPropertyOp16
 70
     1
102
RTVSPropertyOp17
 70
     1
102
RTVSPropertyOp18
 70
     1
102
RTVSPropertyOp19
 70
     1
102
RTVSPropertyOp20
 70
     1
102
RTVSPropertyOp21
 70
     1
102
RTVSPropertyOp22
 70
     1
102
RTVSPropertyOp23
 70
     1
102
RTVSPropertyOp24
 70
     1
102
RTVSPropertyOp25
 70
     1
102
RTVSPropertyOp26
 70
     1
102
RTVSPropertyOp27
 70
     1
102
RTVSPropertyOp28
 70
     1
102
RTVSPropertyOp29
 70
     1
102
RTVSPropertyOp30
 70
     1
102
RTVSPropertyOp31
 70
     1
102
RTVSPropertyOp32
 70
     1
102
RTVSPropertyOp33
 70
     1
102
RTVSPropertyOp34
 70
     1
102
RTVSPropertyOp35
 70
     1
102
RTVSPropertyOp36
 70
     1
102
RTVSPropertyOp37
 70
     1
102
RTVSPropertyOp38
 70
     1
102
RTVSPropertyOp39
 70
     1
102
RTVSPropertyOp40
 70
     1
102
RTVSPropertyOp41
 70
     1
102
RTVSPropertyOp42
 70
     1
102
RTVSPropertyOp43
 70
     1
102
RTVSPropertyOp44
 70
     1
102
RTVSPropertyOp45
 70
     1
102
RTVSPropertyOp46
 70
     1
102
RTVSPropertyOp47
 70
     1
102
RTVSPropertyOp48
 70
     1
102
RTVSPropertyOp49
 70
     1
102
RTVSPropertyOp50
 70
     1
102
RTVSPropertyOp51
 70
     0
102
RTVSPropertyOp52
 70
     0
102
RTVSPropertyOp53
 70
     1
102
RTVSPropertyOp54
 70
     1
102
RTVSPropertyOp55
 70
     1
102
RTVSPropertyOp56
 70
     1
102
RTVSPropertyOp57
 70
     1
102
RTVSPost2010Prop28
280
     0
102
RTVSPost2010PropOp28
 70
     1
102
RTVSPost2010Prop29
280
     1
102
RTVSPost2010PropOp29
 70
     1
102
RTVSPost2010Prop30
280
     1
102
RTVSPost2010PropOp30
 70
     1
102
RTVSPost2010Prop31
280
     0
102
RTVSPost2010PropOp31
 70
     1
102
RTVSPost2010Prop32
280
     0
102
RTVSPost2010PropOp32
 70
     1
102
RTVSPost2010Prop33
280
     0
102
RTVSPost2010PropOp33
 70
     1
102
RTVSPost2010Prop34
280
     0
102
RTVSPost2010PropOp34
 70
     1
102
RTVSPost2010Prop35
280
     0
102
RTVSPost2010PropOp35
 70
     1
102
RTVSPost2010Prop36
280
     0
102
RTVSPost2010PropOp36
 70
     1
102
RTVSPost2010Prop37
 90
       50
102
RTVSPost2010PropOp37
 70
     1
102
RTVSPost2010Prop38
140
0.0
102
RTVSPost2010PropOp38
 70
     1
102
RTVSPost2010Prop39
140
1.0
102
RTVSPost2010PropOp39
 70
     1
102
RTVSPost2010Prop40
 90
        0
102
RTVSPost2010PropOp40
 70
     1
102
RTVSPost2010Prop41ColorIndex
 90
       18
102
RTVSPost2010Prop41ColorRGB
 90
        0
102
RTVSPost2010PropOp41
 70
     1
102
RTVSPost2010Prop42
 90
       50
102
RTVSPost2010PropOp42
 70
     1
102
RTVSPost2010Prop43
 90
        3
102
RTVSPost2010PropOp43
 70
     1
102
RTVSPost2010Prop44ColorIndex
 90
        5
102
RTVSPost2010Prop44ColorRGB
 90
      255
102
RTVSPost2010PropOp44
 70
     1
102
RTVSPost2010Prop45
280
     0
102
RTVSPost2010PropOp45
 70
     1
102
RTVSPost2010Prop46
 90
       50
102
RTVSPost2010PropOp46
 70
     1
102
RTVSPost2010Prop47
 90
       50
102
RTVSPost2010PropOp47
 70
     1
102
RTVSPost2010Prop48
 90
       50
102
RTVSPost2010PropOp48
 70
     1
102
RTVSPost2010Prop49
280
     0
102
RTVSPost2010PropOp49
 70
     1
102
RTVSPost2010Prop50
 90
       50
102
RTVSPost2010PropOp50
 70
     1
102
RTVSPost2010Prop51ColorIndex
 90
      256
102
RTVSPost2010Prop51ColorRGB
 90
-16777216
102
RTVSPost2010PropOp51
 70
     0
102
RTVSPost2010Prop52
140
1.0
102
RTVSPost2010PropOp52
 70
     0
102
RTVSPost2010Prop53
 90
        2
102
RTVSPost2010PropOp53
 70
     1
102
RTVSPost2010Prop54
  1
strokes_ogs.tif
102
RTVSPost2010PropOp54
 70
     1
102
RTVSPost2010Prop55
280
     0
102
RTVSPost2010PropOp55
 70
     1
102
RTVSPost2010Prop56
140
1.0
102
RTVSPost2010PropOp56
 70
     1
102
RTVSPost2010Prop57
140
1.0
102
RTVSPost2010PropOp57
 70
     1
  0
XRECORD
  5
A6
102
{ACAD_REACTORS
330
A5
102
}
330
A5
100
AcDbXrecord
280
     1
102
RTVSPropertyOp0
 70
     1
102
RTVSPropertyOp1
 70
     1
102
RTVSPropertyOp2
 70
     1
102
RTVSPropertyOp3
 70
     1
102
RTVSPropertyOp4
 70
     1
102
RTVSPropertyOp5
 70
     1
102
RTVSPropertyOp6
 70
     1
102
RTVSPropertyOp7
 70
     1
102
RTVSPropertyOp8
 70
     1
102
RTVSPropertyOp9
 70
     1
102
RTVSPropertyOp10
 70
     1
102
RTVSPropertyOp11
 70
     1
102
RTVSPropertyOp12
 70
     1
102
RTVSPropertyOp13
 70
     1
102
RTVSPropertyOp14
 70
     1
102
RTVSPropertyOp15
 70
     1
102
RTVSPropertyOp16
 70
     1
102
RTVSPropertyOp17
 70
     1
102
RTVSPropertyOp18
 70
     1
102
RTVSPropertyOp19
 70
     1
102
RTVSPropertyOp20
 70
     1
102
RTVSPropertyOp21
 70
     1
102
RTVSPropertyOp22
 70
     1
102
RTVSPropertyOp23
 70
     1
102
RTVSPropertyOp24
 70
     1
102
RTVSPropertyOp25
 70
     1
102
RTVSPropertyOp26
 70
     1
102
RTVSPropertyOp27
 70
     1
102
RTVSPropertyOp28
 70
     1
102
RTVSPropertyOp29
 70
     1
102
RTVSPropertyOp30
 70
     1
102
RTVSPropertyOp31
 70
     1
102
RTVSPropertyOp32
 70
     1
102
RTVSPropertyOp33
 70
     1
102
RTVSPropertyOp34
 70
     1
102
RTVSPropertyOp35
 70
     1
102
RTVSPropertyOp36
 70
     1
102
RTVSPropertyOp37
 70
     1
102
RTVSPropertyOp38
 70
     1
102
RTVSPropertyOp39
 70
     1
102
RTVSPropertyOp40
 70
     1
102
RTVSPropertyOp41
 70
     1
102
RTVSPropertyOp42
 70
     1
102
RTVSPropertyOp43
 70
     1
102
RTVSPropertyOp44
 70
     1
102
RTVSPropertyOp45
 70
     1
102
RTVSPropertyOp46
 70
     1
102
RTVSPropertyOp47
 70
     1
102
RTVSPropertyOp48
 70
     1
102
RTVSPropertyOp49
 70
     1
102
RTVSPropertyOp50
 70
     1
102
RTVSPropertyOp51
 70
     0
102
RTVSPropertyOp52
 70
     0
102
RTVSPropertyOp53
 70
     1
102
RTVSPropertyOp54
 70
     1
102
RTVSPropertyOp55
 70
     1
102
RTVSPropertyOp56
 70
     1
102
RTVSPropertyOp57
 70
     1
102
RTVSPost2010Prop28
280
     0
102
RTVSPost2010PropOp28
 70
     1
102
RTVSPost2010Prop29
280
     1
102
RTVSPost2010PropOp29
 70
     1
102
RTVSPost2010Prop30
280
     1
102
RTVSPost2010PropOp30
 70
     1
102
RTVSPost2010Prop31
280
     0
102
RTVSPost2010PropOp31
 70
     1
102
RTVSPost2010Prop32
280
     0
102
RTVSPost2010PropOp32
 70
     1
102
RTVSPost2010Prop33
280
     0
102
RTVSPost2010PropOp33
 70
     1
102
RTVSPost2010Prop34
280
     0
102
RTVSPost2010PropOp34
 70
     1
102
RTVSPost2010Prop35
280
     0
102
RTVSPost2010PropOp35
 70
     1
102
RTVSPost2010Prop36
280
     0
102
RTVSPost2010PropOp36
 70
     1
102
RTVSPost2010Prop37
 90
       50
102
RTVSPost2010PropOp37
 70
     1
102
RTVSPost2010Prop38
140
0.0
102
RTVSPost2010PropOp38
 70
     1
102
RTVSPost2010Prop39
140
1.0
102
RTVSPost2010PropOp39
 70
     1
102
RTVSPost2010Prop40
 90
        0
102
RTVSPost2010PropOp40
 70
     1
102
RTVSPost2010Prop41ColorIndex
 90
       18
102
RTVSPost2010Prop41ColorRGB
 90
        0
102
RTVSPost2010PropOp41
 70
     1
102
RTVSPost2010Prop42
 90
       50
102
RTVSPost2010PropOp42
 70
     1
102
RTVSPost2010Prop43
 90
        3
102
RTVSPost2010PropOp43
 70
     1
102
RTVSPost2010Prop44ColorIndex
 90
        5
102
RTVSPost2010Prop44ColorRGB
 90
      255
102
RTVSPost2010PropOp44
 70
     1
102
RTVSPost2010Prop45
280
     0
102
RTVSPost2010PropOp45
 70
     1
102
RTVSPost2010Prop46
 90
       50
102
RTVSPost2010PropOp46
 70
     1
102
RTVSPost2010Prop47
 90
       50
102
RTVSPost2010PropOp47
 70
     1
102
RTVSPost2010Prop48
 90
       50
102
RTVSPost2010PropOp48
 70
     1
102
RTVSPost2010Prop49
280
     0
102
RTVSPost2010PropOp49
 70
     1
102
RTVSPost2010Prop50
 90
       50
102
RTVSPost2010PropOp50
 70
     1
102
RTVSPost2010Prop51ColorIndex
 90
      256
102
RTVSPost2010Prop51ColorRGB
 90
-16777216
102
RTVSPost2010PropOp51
 70
     0
102
RTVSPost2010Prop52
140
1.0
102
RTVSPost2010PropOp52
 70
     0
102
RTVSPost2010Prop53
 90
        2
102
RTVSPost2010PropOp53
 70
     1
102
RTVSPost2010Prop54
  1
strokes_ogs.tif
102
RTVSPost2010PropOp54
 70
     1
102
RTVSPost2010Prop55
280
     0
102
RTVSPost2010PropOp55
 70
     1
102
RTVSPost2010Prop56
140
1.0
102
RTVSPost2010PropOp56
 70
     1
102
RTVSPost2010Prop57
140
1.0
102
RTVSPost2010PropOp57
 70
     1
  0
XRECORD
  5
AE
102
{ACAD_REACTORS
330
AD
102
}
330
AD
100
AcDbXrecord
280
     1
102
RTVSPropertyOp0
 70
     1
102
RTVSPropertyOp1
 70
     1
102
RTVSPropertyOp2
 70
     1
102
RTVSPropertyOp3
 70
     1
102
RTVSPropertyOp4
 70
     1
102
RTVSPropertyOp5
 70
     1
102
RTVSPropertyOp6
 70
     1
102
RTVSPropertyOp7
 70
     1
102
RTVSPropertyOp8
 70
     1
102
RTVSPropertyOp9
 70
     1
102
RTVSPropertyOp10
 70
     1
102
RTVSPropertyOp11
 70
     1
102
RTVSPropertyOp12
 70
     1
102
RTVSPropertyOp13
 70
     1
102
RTVSPropertyOp14
 70
     1
102
RTVSPropertyOp15
 70
     1
102
RTVSPropertyOp16
 70
     1
102
RTVSPropertyOp17
 70
     1
102
RTVSPropertyOp18
 70
     1
102
RTVSPropertyOp19
 70
     1
102
RTVSPropertyOp20
 70
     1
102
RTVSPropertyOp21
 70
     1
102
RTVSPropertyOp22
 70
     1
102
RTVSPropertyOp23
 70
     1
102
RTVSPropertyOp24
 70
     1
102
RTVSPropertyOp25
 70
     1
102
RTVSPropertyOp26
 70
     1
102
RTVSPropertyOp27
 70
     1
102
RTVSPropertyOp28
 70
     1
102
RTVSPropertyOp29
 70
     1
102
RTVSPropertyOp30
 70
     1
102
RTVSPropertyOp31
 70
     1
102
RTVSPropertyOp32
 70
     1
102
RTVSPropertyOp33
 70
     1
102
RTVSPropertyOp34
 70
     1
102
RTVSPropertyOp35
 70
     1
102
RTVSPropertyOp36
 70
     1
102
RTVSPropertyOp37
 70
     1
102
RTVSPropertyOp38
 70
     1
102
RTVSPropertyOp39
 70
     1
102
RTVSPropertyOp40
 70
     1
102
RTVSPropertyOp41
 70
     1
102
RTVSPropertyOp42
 70
     1
102
RTVSPropertyOp43
 70
     1
102
RTVSPropertyOp44
 70
     1
102
RTVSPropertyOp45
 70
     1
102
RTVSPropertyOp46
 70
     1
102
RTVSPropertyOp47
 70
     1
102
RTVSPropertyOp48
 70
     1
102
RTVSPropertyOp49
 70
     1
102
RTVSPropertyOp50
 70
     1
102
RTVSPropertyOp51
 70
     0
102
RTVSPropertyOp52
 70
     0
102
RTVSPropertyOp53
 70
     1
102
RTVSPropertyOp54
 70
     1
102
RTVSPropertyOp55
 70
     1
102
RTVSPropertyOp56
 70
     1
102
RTVSPropertyOp57
 70
     1
102
RTVSPost2010Prop28
280
     0
102
RTVSPost2010PropOp28
 70
     1
102
RTVSPost2010Prop29
280
     1
102
RTVSPost2010PropOp29
 70
     1
102
RTVSPost2010Prop30
280
     1
102
RTVSPost2010PropOp30
 70
     1
102
RTVSPost2010Prop31
280
     0
102
RTVSPost2010PropOp31
 70
     1
102
RTVSPost2010Prop32
280
     0
102
RTVSPost2010PropOp32
 70
     1
102
RTVSPost2010Prop33
280
     0
102
RTVSPost2010PropOp33
 70
     1
102
RTVSPost2010Prop34
280
     0
102
RTVSPost2010PropOp34
 70
     1
102
RTVSPost2010Prop35
280
     0
102
RTVSPost2010PropOp35
 70
     1
102
RTVSPost2010Prop36
280
     0
102
RTVSPost2010PropOp36
 70
     1
102
RTVSPost2010Prop37
 90
       50
102
RTVSPost2010PropOp37
 70
     1
102
RTVSPost2010Prop38
140
0.0
102
RTVSPost2010PropOp38
 70
     1
102
RTVSPost2010Prop39
140
1.0
102
RTVSPost2010PropOp39
 70
     1
102
RTVSPost2010Prop40
 90
        0
102
RTVSPost2010PropOp40
 70
     1
102
RTVSPost2010Prop41ColorIndex
 90
       18
102
RTVSPost2010Prop41ColorRGB
 90
        0
102
RTVSPost2010PropOp41
 70
     1
102
RTVSPost2010Prop42
 90
       50
102
RTVSPost2010PropOp42
 70
     1
102
RTVSPost2010Prop43
 90
        3
102
RTVSPost2010PropOp43
 70
     1
102
RTVSPost2010Prop44ColorIndex
 90
        5
102
RTVSPost2010Prop44ColorRGB
 90
      255
102
RTVSPost2010PropOp44
 70
     1
102
RTVSPost2010Prop45
280
     0
102
RTVSPost2010PropOp45
 70
     1
102
RTVSPost2010Prop46
 90
       50
102
RTVSPost2010PropOp46
 70
     1
102
RTVSPost2010Prop47
 90
       50
102
RTVSPost2010PropOp47
 70
     1
102
RTVSPost2010Prop48
 90
       50
102
RTVSPost2010PropOp48
 70
     1
102
RTVSPost2010Prop49
280
     0
102
RTVSPost2010PropOp49
 70
     1
102
RTVSPost2010Prop50
 90
       50
102
RTVSPost2010PropOp50
 70
     1
102
RTVSPost2010Prop51ColorIndex
 90
      256
102
RTVSPost2010Prop51ColorRGB
 90
-16777216
102
RTVSPost2010PropOp51
 70
     0
102
RTVSPost2010Prop52
140
1.0
102
RTVSPost2010PropOp52
 70
     0
102
RTVSPost2010Prop53
 90
        2
102
RTVSPost2010PropOp53
 70
     1
102
RTVSPost2010Prop54
  1
strokes_ogs.tif
102
RTVSPost2010PropOp54
 70
     1
102
RTVSPost2010Prop55
280
     0
102
RTVSPost2010PropOp55
 70
     1
102
RTVSPost2010Prop56
140
1.0
102
RTVSPost2010PropOp56
 70
     1
102
RTVSPost2010Prop57
140
1.0
102
RTVSPost2010PropOp57
 70
     1
  0
XRECORD
  5
A2
102
{ACAD_REACTORS
330
A1
102
}
330
A1
100
AcDbXrecord
280
     1
102
RTVSPropertyOp0
 70
     1
102
RTVSPropertyOp1
 70
     1
102
RTVSPropertyOp2
 70
     1
102
RTVSPropertyOp3
 70
     1
102
RTVSPropertyOp4
 70
     1
102
RTVSPropertyOp5
 70
     1
102
RTVSPropertyOp6
 70
     1
102
RTVSPropertyOp7
 70
     1
102
RTVSPropertyOp8
 70
     1
102
RTVSPropertyOp9
 70
     1
102
RTVSPropertyOp10
 70
     1
102
RTVSPropertyOp11
 70
     1
102
RTVSPropertyOp12
 70
     1
102
RTVSPropertyOp13
 70
     1
102
RTVSPropertyOp14
 70
     1
102
RTVSPropertyOp15
 70
     1
102
RTVSPropertyOp16
 70
     1
102
RTVSPropertyOp17
 70
     1
102
RTVSPropertyOp18
 70
     1
102
RTVSPropertyOp19
 70
     1
102
RTVSPropertyOp20
 70
     1
102
RTVSPropertyOp21
 70
     1
102
RTVSPropertyOp22
 70
     1
102
RTVSPropertyOp23
 70
     1
102
RTVSPropertyOp24
 70
     1
102
RTVSPropertyOp25
 70
     1
102
RTVSPropertyOp26
 70
     1
102
RTVSPropertyOp27
 70
     1
102
RTVSPropertyOp28
 70
     1
102
RTVSPropertyOp29
 70
     1
102
RTVSPropertyOp30
 70
     1
102
RTVSPropertyOp31
 70
     1
102
RTVSPropertyOp32
 70
     1
102
RTVSPropertyOp33
 70
     1
102
RTVSPropertyOp34
 70
     1
102
RTVSPropertyOp35
 70
     1
102
RTVSPropertyOp36
 70
     1
102
RTVSPropertyOp37
 70
     1
102
RTVSPropertyOp38
 70
     1
102
RTVSPropertyOp39
 70
     1
102
RTVSPropertyOp40
 70
     1
102
RTVSPropertyOp41
 70
     1
102
RTVSPropertyOp42
 70
     1
102
RTVSPropertyOp43
 70
     1
102
RTVSPropertyOp44
 70
     1
102
RTVSPropertyOp45
 70
     1
102
RTVSPropertyOp46
 70
     1
102
RTVSPropertyOp47
 70
     1
102
RTVSPropertyOp48
 70
     1
102
RTVSPropertyOp49
 70
     1
102
RTVSPropertyOp50
 70
     1
102
RTVSPropertyOp51
 70
     0
102
RTVSPropertyOp52
 70
     0
102
RTVSPropertyOp53
 70
     1
102
RTVSPropertyOp54
 70
     1
102
RTVSPropertyOp55
 70
     1
102
RTVSPropertyOp56
 70
     1
102
RTVSPropertyOp57
 70
     1
102
RTVSPost2010Prop28
280
     0
102
RTVSPost2010PropOp28
 70
     1
102
RTVSPost2010Prop29
280
     1
102
RTVSPost2010PropOp29
 70
     1
102
RTVSPost2010Prop30
280
     1
102
RTVSPost2010PropOp30
 70
     1
102
RTVSPost2010Prop31
280
     0
102
RTVSPost2010PropOp31
 70
     1
102
RTVSPost2010Prop32
280
     0
102
RTVSPost2010PropOp32
 70
     1
102
RTVSPost2010Prop33
280
     0
102
RTVSPost2010PropOp33
 70
     1
102
RTVSPost2010Prop34
280
     0
102
RTVSPost2010PropOp34
 70
     1
102
RTVSPost2010Prop35
280
     0
102
RTVSPost2010PropOp35
 70
     1
102
RTVSPost2010Prop36
280
     0
102
RTVSPost2010PropOp36
 70
     1
102
RTVSPost2010Prop37
 90
       50
102
RTVSPost2010PropOp37
 70
     1
102
RTVSPost2010Prop38
140
0.0
102
RTVSPost2010PropOp38
 70
     1
102
RTVSPost2010Prop39
140
1.0
102
RTVSPost2010PropOp39
 70
     1
102
RTVSPost2010Prop40
 90
        0
102
RTVSPost2010PropOp40
 70
     1
102
RTVSPost2010Prop41ColorIndex
 90
       18
102
RTVSPost2010Prop41ColorRGB
 90
        0
102
RTVSPost2010PropOp41
 70
     1
102
RTVSPost2010Prop42
 90
       50
102
RTVSPost2010PropOp42
 70
     1
102
RTVSPost2010Prop43
 90
        3
102
RTVSPost2010PropOp43
 70
     1
102
RTVSPost2010Prop44ColorIndex
 90
        5
102
RTVSPost2010Prop44ColorRGB
 90
      255
102
RTVSPost2010PropOp44
 70
     1
102
RTVSPost2010Prop45
280
     0
102
RTVSPost2010PropOp45
 70
     1
102
RTVSPost2010Prop46
 90
       50
102
RTVSPost2010PropOp46
 70
     1
102
RTVSPost2010Prop47
 90
       50
102
RTVSPost2010PropOp47
 70
     1
102
RTVSPost2010Prop48
 90
       50
102
RTVSPost2010PropOp48
 70
     1
102
RTVSPost2010Prop49
280
     0
102
RTVSPost2010PropOp49
 70
     1
102
RTVSPost2010Prop50
 90
       50
102
RTVSPost2010PropOp50
 70
     1
102
RTVSPost2010Prop51ColorIndex
 90
      256
102
RTVSPost2010Prop51ColorRGB
 90
-16777216
102
RTVSPost2010PropOp51
 70
     0
102
RTVSPost2010Prop52
140
1.0
102
RTVSPost2010PropOp52
 70
     0
102
RTVSPost2010Prop53
 90
        2
102
RTVSPost2010PropOp53
 70
     1
102
RTVSPost2010Prop54
  1
strokes_ogs.tif
102
RTVSPost2010PropOp54
 70
     1
102
RTVSPost2010Prop55
280
     0
102
RTVSPost2010PropOp55
 70
     1
102
RTVSPost2010Prop56
140
1.0
102
RTVSPost2010PropOp56
 70
     1
102
RTVSPost2010Prop57
140
1.0
102
RTVSPost2010PropOp57
 70
     1
  0
XRECORD
  5
A4
102
{ACAD_REACTORS
330
A3
102
}
330
A3
100
AcDbXrecord
280
     1
102
RTVSPropertyOp0
 70
     1
102
RTVSPropertyOp1
 70
     1
102
RTVSPropertyOp2
 70
     1
102
RTVSPropertyOp3
 70
     1
102
RTVSPropertyOp4
 70
     1
102
RTVSPropertyOp5
 70
     1
102
RTVSPropertyOp6
 70
     1
102
RTVSPropertyOp7
 70
     1
102
RTVSPropertyOp8
 70
     1
102
RTVSPropertyOp9
 70
     1
102
RTVSPropertyOp10
 70
     1
102
RTVSPropertyOp11
 70
     1
102
RTVSPropertyOp12
 70
     1
102
RTVSPropertyOp13
 70
     1
102
RTVSPropertyOp14
 70
     1
102
RTVSPropertyOp15
 70
     1
102
RTVSPropertyOp16
 70
     1
102
RTVSPropertyOp17
 70
     1
102
RTVSPropertyOp18
 70
     1
102
RTVSPropertyOp19
 70
     1
102
RTVSPropertyOp20
 70
     1
102
RTVSPropertyOp21
 70
     1
102
RTVSPropertyOp22
 70
     1
102
RTVSPropertyOp23
 70
     1
102
RTVSPropertyOp24
 70
     1
102
RTVSPropertyOp25
 70
     1
102
RTVSPropertyOp26
 70
     1
102
RTVSPropertyOp27
 70
     1
102
RTVSPropertyOp28
 70
     1
102
RTVSPropertyOp29
 70
     1
102
RTVSPropertyOp30
 70
     1
102
RTVSPropertyOp31
 70
     1
102
RTVSPropertyOp32
 70
     1
102
RTVSPropertyOp33
 70
     1
102
RTVSPropertyOp34
 70
     1
102
RTVSPropertyOp35
 70
     1
102
RTVSPropertyOp36
 70
     1
102
RTVSPropertyOp37
 70
     1
102
RTVSPropertyOp38
 70
     1
102
RTVSPropertyOp39
 70
     1
102
RTVSPropertyOp40
 70
     1
102
RTVSPropertyOp41
 70
     1
102
RTVSPropertyOp42
 70
     1
102
RTVSPropertyOp43
 70
     1
102
RTVSPropertyOp44
 70
     1
102
RTVSPropertyOp45
 70
     1
102
RTVSPropertyOp46
 70
     1
102
RTVSPropertyOp47
 70
     1
102
RTVSPropertyOp48
 70
     1
102
RTVSPropertyOp49
 70
     1
102
RTVSPropertyOp50
 70
     1
102
RTVSPropertyOp51
 70
     0
102
RTVSPropertyOp52
 70
     0
102
RTVSPropertyOp53
 70
     1
102
RTVSPropertyOp54
 70
     1
102
RTVSPropertyOp55
 70
     1
102
RTVSPropertyOp56
 70
     1
102
RTVSPropertyOp57
 70
     1
102
RTVSPost2010Prop28
280
     0
102
RTVSPost2010PropOp28
 70
     1
102
RTVSPost2010Prop29
280
     1
102
RTVSPost2010PropOp29
 70
     1
102
RTVSPost2010Prop30
280
     1
102
RTVSPost2010PropOp30
 70
     1
102
RTVSPost2010Prop31
280
     0
102
RTVSPost2010PropOp31
 70
     1
102
RTVSPost2010Prop32
280
     0
102
RTVSPost2010PropOp32
 70
     1
102
RTVSPost2010Prop33
280
     0
102
RTVSPost2010PropOp33
 70
     1
102
RTVSPost2010Prop34
280
     0
102
RTVSPost2010PropOp34
 70
     1
102
RTVSPost2010Prop35
280
     0
102
RTVSPost2010PropOp35
 70
     1
102
RTVSPost2010Prop36
280
     0
102
RTVSPost2010PropOp36
 70
     1
102
RTVSPost2010Prop37
 90
       50
102
RTVSPost2010PropOp37
 70
     1
102
RTVSPost2010Prop38
140
0.0
102
RTVSPost2010PropOp38
 70
     1
102
RTVSPost2010Prop39
140
1.0
102
RTVSPost2010PropOp39
 70
     1
102
RTVSPost2010Prop40
 90
        0
102
RTVSPost2010PropOp40
 70
     1
102
RTVSPost2010Prop41ColorIndex
 90
       18
102
RTVSPost2010Prop41ColorRGB
 90
        0
102
RTVSPost2010PropOp41
 70
     1
102
RTVSPost2010Prop42
 90
       50
102
RTVSPost2010PropOp42
 70
     1
102
RTVSPost2010Prop43
 90
        3
102
RTVSPost2010PropOp43
 70
     1
102
RTVSPost2010Prop44ColorIndex
 90
        5
102
RTVSPost2010Prop44ColorRGB
 90
      255
102
RTVSPost2010PropOp44
 70
     1
102
RTVSPost2010Prop45
280
     0
102
RTVSPost2010PropOp45
 70
     1
102
RTVSPost2010Prop46
 90
       50
102
RTVSPost2010PropOp46
 70
     1
102
RTVSPost2010Prop47
 90
       50
102
RTVSPost2010PropOp47
 70
     1
102
RTVSPost2010Prop48
 90
       50
102
RTVSPost2010PropOp48
 70
     1
102
RTVSPost2010Prop49
280
     0
102
RTVSPost2010PropOp49
 70
     1
102
RTVSPost2010Prop50
 90
       50
102
RTVSPost2010PropOp50
 70
     1
102
RTVSPost2010Prop51ColorIndex
 90
      256
102
RTVSPost2010Prop51ColorRGB
 90
-16777216
102
RTVSPost2010PropOp51
 70
     0
102
RTVSPost2010Prop52
140
1.0
102
RTVSPost2010PropOp52
 70
     0
102
RTVSPost2010Prop53
 90
        2
102
RTVSPost2010PropOp53
 70
     1
102
RTVSPost2010Prop54
  1
strokes_ogs.tif
102
RTVSPost2010PropOp54
 70
     1
102
RTVSPost2010Prop55
280
     0
102
RTVSPost2010PropOp55
 70
     1
102
RTVSPost2010Prop56
140
1.0
102
RTVSPost2010PropOp56
 70
     1
102
RTVSPost2010Prop57
140
1.0
102
RTVSPost2010PropOp57
 70
     1
  0
XRECORD
  5
B4
102
{ACAD_REACTORS
330
B3
102
}
330
B3
100
AcDbXrecord
280
     1
102
RTVSPropertyOp0
 70
     0
102
RTVSPropertyOp1
 70
     0
102
RTVSPropertyOp2
 70
     0
102
RTVSPropertyOp3
 70
     0
102
RTVSPropertyOp4
 70
     0
102
RTVSPropertyOp5
 70
     0
102
RTVSPropertyOp6
 70
     0
102
RTVSPropertyOp7
 70
     0
102
RTVSPropertyOp8
 70
     0
102
RTVSPropertyOp9
 70
     0
102
RTVSPropertyOp10
 70
     0
102
RTVSPropertyOp11
 70
     0
102
RTVSPropertyOp12
 70
     0
102
RTVSPropertyOp13
 70
     0
102
RTVSPropertyOp14
 70
     2
102
RTVSPropertyOp15
 70
     0
102
RTVSPropertyOp16
 70
     0
102
RTVSPropertyOp17
 70
     0
102
RTVSPropertyOp18
 70
     0
102
RTVSPropertyOp19
 70
     0
102
RTVSPropertyOp20
 70
     0
102
RTVSPropertyOp21
 70
     0
102
RTVSPropertyOp22
 70
     0
102
RTVSPropertyOp23
 70
     0
102
RTVSPropertyOp24
 70
     0
102
RTVSPropertyOp25
 70
     0
102
RTVSPropertyOp26
 70
     0
102
RTVSPropertyOp27
 70
     0
102
RTVSPropertyOp28
 70
     0
102
RTVSPropertyOp29
 70
     0
102
RTVSPropertyOp30
 70
     0
102
RTVSPropertyOp31
 70
     0
102
RTVSPropertyOp32
 70
     0
102
RTVSPropertyOp33
 70
     0
102
RTVSPropertyOp34
 70
     0
102
RTVSPropertyOp35
 70
     0
102
RTVSPropertyOp36
 70
     0
102
RTVSPropertyOp37
 70
     0
102
RTVSPropertyOp38
 70
     0
102
RTVSPropertyOp39
 70
     0
102
RTVSPropertyOp40
 70
     0
102
RTVSPropertyOp41
 70
     0
102
RTVSPropertyOp42
 70
     0
102
RTVSPropertyOp43
 70
     0
102
RTVSPropertyOp44
 70
     0
102
RTVSPropertyOp45
 70
     0
102
RTVSPropertyOp46
 70
     0
102
RTVSPropertyOp47
 70
     0
102
RTVSPropertyOp48
 70
     0
102
RTVSPropertyOp49
 70
     0
102
RTVSPropertyOp50
 70
     0
102
RTVSPropertyOp51
 70
     0
102
RTVSPropertyOp52
 70
     0
102
RTVSPropertyOp53
 70
     0
102
RTVSPropertyOp54
 70
     0
102
RTVSPropertyOp55
 70
     0
102
RTVSPropertyOp56
 70
     0
102
RTVSPropertyOp57
 70
     0
102
RTVSPost2010Prop28
280
     0
102
RTVSPost2010PropOp28
 70
     0
102
RTVSPost2010Prop29
280
     1
102
RTVSPost2010PropOp29
 70
     0
102
RTVSPost2010Prop30
280
     1
102
RTVSPost2010PropOp30
 70
     0
102
RTVSPost2010Prop31
280
     0
102
RTVSPost2010PropOp31
 70
     0
102
RTVSPost2010Prop32
280
     0
102
RTVSPost2010PropOp32
 70
     0
102
RTVSPost2010Prop33
280
     0
102
RTVSPost2010PropOp33
 70
     0
102
RTVSPost2010Prop34
280
     0
102
RTVSPost2010PropOp34
 70
     0
102
RTVSPost2010Prop35
280
     0
102
RTVSPost2010PropOp35
 70
     0
102
RTVSPost2010Prop36
280
     0
102
RTVSPost2010PropOp36
 70
     0
102
RTVSPost2010Prop37
 90
       50
102
RTVSPost2010PropOp37
 70
     0
102
RTVSPost2010Prop38
140
0.0
102
RTVSPost2010PropOp38
 70
     0
102
RTVSPost2010Prop39
140
1.0
102
RTVSPost2010PropOp39
 70
     0
102
RTVSPost2010Prop40
 90
        0
102
RTVSPost2010PropOp40
 70
     0
102
RTVSPost2010Prop41ColorIndex
 90
       18
102
RTVSPost2010Prop41ColorRGB
 90
        0
102
RTVSPost2010PropOp41
 70
     0
102
RTVSPost2010Prop42
 90
       50
102
RTVSPost2010PropOp42
 70
     0
102
RTVSPost2010Prop43
 90
        3
102
RTVSPost2010PropOp43
 70
     0
102
RTVSPost2010Prop44ColorIndex
 90
        5
102
RTVSPost2010Prop44ColorRGB
 90
      255
102
RTVSPost2010PropOp44
 70
     0
102
RTVSPost2010Prop45
280
     0
102
RTVSPost2010PropOp45
 70
     0
102
RTVSPost2010Prop46
 90
       50
102
RTVSPost2010PropOp46
 70
     0
102
RTVSPost2010Prop47
 90
       50
102
RTVSPost2010PropOp47
 70
     0
102
RTVSPost2010Prop48
 90
       50
102
RTVSPost2010PropOp48
 70
     0
102
RTVSPost2010Prop49
280
     0
102
RTVSPost2010PropOp49
 70
     0
102
RTVSPost2010Prop50
 90
       50
102
RTVSPost2010PropOp50
 70
     0
102
RTVSPost2010Prop51ColorIndex
 90
      256
102
RTVSPost2010Prop51ColorRGB
 90
-16777216
102
RTVSPost2010PropOp51
 70
     0
102
RTVSPost2010Prop52
140
1.0
102
RTVSPost2010PropOp52
 70
     0
102
RTVSPost2010Prop53
 90
        2
102
RTVSPost2010PropOp53
 70
     0
102
RTVSPost2010Prop54
  1
strokes_ogs.tif
102
RTVSPost2010PropOp54
 70
     0
102
RTVSPost2010Prop55
280
     0
102
RTVSPost2010PropOp55
 70
     0
102
RTVSPost2010Prop56
140
1.0
102
RTVSPost2010PropOp56
 70
     0
102
RTVSPost2010Prop57
140
1.0
102
RTVSPost2010PropOp57
 70
     0
  0
XRECORD
  5
AC
102
{ACAD_REACTORS
330
AB
102
}
330
AB
100
AcDbXrecord
280
     1
102
RTVSPropertyOp0
 70
     1
102
RTVSPropertyOp1
 70
     1
102
RTVSPropertyOp2
 70
     1
102
RTVSPropertyOp3
 70
     1
102
RTVSPropertyOp4
 70
     1
102
RTVSPropertyOp5
 70
     1
102
RTVSPropertyOp6
 70
     1
102
RTVSPropertyOp7
 70
     1
102
RTVSPropertyOp8
 70
     1
102
RTVSPropertyOp9
 70
     1
102
RTVSPropertyOp10
 70
     1
102
RTVSPropertyOp11
 70
     1
102
RTVSPropertyOp12
 70
     1
102
RTVSPropertyOp13
 70
     1
102
RTVSPropertyOp14
 70
     1
102
RTVSPropertyOp15
 70
     1
102
RTVSPropertyOp16
 70
     1
102
RTVSPropertyOp17
 70
     1
102
RTVSPropertyOp18
 70
     1
102
RTVSPropertyOp19
 70
     1
102
RTVSPropertyOp20
 70
     1
102
RTVSPropertyOp21
 70
     1
102
RTVSPropertyOp22
 70
     1
102
RTVSPropertyOp23
 70
     1
102
RTVSPropertyOp24
 70
     1
102
RTVSPropertyOp25
 70
     1
102
RTVSPropertyOp26
 70
     1
102
RTVSPropertyOp27
 70
     1
102
RTVSPropertyOp28
 70
     1
102
RTVSPropertyOp29
 70
     1
102
RTVSPropertyOp30
 70
     1
102
RTVSPropertyOp31
 70
     1
102
RTVSPropertyOp32
 70
     1
102
RTVSPropertyOp33
 70
     1
102
RTVSPropertyOp34
 70
     1
102
RTVSPropertyOp35
 70
     1
102
RTVSPropertyOp36
 70
     1
102
RTVSPropertyOp37
 70
     1
102
RTVSPropertyOp38
 70
     1
102
RTVSPropertyOp39
 70
     1
102
RTVSPropertyOp40
 70
     1
102
RTVSPropertyOp41
 70
     1
102
RTVSPropertyOp42
 70
     1
102
RTVSPropertyOp43
 70
     1
102
RTVSPropertyOp44
 70
     1
102
RTVSPropertyOp45
 70
     1
102
RTVSPropertyOp46
 70
     1
102
RTVSPropertyOp47
 70
     1
102
RTVSPropertyOp48
 70
     1
102
RTVSPropertyOp49
 70
     1
102
RTVSPropertyOp50
 70
     1
102
RTVSPropertyOp51
 70
     0
102
RTVSPropertyOp52
 70
     0
102
RTVSPropertyOp53
 70
     1
102
RTVSPropertyOp54
 70
     1
102
RTVSPropertyOp55
 70
     1
102
RTVSPropertyOp56
 70
     1
102
RTVSPropertyOp57
 70
     1
102
RTVSPost2010Prop28
280
     0
102
RTVSPost2010PropOp28
 70
     1
102
RTVSPost2010Prop29
280
     1
102
RTVSPost2010PropOp29
 70
     1
102
RTVSPost2010Prop30
280
     1
102
RTVSPost2010PropOp30
 70
     1
102
RTVSPost2010Prop31
280
     0
102
RTVSPost2010PropOp31
 70
     1
102
RTVSPost2010Prop32
280
     0
102
RTVSPost2010PropOp32
 70
     1
102
RTVSPost2010Prop33
280
     0
102
RTVSPost2010PropOp33
 70
     1
102
RTVSPost2010Prop34
280
     0
102
RTVSPost2010PropOp34
 70
     1
102
RTVSPost2010Prop35
280
     0
102
RTVSPost2010PropOp35
 70
     1
102
RTVSPost2010Prop36
280
     0
102
RTVSPost2010PropOp36
 70
     1
102
RTVSPost2010Prop37
 90
       50
102
RTVSPost2010PropOp37
 70
     1
102
RTVSPost2010Prop38
140
0.0
102
RTVSPost2010PropOp38
 70
     1
102
RTVSPost2010Prop39
140
1.0
102
RTVSPost2010PropOp39
 70
     1
102
RTVSPost2010Prop40
 90
        0
102
RTVSPost2010PropOp40
 70
     1
102
RTVSPost2010Prop41ColorIndex
 90
       18
102
RTVSPost2010Prop41ColorRGB
 90
        0
102
RTVSPost2010PropOp41
 70
     1
102
RTVSPost2010Prop42
 90
       50
102
RTVSPost2010PropOp42
 70
     1
102
RTVSPost2010Prop43
 90
        3
102
RTVSPost2010PropOp43
 70
     1
102
RTVSPost2010Prop44ColorIndex
 90
        5
102
RTVSPost2010Prop44ColorRGB
 90
      255
102
RTVSPost2010PropOp44
 70
     1
102
RTVSPost2010Prop45
280
     0
102
RTVSPost2010PropOp45
 70
     1
102
RTVSPost2010Prop46
 90
       50
102
RTVSPost2010PropOp46
 70
     1
102
RTVSPost2010Prop47
 90
       50
102
RTVSPost2010PropOp47
 70
     1
102
RTVSPost2010Prop48
 90
       50
102
RTVSPost2010PropOp48
 70
     1
102
RTVSPost2010Prop49
280
     0
102
RTVSPost2010PropOp49
 70
     1
102
RTVSPost2010Prop50
 90
       50
102
RTVSPost2010PropOp50
 70
     1
102
RTVSPost2010Prop51ColorIndex
 90
      256
102
RTVSPost2010Prop51ColorRGB
 90
-16777216
102
RTVSPost2010PropOp51
 70
     0
102
RTVSPost2010Prop52
140
1.0
102
RTVSPost2010PropOp52
 70
     0
102
RTVSPost2010Prop53
 90
        2
102
RTVSPost2010PropOp53
 70
     1
102
RTVSPost2010Prop54
  1
strokes_ogs.tif
102
RTVSPost2010PropOp54
 70
     1
102
RTVSPost2010Prop55
280
     0
102
RTVSPost2010PropOp55
 70
     1
102
RTVSPost2010Prop56
140
1.0
102
RTVSPost2010PropOp56
 70
     1
102
RTVSPost2010Prop57
140
1.0
102
RTVSPost2010PropOp57
 70
     1
  0
XRECORD
  5
90
102
{ACAD_REACTORS
330
8F
102
}
330
8F
100
AcDbXrecord
280
     1
102
RTVSPropertyOp0
 70
     1
102
RTVSPropertyOp1
 70
     1
102
RTVSPropertyOp2
 70
     1
102
RTVSPropertyOp3
 70
     1
102
RTVSPropertyOp4
 70
     1
102
RTVSPropertyOp5
 70
     1
102
RTVSPropertyOp6
 70
     1
102
RTVSPropertyOp7
 70
     1
102
RTVSPropertyOp8
 70
     1
102
RTVSPropertyOp9
 70
     1
102
RTVSPropertyOp10
 70
     1
102
RTVSPropertyOp11
 70
     1
102
RTVSPropertyOp12
 70
     1
102
RTVSPropertyOp13
 70
     1
102
RTVSPropertyOp14
 70
     1
102
RTVSPropertyOp15
 70
     1
102
RTVSPropertyOp16
 70
     1
102
RTVSPropertyOp17
 70
     1
102
RTVSPropertyOp18
 70
     1
102
RTVSPropertyOp19
 70
     1
102
RTVSPropertyOp20
 70
     1
102
RTVSPropertyOp21
 70
     1
102
RTVSPropertyOp22
 70
     1
102
RTVSPropertyOp23
 70
     1
102
RTVSPropertyOp24
 70
     1
102
RTVSPropertyOp25
 70
     1
102
RTVSPropertyOp26
 70
     1
102
RTVSPropertyOp27
 70
     1
102
RTVSPropertyOp28
 70
     1
102
RTVSPropertyOp29
 70
     1
102
RTVSPropertyOp30
 70
     1
102
RTVSPropertyOp31
 70
     1
102
RTVSPropertyOp32
 70
     1
102
RTVSPropertyOp33
 70
     1
102
RTVSPropertyOp34
 70
     1
102
RTVSPropertyOp35
 70
     1
102
RTVSPropertyOp36
 70
     1
102
RTVSPropertyOp37
 70
     1
102
RTVSPropertyOp38
 70
     1
102
RTVSPropertyOp39
 70
     1
102
RTVSPropertyOp40
 70
     1
102
RTVSPropertyOp41
 70
     1
102
RTVSPropertyOp42
 70
     1
102
RTVSPropertyOp43
 70
     1
102
RTVSPropertyOp44
 70
     1
102
RTVSPropertyOp45
 70
     1
102
RTVSPropertyOp46
 70
     1
102
RTVSPropertyOp47
 70
     1
102
RTVSPropertyOp48
 70
     1
102
RTVSPropertyOp49
 70
     1
102
RTVSPropertyOp50
 70
     1
102
RTVSPropertyOp51
 70
     0
102
RTVSPropertyOp52
 70
     0
102
RTVSPropertyOp53
 70
     1
102
RTVSPropertyOp54
 70
     1
102
RTVSPropertyOp55
 70
     1
102
RTVSPropertyOp56
 70
     1
102
RTVSPropertyOp57
 70
     1
102
RTVSPost2010Prop28
280
     0
102
RTVSPost2010PropOp28
 70
     1
102
RTVSPost2010Prop29
280
     1
102
RTVSPost2010PropOp29
 70
     1
102
RTVSPost2010Prop30
280
     1
102
RTVSPost2010PropOp30
 70
     1
102
RTVSPost2010Prop31
280
     0
102
RTVSPost2010PropOp31
 70
     1
102
RTVSPost2010Prop32
280
     0
102
RTVSPost2010PropOp32
 70
     1
102
RTVSPost2010Prop33
280
     0
102
RTVSPost2010PropOp33
 70
     1
102
RTVSPost2010Prop34
280
     0
102
RTVSPost2010PropOp34
 70
     1
102
RTVSPost2010Prop35
280
     0
102
RTVSPost2010PropOp35
 70
     1
102
RTVSPost2010Prop36
280
     0
102
RTVSPost2010PropOp36
 70
     1
102
RTVSPost2010Prop37
 90
       50
102
RTVSPost2010PropOp37
 70
     1
102
RTVSPost2010Prop38
140
0.0
102
RTVSPost2010PropOp38
 70
     1
102
RTVSPost2010Prop39
140
1.0
102
RTVSPost2010PropOp39
 70
     1
102
RTVSPost2010Prop40
 90
        0
102
RTVSPost2010PropOp40
 70
     1
102
RTVSPost2010Prop41ColorIndex
 90
       18
102
RTVSPost2010Prop41ColorRGB
 90
        0
102
RTVSPost2010PropOp41
 70
     1
102
RTVSPost2010Prop42
 90
       50
102
RTVSPost2010PropOp42
 70
     1
102
RTVSPost2010Prop43
 90
        3
102
RTVSPost2010PropOp43
 70
     1
102
RTVSPost2010Prop44ColorIndex
 90
        5
102
RTVSPost2010Prop44ColorRGB
 90
      255
102
RTVSPost2010PropOp44
 70
     1
102
RTVSPost2010Prop45
280
     0
102
RTVSPost2010PropOp45
 70
     1
102
RTVSPost2010Prop46
 90
       50
102
RTVSPost2010PropOp46
 70
     1
102
RTVSPost2010Prop47
 90
       50
102
RTVSPost2010PropOp47
 70
     1
102
RTVSPost2010Prop48
 90
       50
102
RTVSPost2010PropOp48
 70
     1
102
RTVSPost2010Prop49
280
     0
102
RTVSPost2010PropOp49
 70
     1
102
RTVSPost2010Prop50
 90
       50
102
RTVSPost2010PropOp50
 70
     1
102
RTVSPost2010Prop51ColorIndex
 90
      256
102
RTVSPost2010Prop51ColorRGB
 90
-16777216
102
RTVSPost2010PropOp51
 70
     0
102
RTVSPost2010Prop52
140
1.0
102
RTVSPost2010PropOp52
 70
     0
102
RTVSPost2010Prop53
 90
        2
102
RTVSPost2010PropOp53
 70
     1
102
RTVSPost2010Prop54
  1
strokes_ogs.tif
102
RTVSPost2010PropOp54
 70
     1
102
RTVSPost2010Prop55
280
     0
102
RTVSPost2010PropOp55
 70
     1
102
RTVSPost2010Prop56
140
1.0
102
RTVSPost2010PropOp56
 70
     1
102
RTVSPost2010Prop57
140
1.0
102
RTVSPost2010PropOp57
 70
     1
  0
XRECORD
  5
92
102
{ACAD_REACTORS
330
91
102
}
330
91
100
AcDbXrecord
280
     1
102
RTVSPropertyOp0
 70
     1
102
RTVSPropertyOp1
 70
     1
102
RTVSPropertyOp2
 70
     1
102
RTVSPropertyOp3
 70
     1
102
RTVSPropertyOp4
 70
     1
102
RTVSPropertyOp5
 70
     1
102
RTVSPropertyOp6
 70
     1
102
RTVSPropertyOp7
 70
     1
102
RTVSPropertyOp8
 70
     1
102
RTVSPropertyOp9
 70
     1
102
RTVSPropertyOp10
 70
     1
102
RTVSPropertyOp11
 70
     1
102
RTVSPropertyOp12
 70
     1
102
RTVSPropertyOp13
 70
     1
102
RTVSPropertyOp14
 70
     1
102
RTVSPropertyOp15
 70
     1
102
RTVSPropertyOp16
 70
     1
102
RTVSPropertyOp17
 70
     1
102
RTVSPropertyOp18
 70
     1
102
RTVSPropertyOp19
 70
     1
102
RTVSPropertyOp20
 70
     1
102
RTVSPropertyOp21
 70
     1
102
RTVSPropertyOp22
 70
     1
102
RTVSPropertyOp23
 70
     1
102
RTVSPropertyOp24
 70
     1
102
RTVSPropertyOp25
 70
     1
102
RTVSPropertyOp26
 70
     1
102
RTVSPropertyOp27
 70
     1
102
RTVSPropertyOp28
 70
     1
102
RTVSPropertyOp29
 70
     1
102
RTVSPropertyOp30
 70
     1
102
RTVSPropertyOp31
 70
     1
102
RTVSPropertyOp32
 70
     1
102
RTVSPropertyOp33
 70
     1
102
RTVSPropertyOp34
 70
     1
102
RTVSPropertyOp35
 70
     1
102
RTVSPropertyOp36
 70
     1
102
RTVSPropertyOp37
 70
     1
102
RTVSPropertyOp38
 70
     1
102
RTVSPropertyOp39
 70
     1
102
RTVSPropertyOp40
 70
     1
102
RTVSPropertyOp41
 70
     1
102
RTVSPropertyOp42
 70
     1
102
RTVSPropertyOp43
 70
     1
102
RTVSPropertyOp44
 70
     1
102
RTVSPropertyOp45
 70
     1
102
RTVSPropertyOp46
 70
     1
102
RTVSPropertyOp47
 70
     1
102
RTVSPropertyOp48
 70
     1
102
RTVSPropertyOp49
 70
     1
102
RTVSPropertyOp50
 70
     1
102
RTVSPropertyOp51
 70
     0
102
RTVSPropertyOp52
 70
     0
102
RTVSPropertyOp53
 70
     1
102
RTVSPropertyOp54
 70
     1
102
RTVSPropertyOp55
 70
     1
102
RTVSPropertyOp56
 70
     1
102
RTVSPropertyOp57
 70
     1
102
RTVSPost2010Prop28
280
     0
102
RTVSPost2010PropOp28
 70
     1
102
RTVSPost2010Prop29
280
     1
102
RTVSPost2010PropOp29
 70
     1
102
RTVSPost2010Prop30
280
     1
102
RTVSPost2010PropOp30
 70
     1
102
RTVSPost2010Prop31
280
     0
102
RTVSPost2010PropOp31
 70
     1
102
RTVSPost2010Prop32
280
     0
102
RTVSPost2010PropOp32
 70
     1
102
RTVSPost2010Prop33
280
     0
102
RTVSPost2010PropOp33
 70
     1
102
RTVSPost2010Prop34
280
     0
102
RTVSPost2010PropOp34
 70
     1
102
RTVSPost2010Prop35
280
     0
102
RTVSPost2010PropOp35
 70
     1
102
RTVSPost2010Prop36
280
     0
102
RTVSPost2010PropOp36
 70
     1
102
RTVSPost2010Prop37
 90
       50
102
RTVSPost2010PropOp37
 70
     1
102
RTVSPost2010Prop38
140
0.0
102
RTVSPost2010PropOp38
 70
     1
102
RTVSPost2010Prop39
140
1.0
102
RTVSPost2010PropOp39
 70
     1
102
RTVSPost2010Prop40
 90
        0
102
RTVSPost2010PropOp40
 70
     1
102
RTVSPost2010Prop41ColorIndex
 90
       18
102
RTVSPost2010Prop41ColorRGB
 90
        0
102
RTVSPost2010PropOp41
 70
     1
102
RTVSPost2010Prop42
 90
       50
102
RTVSPost2010PropOp42
 70
     1
102
RTVSPost2010Prop43
 90
        3
102
RTVSPost2010PropOp43
 70
     1
102
RTVSPost2010Prop44ColorIndex
 90
        5
102
RTVSPost2010Prop44ColorRGB
 90
      255
102
RTVSPost2010PropOp44
 70
     1
102
RTVSPost2010Prop45
280
     0
102
RTVSPost2010PropOp45
 70
     1
102
RTVSPost2010Prop46
 90
       50
102
RTVSPost2010PropOp46
 70
     1
102
RTVSPost2010Prop47
 90
       50
102
RTVSPost2010PropOp47
 70
     1
102
RTVSPost2010Prop48
 90
       50
102
RTVSPost2010PropOp48
 70
     1
102
RTVSPost2010Prop49
280
     0
102
RTVSPost2010PropOp49
 70
     1
102
RTVSPost2010Prop50
 90
       50
102
RTVSPost2010PropOp50
 70
     1
102
RTVSPost2010Prop51ColorIndex
 90
      256
102
RTVSPost2010Prop51ColorRGB
 90
-16777216
102
RTVSPost2010PropOp51
 70
     0
102
RTVSPost2010Prop52
140
1.0
102
RTVSPost2010PropOp52
 70
     0
102
RTVSPost2010Prop53
 90
        2
102
RTVSPost2010PropOp53
 70
     1
102
RTVSPost2010Prop54
  1
strokes_ogs.tif
102
RTVSPost2010PropOp54
 70
     1
102
RTVSPost2010Prop55
280
     0
102
RTVSPost2010PropOp55
 70
     1
102
RTVSPost2010Prop56
140
1.0
102
RTVSPost2010PropOp56
 70
     1
102
RTVSPost2010Prop57
140
1.0
102
RTVSPost2010PropOp57
 70
     1
  0
XRECORD
  5
94
102
{ACAD_REACTORS
330
93
102
}
330
93
100
AcDbXrecord
280
     1
102
RTVSPropertyOp0
 70
     1
102
RTVSPropertyOp1
 70
     1
102
RTVSPropertyOp2
 70
     1
102
RTVSPropertyOp3
 70
     1
102
RTVSPropertyOp4
 70
     1
102
RTVSPropertyOp5
 70
     1
102
RTVSPropertyOp6
 70
     1
102
RTVSPropertyOp7
 70
     1
102
RTVSPropertyOp8
 70
     1
102
RTVSPropertyOp9
 70
     1
102
RTVSPropertyOp10
 70
     1
102
RTVSPropertyOp11
 70
     1
102
RTVSPropertyOp12
 70
     1
102
RTVSPropertyOp13
 70
     1
102
RTVSPropertyOp14
 70
     1
102
RTVSPropertyOp15
 70
     1
102
RTVSPropertyOp16
 70
     1
102
RTVSPropertyOp17
 70
     1
102
RTVSPropertyOp18
 70
     1
102
RTVSPropertyOp19
 70
     1
102
RTVSPropertyOp20
 70
     1
102
RTVSPropertyOp21
 70
     1
102
RTVSPropertyOp22
 70
     1
102
RTVSPropertyOp23
 70
     1
102
RTVSPropertyOp24
 70
     1
102
RTVSPropertyOp25
 70
     1
102
RTVSPropertyOp26
 70
     1
102
RTVSPropertyOp27
 70
     1
102
RTVSPropertyOp28
 70
     1
102
RTVSPropertyOp29
 70
     1
102
RTVSPropertyOp30
 70
     1
102
RTVSPropertyOp31
 70
     1
102
RTVSPropertyOp32
 70
     1
102
RTVSPropertyOp33
 70
     1
102
RTVSPropertyOp34
 70
     1
102
RTVSPropertyOp35
 70
     1
102
RTVSPropertyOp36
 70
     1
102
RTVSPropertyOp37
 70
     1
102
RTVSPropertyOp38
 70
     1
102
RTVSPropertyOp39
 70
     1
102
RTVSPropertyOp40
 70
     1
102
RTVSPropertyOp41
 70
     1
102
RTVSPropertyOp42
 70
     1
102
RTVSPropertyOp43
 70
     1
102
RTVSPropertyOp44
 70
     1
102
RTVSPropertyOp45
 70
     1
102
RTVSPropertyOp46
 70
     1
102
RTVSPropertyOp47
 70
     1
102
RTVSPropertyOp48
 70
     1
102
RTVSPropertyOp49
 70
     1
102
RTVSPropertyOp50
 70
     1
102
RTVSPropertyOp51
 70
     0
102
RTVSPropertyOp52
 70
     0
102
RTVSPropertyOp53
 70
     1
102
RTVSPropertyOp54
 70
     1
102
RTVSPropertyOp55
 70
     1
102
RTVSPropertyOp56
 70
     1
102
RTVSPropertyOp57
 70
     1
102
RTVSPost2010Prop28
280
     0
102
RTVSPost2010PropOp28
 70
     1
102
RTVSPost2010Prop29
280
     1
102
RTVSPost2010PropOp29
 70
     1
102
RTVSPost2010Prop30
280
     1
102
RTVSPost2010PropOp30
 70
     1
102
RTVSPost2010Prop31
280
     0
102
RTVSPost2010PropOp31
 70
     1
102
RTVSPost2010Prop32
280
     0
102
RTVSPost2010PropOp32
 70
     1
102
RTVSPost2010Prop33
280
     0
102
RTVSPost2010PropOp33
 70
     1
102
RTVSPost2010Prop34
280
     0
102
RTVSPost2010PropOp34
 70
     1
102
RTVSPost2010Prop35
280
     0
102
RTVSPost2010PropOp35
 70
     1
102
RTVSPost2010Prop36
280
     0
102
RTVSPost2010PropOp36
 70
     1
102
RTVSPost2010Prop37
 90
       50
102
RTVSPost2010PropOp37
 70
     1
102
RTVSPost2010Prop38
140
0.0
102
RTVSPost2010PropOp38
 70
     1
102
RTVSPost2010Prop39
140
1.0
102
RTVSPost2010PropOp39
 70
     1
102
RTVSPost2010Prop40
 90
        0
102
RTVSPost2010PropOp40
 70
     1
102
RTVSPost2010Prop41ColorIndex
 90
       18
102
RTVSPost2010Prop41ColorRGB
 90
        0
102
RTVSPost2010PropOp41
 70
     1
102
RTVSPost2010Prop42
 90
       50
102
RTVSPost2010PropOp42
 70
     1
102
RTVSPost2010Prop43
 90
        3
102
RTVSPost2010PropOp43
 70
     1
102
RTVSPost2010Prop44ColorIndex
 90
        5
102
RTVSPost2010Prop44ColorRGB
 90
      255
102
RTVSPost2010PropOp44
 70
     1
102
RTVSPost2010Prop45
280
     0
102
RTVSPost2010PropOp45
 70
     1
102
RTVSPost2010Prop46
 90
       50
102
RTVSPost2010PropOp46
 70
     1
102
RTVSPost2010Prop47
 90
       50
102
RTVSPost2010PropOp47
 70
     1
102
RTVSPost2010Prop48
 90
       50
102
RTVSPost2010PropOp48
 70
     1
102
RTVSPost2010Prop49
280
     0
102
RTVSPost2010PropOp49
 70
     1
102
RTVSPost2010Prop50
 90
       50
102
RTVSPost2010PropOp50
 70
     1
102
RTVSPost2010Prop51ColorIndex
 90
      256
102
RTVSPost2010Prop51ColorRGB
 90
-16777216
102
RTVSPost2010PropOp51
 70
     0
102
RTVSPost2010Prop52
140
1.0
102
RTVSPost2010PropOp52
 70
     0
102
RTVSPost2010Prop53
 90
        2
102
RTVSPost2010PropOp53
 70
     1
102
RTVSPost2010Prop54
  1
strokes_ogs.tif
102
RTVSPost2010PropOp54
 70
     1
102
RTVSPost2010Prop55
280
     0
102
RTVSPost2010PropOp55
 70
     1
102
RTVSPost2010Prop56
140
1.0
102
RTVSPost2010PropOp56
 70
     1
102
RTVSPost2010Prop57
140
1.0
102
RTVSPost2010PropOp57
 70
     1
  0
XRECORD
  5
96
102
{ACAD_REACTORS
330
95
102
}
330
95
100
AcDbXrecord
280
     1
102
RTVSPropertyOp0
 70
     1
102
RTVSPropertyOp1
 70
     1
102
RTVSPropertyOp2
 70
     1
102
RTVSPropertyOp3
 70
     1
102
RTVSPropertyOp4
 70
     1
102
RTVSPropertyOp5
 70
     1
102
RTVSPropertyOp6
 70
     1
102
RTVSPropertyOp7
 70
     1
102
RTVSPropertyOp8
 70
     1
102
RTVSPropertyOp9
 70
     1
102
RTVSPropertyOp10
 70
     1
102
RTVSPropertyOp11
 70
     1
102
RTVSPropertyOp12
 70
     1
102
RTVSPropertyOp13
 70
     1
102
RTVSPropertyOp14
 70
     1
102
RTVSPropertyOp15
 70
     1
102
RTVSPropertyOp16
 70
     1
102
RTVSPropertyOp17
 70
     1
102
RTVSPropertyOp18
 70
     1
102
RTVSPropertyOp19
 70
     1
102
RTVSPropertyOp20
 70
     1
102
RTVSPropertyOp21
 70
     1
102
RTVSPropertyOp22
 70
     1
102
RTVSPropertyOp23
 70
     1
102
RTVSPropertyOp24
 70
     1
102
RTVSPropertyOp25
 70
     1
102
RTVSPropertyOp26
 70
     1
102
RTVSPropertyOp27
 70
     1
102
RTVSPropertyOp28
 70
     1
102
RTVSPropertyOp29
 70
     1
102
RTVSPropertyOp30
 70
     1
102
RTVSPropertyOp31
 70
     1
102
RTVSPropertyOp32
 70
     1
102
RTVSPropertyOp33
 70
     1
102
RTVSPropertyOp34
 70
     1
102
RTVSPropertyOp35
 70
     1
102
RTVSPropertyOp36
 70
     1
102
RTVSPropertyOp37
 70
     1
102
RTVSPropertyOp38
 70
     1
102
RTVSPropertyOp39
 70
     1
102
RTVSPropertyOp40
 70
     1
102
RTVSPropertyOp41
 70
     1
102
RTVSPropertyOp42
 70
     1
102
RTVSPropertyOp43
 70
     1
102
RTVSPropertyOp44
 70
     1
102
RTVSPropertyOp45
 70
     1
102
RTVSPropertyOp46
 70
     1
102
RTVSPropertyOp47
 70
     1
102
RTVSPropertyOp48
 70
     1
102
RTVSPropertyOp49
 70
     1
102
RTVSPropertyOp50
 70
     1
102
RTVSPropertyOp51
 70
     0
102
RTVSPropertyOp52
 70
     0
102
RTVSPropertyOp53
 70
     1
102
RTVSPropertyOp54
 70
     1
102
RTVSPropertyOp55
 70
     1
102
RTVSPropertyOp56
 70
     1
102
RTVSPropertyOp57
 70
     1
102
RTVSPost2010Prop28
280
     0
102
RTVSPost2010PropOp28
 70
     1
102
RTVSPost2010Prop29
280
     1
102
RTVSPost2010PropOp29
 70
     1
102
RTVSPost2010Prop30
280
     1
102
RTVSPost2010PropOp30
 70
     1
102
RTVSPost2010Prop31
280
     0
102
RTVSPost2010PropOp31
 70
     1
102
RTVSPost2010Prop32
280
     0
102
RTVSPost2010PropOp32
 70
     1
102
RTVSPost2010Prop33
280
     0
102
RTVSPost2010PropOp33
 70
     1
102
RTVSPost2010Prop34
280
     0
102
RTVSPost2010PropOp34
 70
     1
102
RTVSPost2010Prop35
280
     0
102
RTVSPost2010PropOp35
 70
     1
102
RTVSPost2010Prop36
280
     0
102
RTVSPost2010PropOp36
 70
     1
102
RTVSPost2010Prop37
 90
       50
102
RTVSPost2010PropOp37
 70
     1
102
RTVSPost2010Prop38
140
0.0
102
RTVSPost2010PropOp38
 70
     1
102
RTVSPost2010Prop39
140
1.0
102
RTVSPost2010PropOp39
 70
     1
102
RTVSPost2010Prop40
 90
        0
102
RTVSPost2010PropOp40
 70
     1
102
RTVSPost2010Prop41ColorIndex
 90
       18
102
RTVSPost2010Prop41ColorRGB
 90
        0
102
RTVSPost2010PropOp41
 70
     1
102
RTVSPost2010Prop42
 90
       50
102
RTVSPost2010PropOp42
 70
     1
102
RTVSPost2010Prop43
 90
        3
102
RTVSPost2010PropOp43
 70
     1
102
RTVSPost2010Prop44ColorIndex
 90
        5
102
RTVSPost2010Prop44ColorRGB
 90
      255
102
RTVSPost2010PropOp44
 70
     1
102
RTVSPost2010Prop45
280
     0
102
RTVSPost2010PropOp45
 70
     1
102
RTVSPost2010Prop46
 90
       50
102
RTVSPost2010PropOp46
 70
     1
102
RTVSPost2010Prop47
 90
       50
102
RTVSPost2010PropOp47
 70
     1
102
RTVSPost2010Prop48
 90
       50
102
RTVSPost2010PropOp48
 70
     1
102
RTVSPost2010Prop49
280
     0
102
RTVSPost2010PropOp49
 70
     1
102
RTVSPost2010Prop50
 90
       50
102
RTVSPost2010PropOp50
 70
     1
102
RTVSPost2010Prop51ColorIndex
 90
      256
102
RTVSPost2010Prop51ColorRGB
 90
-16777216
102
RTVSPost2010PropOp51
 70
     0
102
RTVSPost2010Prop52
140
1.0
102
RTVSPost2010PropOp52
 70
     0
102
RTVSPost2010Prop53
 90
        2
102
RTVSPost2010PropOp53
 70
     1
102
RTVSPost2010Prop54
  1
strokes_ogs.tif
102
RTVSPost2010PropOp54
 70
     1
102
RTVSPost2010Prop55
280
     0
102
RTVSPost2010PropOp55
 70
     1
102
RTVSPost2010Prop56
140
1.0
102
RTVSPost2010PropOp56
 70
     1
102
RTVSPost2010Prop57
140
1.0
102
RTVSPost2010PropOp57
 70
     1
  0
XRECORD
  5
9C
102
{ACAD_REACTORS
330
9B
102
}
330
9B
100
AcDbXrecord
280
     1
102
RTVSPropertyOp0
 70
     1
102
RTVSPropertyOp1
 70
     1
102
RTVSPropertyOp2
 70
     1
102
RTVSPropertyOp3
 70
     1
102
RTVSPropertyOp4
 70
     1
102
RTVSPropertyOp5
 70
     1
102
RTVSPropertyOp6
 70
     1
102
RTVSPropertyOp7
 70
     1
102
RTVSPropertyOp8
 70
     1
102
RTVSPropertyOp9
 70
     1
102
RTVSPropertyOp10
 70
     1
102
RTVSPropertyOp11
 70
     1
102
RTVSPropertyOp12
 70
     1
102
RTVSPropertyOp13
 70
     1
102
RTVSPropertyOp14
 70
     1
102
RTVSPropertyOp15
 70
     1
102
RTVSPropertyOp16
 70
     1
102
RTVSPropertyOp17
 70
     1
102
RTVSPropertyOp18
 70
     1
102
RTVSPropertyOp19
 70
     1
102
RTVSPropertyOp20
 70
     1
102
RTVSPropertyOp21
 70
     1
102
RTVSPropertyOp22
 70
     1
102
RTVSPropertyOp23
 70
     1
102
RTVSPropertyOp24
 70
     1
102
RTVSPropertyOp25
 70
     1
102
RTVSPropertyOp26
 70
     1
102
RTVSPropertyOp27
 70
     1
102
RTVSPropertyOp28
 70
     1
102
RTVSPropertyOp29
 70
     1
102
RTVSPropertyOp30
 70
     1
102
RTVSPropertyOp31
 70
     1
102
RTVSPropertyOp32
 70
     1
102
RTVSPropertyOp33
 70
     1
102
RTVSPropertyOp34
 70
     1
102
RTVSPropertyOp35
 70
     1
102
RTVSPropertyOp36
 70
     1
102
RTVSPropertyOp37
 70
     1
102
RTVSPropertyOp38
 70
     1
102
RTVSPropertyOp39
 70
     1
102
RTVSPropertyOp40
 70
     1
102
RTVSPropertyOp41
 70
     1
102
RTVSPropertyOp42
 70
     1
102
RTVSPropertyOp43
 70
     1
102
RTVSPropertyOp44
 70
     1
102
RTVSPropertyOp45
 70
     1
102
RTVSPropertyOp46
 70
     1
102
RTVSPropertyOp47
 70
     1
102
RTVSPropertyOp48
 70
     1
102
RTVSPropertyOp49
 70
     1
102
RTVSPropertyOp50
 70
     1
102
RTVSPropertyOp51
 70
     0
102
RTVSPropertyOp52
 70
     0
102
RTVSPropertyOp53
 70
     1
102
RTVSPropertyOp54
 70
     1
102
RTVSPropertyOp55
 70
     1
102
RTVSPropertyOp56
 70
     1
102
RTVSPropertyOp57
 70
     1
102
RTVSPost2010Prop28
280
     0
102
RTVSPost2010PropOp28
 70
     1
102
RTVSPost2010Prop29
280
     1
102
RTVSPost2010PropOp29
 70
     1
102
RTVSPost2010Prop30
280
     1
102
RTVSPost2010PropOp30
 70
     1
102
RTVSPost2010Prop31
280
     0
102
RTVSPost2010PropOp31
 70
     1
102
RTVSPost2010Prop32
280
     0
102
RTVSPost2010PropOp32
 70
     1
102
RTVSPost2010Prop33
280
     0
102
RTVSPost2010PropOp33
 70
     1
102
RTVSPost2010Prop34
280
     0
102
RTVSPost2010PropOp34
 70
     1
102
RTVSPost2010Prop35
280
     0
102
RTVSPost2010PropOp35
 70
     1
102
RTVSPost2010Prop36
280
     0
102
RTVSPost2010PropOp36
 70
     1
102
RTVSPost2010Prop37
 90
       50
102
RTVSPost2010PropOp37
 70
     1
102
RTVSPost2010Prop38
140
0.0
102
RTVSPost2010PropOp38
 70
     1
102
RTVSPost2010Prop39
140
1.0
102
RTVSPost2010PropOp39
 70
     1
102
RTVSPost2010Prop40
 90
        0
102
RTVSPost2010PropOp40
 70
     1
102
RTVSPost2010Prop41ColorIndex
 90
       18
102
RTVSPost2010Prop41ColorRGB
 90
        0
102
RTVSPost2010PropOp41
 70
     1
102
RTVSPost2010Prop42
 90
       50
102
RTVSPost2010PropOp42
 70
     1
102
RTVSPost2010Prop43
 90
        3
102
RTVSPost2010PropOp43
 70
     1
102
RTVSPost2010Prop44ColorIndex
 90
        5
102
RTVSPost2010Prop44ColorRGB
 90
      255
102
RTVSPost2010PropOp44
 70
     1
102
RTVSPost2010Prop45
280
     0
102
RTVSPost2010PropOp45
 70
     1
102
RTVSPost2010Prop46
 90
       50
102
RTVSPost2010PropOp46
 70
     1
102
RTVSPost2010Prop47
 90
       50
102
RTVSPost2010PropOp47
 70
     1
102
RTVSPost2010Prop48
 90
       50
102
RTVSPost2010PropOp48
 70
     1
102
RTVSPost2010Prop49
280
     0
102
RTVSPost2010PropOp49
 70
     1
102
RTVSPost2010Prop50
 90
       50
102
RTVSPost2010PropOp50
 70
     1
102
RTVSPost2010Prop51ColorIndex
 90
      256
102
RTVSPost2010Prop51ColorRGB
 90
-16777216
102
RTVSPost2010PropOp51
 70
     0
102
RTVSPost2010Prop52
140
1.0
102
RTVSPost2010PropOp52
 70
     0
102
RTVSPost2010Prop53
 90
        2
102
RTVSPost2010PropOp53
 70
     1
102
RTVSPost2010Prop54
  1
strokes_ogs.tif
102
RTVSPost2010PropOp54
 70
     1
102
RTVSPost2010Prop55
280
     0
102
RTVSPost2010PropOp55
 70
     1
102
RTVSPost2010Prop56
140
1.0
102
RTVSPost2010PropOp56
 70
     1
102
RTVSPost2010Prop57
140
1.0
102
RTVSPost2010PropOp57
 70
     1
  0
XRECORD
  5
B0
102
{ACAD_REACTORS
330
AF
102
}
330
AF
100
AcDbXrecord
280
     1
102
RTVSPropertyOp0
 70
     0
102
RTVSPropertyOp1
 70
     0
102
RTVSPropertyOp2
 70
     0
102
RTVSPropertyOp3
 70
     0
102
RTVSPropertyOp4
 70
     0
102
RTVSPropertyOp5
 70
     0
102
RTVSPropertyOp6
 70
     0
102
RTVSPropertyOp7
 70
     0
102
RTVSPropertyOp8
 70
     0
102
RTVSPropertyOp9
 70
     0
102
RTVSPropertyOp10
 70
     0
102
RTVSPropertyOp11
 70
     0
102
RTVSPropertyOp12
 70
     0
102
RTVSPropertyOp13
 70
     0
102
RTVSPropertyOp14
 70
     2
102
RTVSPropertyOp15
 70
     0
102
RTVSPropertyOp16
 70
     0
102
RTVSPropertyOp17
 70
     0
102
RTVSPropertyOp18
 70
     0
102
RTVSPropertyOp19
 70
     0
102
RTVSPropertyOp20
 70
     0
102
RTVSPropertyOp21
 70
     0
102
RTVSPropertyOp22
 70
     0
102
RTVSPropertyOp23
 70
     0
102
RTVSPropertyOp24
 70
     0
102
RTVSPropertyOp25
 70
     0
102
RTVSPropertyOp26
 70
     0
102
RTVSPropertyOp27
 70
     0
102
RTVSPropertyOp28
 70
     0
102
RTVSPropertyOp29
 70
     0
102
RTVSPropertyOp30
 70
     0
102
RTVSPropertyOp31
 70
     0
102
RTVSPropertyOp32
 70
     0
102
RTVSPropertyOp33
 70
     0
102
RTVSPropertyOp34
 70
     0
102
RTVSPropertyOp35
 70
     0
102
RTVSPropertyOp36
 70
     0
102
RTVSPropertyOp37
 70
     0
102
RTVSPropertyOp38
 70
     0
102
RTVSPropertyOp39
 70
     0
102
RTVSPropertyOp40
 70
     0
102
RTVSPropertyOp41
 70
     0
102
RTVSPropertyOp42
 70
     0
102
RTVSPropertyOp43
 70
     0
102
RTVSPropertyOp44
 70
     0
102
RTVSPropertyOp45
 70
     0
102
RTVSPropertyOp46
 70
     0
102
RTVSPropertyOp47
 70
     0
102
RTVSPropertyOp48
 70
     0
102
RTVSPropertyOp49
 70
     0
102
RTVSPropertyOp50
 70
     0
102
RTVSPropertyOp51
 70
     0
102
RTVSPropertyOp52
 70
     0
102
RTVSPropertyOp53
 70
     0
102
RTVSPropertyOp54
 70
     0
102
RTVSPropertyOp55
 70
     0
102
RTVSPropertyOp56
 70
     0
102
RTVSPropertyOp57
 70
     0
102
RTVSPost2010Prop28
280
     0
102
RTVSPost2010PropOp28
 70
     0
102
RTVSPost2010Prop29
280
     1
102
RTVSPost2010PropOp29
 70
     0
102
RTVSPost2010Prop30
280
     1
102
RTVSPost2010PropOp30
 70
     0
102
RTVSPost2010Prop31
280
     0
102
RTVSPost2010PropOp31
 70
     0
102
RTVSPost2010Prop32
280
     0
102
RTVSPost2010PropOp32
 70
     0
102
RTVSPost2010Prop33
280
     0
102
RTVSPost2010PropOp33
 70
     0
102
RTVSPost2010Prop34
280
     0
102
RTVSPost2010PropOp34
 70
     0
102
RTVSPost2010Prop35
280
     0
102
RTVSPost2010PropOp35
 70
     0
102
RTVSPost2010Prop36
280
     0
102
RTVSPost2010PropOp36
 70
     0
102
RTVSPost2010Prop37
 90
       50
102
RTVSPost2010PropOp37
 70
     0
102
RTVSPost2010Prop38
140
0.0
102
RTVSPost2010PropOp38
 70
     0
102
RTVSPost2010Prop39
140
1.0
102
RTVSPost2010PropOp39
 70
     0
102
RTVSPost2010Prop40
 90
        0
102
RTVSPost2010PropOp40
 70
     0
102
RTVSPost2010Prop41ColorIndex
 90
       18
102
RTVSPost2010Prop41ColorRGB
 90
        0
102
RTVSPost2010PropOp41
 70
     0
102
RTVSPost2010Prop42
 90
       50
102
RTVSPost2010PropOp42
 70
     0
102
RTVSPost2010Prop43
 90
        3
102
RTVSPost2010PropOp43
 70
     0
102
RTVSPost2010Prop44ColorIndex
 90
        5
102
RTVSPost2010Prop44ColorRGB
 90
      255
102
RTVSPost2010PropOp44
 70
     0
102
RTVSPost2010Prop45
280
     0
102
RTVSPost2010PropOp45
 70
     0
102
RTVSPost2010Prop46
 90
       50
102
RTVSPost2010PropOp46
 70
     0
102
RTVSPost2010Prop47
 90
       50
102
RTVSPost2010PropOp47
 70
     0
102
RTVSPost2010Prop48
 90
       50
102
RTVSPost2010PropOp48
 70
     0
102
RTVSPost2010Prop49
280
     0
102
RTVSPost2010PropOp49
 70
     0
102
RTVSPost2010Prop50
 90
       50
102
RTVSPost2010PropOp50
 70
     0
102
RTVSPost2010Prop51ColorIndex
 90
      256
102
RTVSPost2010Prop51ColorRGB
 90
-16777216
102
RTVSPost2010PropOp51
 70
     0
102
RTVSPost2010Prop52
140
1.0
102
RTVSPost2010PropOp52
 70
     0
102
RTVSPost2010Prop53
 90
        2
102
RTVSPost2010PropOp53
 70
     0
102
RTVSPost2010Prop54
  1
strokes_ogs.tif
102
RTVSPost2010PropOp54
 70
     0
102
RTVSPost2010Prop55
280
     0
102
RTVSPost2010PropOp55
 70
     0
102
RTVSPost2010Prop56
140
1.0
102
RTVSPost2010PropOp56
 70
     0
102
RTVSPost2010Prop57
140
1.0
102
RTVSPost2010PropOp57
 70
     0
  0
XRECORD
  5
AA
102
{ACAD_REACTORS
330
A9
102
}
330
A9
100
AcDbXrecord
280
     1
102
RTVSPropertyOp0
 70
     1
102
RTVSPropertyOp1
 70
     1
102
RTVSPropertyOp2
 70
     1
102
RTVSPropertyOp3
 70
     1
102
RTVSPropertyOp4
 70
     1
102
RTVSPropertyOp5
 70
     1
102
RTVSPropertyOp6
 70
     1
102
RTVSPropertyOp7
 70
     1
102
RTVSPropertyOp8
 70
     1
102
RTVSPropertyOp9
 70
     1
102
RTVSPropertyOp10
 70
     1
102
RTVSPropertyOp11
 70
     1
102
RTVSPropertyOp12
 70
     1
102
RTVSPropertyOp13
 70
     1
102
RTVSPropertyOp14
 70
     1
102
RTVSPropertyOp15
 70
     1
102
RTVSPropertyOp16
 70
     1
102
RTVSPropertyOp17
 70
     1
102
RTVSPropertyOp18
 70
     1
102
RTVSPropertyOp19
 70
     1
102
RTVSPropertyOp20
 70
     1
102
RTVSPropertyOp21
 70
     1
102
RTVSPropertyOp22
 70
     1
102
RTVSPropertyOp23
 70
     1
102
RTVSPropertyOp24
 70
     1
102
RTVSPropertyOp25
 70
     1
102
RTVSPropertyOp26
 70
     1
102
RTVSPropertyOp27
 70
     1
102
RTVSPropertyOp28
 70
     1
102
RTVSPropertyOp29
 70
     1
102
RTVSPropertyOp30
 70
     1
102
RTVSPropertyOp31
 70
     1
102
RTVSPropertyOp32
 70
     1
102
RTVSPropertyOp33
 70
     1
102
RTVSPropertyOp34
 70
     1
102
RTVSPropertyOp35
 70
     1
102
RTVSPropertyOp36
 70
     1
102
RTVSPropertyOp37
 70
     1
102
RTVSPropertyOp38
 70
     1
102
RTVSPropertyOp39
 70
     1
102
RTVSPropertyOp40
 70
     1
102
RTVSPropertyOp41
 70
     1
102
RTVSPropertyOp42
 70
     1
102
RTVSPropertyOp43
 70
     1
102
RTVSPropertyOp44
 70
     1
102
RTVSPropertyOp45
 70
     1
102
RTVSPropertyOp46
 70
     1
102
RTVSPropertyOp47
 70
     1
102
RTVSPropertyOp48
 70
     1
102
RTVSPropertyOp49
 70
     1
102
RTVSPropertyOp50
 70
     1
102
RTVSPropertyOp51
 70
     0
102
RTVSPropertyOp52
 70
     0
102
RTVSPropertyOp53
 70
     1
102
RTVSPropertyOp54
 70
     1
102
RTVSPropertyOp55
 70
     1
102
RTVSPropertyOp56
 70
     1
102
RTVSPropertyOp57
 70
     1
102
RTVSPost2010Prop28
280
     0
102
RTVSPost2010PropOp28
 70
     1
102
RTVSPost2010Prop29
280
     1
102
RTVSPost2010PropOp29
 70
     1
102
RTVSPost2010Prop30
280
     1
102
RTVSPost2010PropOp30
 70
     1
102
RTVSPost2010Prop31
280
     0
102
RTVSPost2010PropOp31
 70
     1
102
RTVSPost2010Prop32
280
     0
102
RTVSPost2010PropOp32
 70
     1
102
RTVSPost2010Prop33
280
     0
102
RTVSPost2010PropOp33
 70
     1
102
RTVSPost2010Prop34
280
     0
102
RTVSPost2010PropOp34
 70
     1
102
RTVSPost2010Prop35
280
     0
102
RTVSPost2010PropOp35
 70
     1
102
RTVSPost2010Prop36
280
     0
102
RTVSPost2010PropOp36
 70
     1
102
RTVSPost2010Prop37
 90
       50
102
RTVSPost2010PropOp37
 70
     1
102
RTVSPost2010Prop38
140
0.0
102
RTVSPost2010PropOp38
 70
     1
102
RTVSPost2010Prop39
140
1.0
102
RTVSPost2010PropOp39
 70
     1
102
RTVSPost2010Prop40
 90
        0
102
RTVSPost2010PropOp40
 70
     1
102
RTVSPost2010Prop41ColorIndex
 90
       18
102
RTVSPost2010Prop41ColorRGB
 90
        0
102
RTVSPost2010PropOp41
 70
     1
102
RTVSPost2010Prop42
 90
       50
102
RTVSPost2010PropOp42
 70
     1
102
RTVSPost2010Prop43
 90
        3
102
RTVSPost2010PropOp43
 70
     1
102
RTVSPost2010Prop44ColorIndex
 90
        5
102
RTVSPost2010Prop44ColorRGB
 90
      255
102
RTVSPost2010PropOp44
 70
     1
102
RTVSPost2010Prop45
280
     0
102
RTVSPost2010PropOp45
 70
     1
102
RTVSPost2010Prop46
 90
       50
102
RTVSPost2010PropOp46
 70
     1
102
RTVSPost2010Prop47
 90
       50
102
RTVSPost2010PropOp47
 70
     1
102
RTVSPost2010Prop48
 90
       50
102
RTVSPost2010PropOp48
 70
     1
102
RTVSPost2010Prop49
280
     0
102
RTVSPost2010PropOp49
 70
     1
102
RTVSPost2010Prop50
 90
       50
102
RTVSPost2010PropOp50
 70
     1
102
RTVSPost2010Prop51ColorIndex
 90
      256
102
RTVSPost2010Prop51ColorRGB
 90
-16777216
102
RTVSPost2010PropOp51
 70
     0
102
RTVSPost2010Prop52
140
1.0
102
RTVSPost2010PropOp52
 70
     0
102
RTVSPost2010Prop53
 90
        2
102
RTVSPost2010PropOp53
 70
     1
102
RTVSPost2010Prop54
  1
strokes_ogs.tif
102
RTVSPost2010PropOp54
 70
     1
102
RTVSPost2010Prop55
280
     0
102
RTVSPost2010PropOp55
 70
     1
102
RTVSPost2010Prop56
140
1.0
102
RTVSPost2010PropOp56
 70
     1
102
RTVSPost2010Prop57
140
1.0
102
RTVSPost2010PropOp57
 70
     1
  0
XRECORD
  5
B2
102
{ACAD_REACTORS
330
B1
102
}
330
B1
100
AcDbXrecord
280
     1
102
RTVSPropertyOp0
 70
     0
102
RTVSPropertyOp1
 70
     0
102
RTVSPropertyOp2
 70
     0
102
RTVSPropertyOp3
 70
     0
102
RTVSPropertyOp4
 70
     0
102
RTVSPropertyOp5
 70
     0
102
RTVSPropertyOp6
 70
     0
102
RTVSPropertyOp7
 70
     0
102
RTVSPropertyOp8
 70
     0
102
RTVSPropertyOp9
 70
     0
102
RTVSPropertyOp10
 70
     0
102
RTVSPropertyOp11
 70
     0
102
RTVSPropertyOp12
 70
     0
102
RTVSPropertyOp13
 70
     0
102
RTVSPropertyOp14
 70
     2
102
RTVSPropertyOp15
 70
     0
102
RTVSPropertyOp16
 70
     0
102
RTVSPropertyOp17
 70
     0
102
RTVSPropertyOp18
 70
     0
102
RTVSPropertyOp19
 70
     0
102
RTVSPropertyOp20
 70
     0
102
RTVSPropertyOp21
 70
     0
102
RTVSPropertyOp22
 70
     0
102
RTVSPropertyOp23
 70
     0
102
RTVSPropertyOp24
 70
     0
102
RTVSPropertyOp25
 70
     0
102
RTVSPropertyOp26
 70
     0
102
RTVSPropertyOp27
 70
     0
102
RTVSPropertyOp28
 70
     0
102
RTVSPropertyOp29
 70
     0
102
RTVSPropertyOp30
 70
     0
102
RTVSPropertyOp31
 70
     0
102
RTVSPropertyOp32
 70
     0
102
RTVSPropertyOp33
 70
     0
102
RTVSPropertyOp34
 70
     0
102
RTVSPropertyOp35
 70
     0
102
RTVSPropertyOp36
 70
     0
102
RTVSPropertyOp37
 70
     0
102
RTVSPropertyOp38
 70
     0
102
RTVSPropertyOp39
 70
     0
102
RTVSPropertyOp40
 70
     0
102
RTVSPropertyOp41
 70
     0
102
RTVSPropertyOp42
 70
     0
102
RTVSPropertyOp43
 70
     0
102
RTVSPropertyOp44
 70
     0
102
RTVSPropertyOp45
 70
     0
102
RTVSPropertyOp46
 70
     0
102
RTVSPropertyOp47
 70
     0
102
RTVSPropertyOp48
 70
     0
102
RTVSPropertyOp49
 70
     0
102
RTVSPropertyOp50
 70
     0
102
RTVSPropertyOp51
 70
     0
102
RTVSPropertyOp52
 70
     0
102
RTVSPropertyOp53
 70
     0
102
RTVSPropertyOp54
 70
     0
102
RTVSPropertyOp55
 70
     0
102
RTVSPropertyOp56
 70
     0
102
RTVSPropertyOp57
 70
     0
102
RTVSPost2010Prop28
280
     0
102
RTVSPost2010PropOp28
 70
     0
102
RTVSPost2010Prop29
280
     1
102
RTVSPost2010PropOp29
 70
     0
102
RTVSPost2010Prop30
280
     1
102
RTVSPost2010PropOp30
 70
     0
102
RTVSPost2010Prop31
280
     0
102
RTVSPost2010PropOp31
 70
     0
102
RTVSPost2010Prop32
280
     0
102
RTVSPost2010PropOp32
 70
     0
102
RTVSPost2010Prop33
280
     0
102
RTVSPost2010PropOp33
 70
     0
102
RTVSPost2010Prop34
280
     0
102
RTVSPost2010PropOp34
 70
     0
102
RTVSPost2010Prop35
280
     0
102
RTVSPost2010PropOp35
 70
     0
102
RTVSPost2010Prop36
280
     0
102
RTVSPost2010PropOp36
 70
     0
102
RTVSPost2010Prop37
 90
       50
102
RTVSPost2010PropOp37
 70
     0
102
RTVSPost2010Prop38
140
0.0
102
RTVSPost2010PropOp38
 70
     0
102
RTVSPost2010Prop39
140
1.0
102
RTVSPost2010PropOp39
 70
     0
102
RTVSPost2010Prop40
 90
        0
102
RTVSPost2010PropOp40
 70
     0
102
RTVSPost2010Prop41ColorIndex
 90
       18
102
RTVSPost2010Prop41ColorRGB
 90
        0
102
RTVSPost2010PropOp41
 70
     0
102
RTVSPost2010Prop42
 90
       50
102
RTVSPost2010PropOp42
 70
     0
102
RTVSPost2010Prop43
 90
        3
102
RTVSPost2010PropOp43
 70
     0
102
RTVSPost2010Prop44ColorIndex
 90
        5
102
RTVSPost2010Prop44ColorRGB
 90
      255
102
RTVSPost2010PropOp44
 70
     0
102
RTVSPost2010Prop45
280
     0
102
RTVSPost2010PropOp45
 70
     0
102
RTVSPost2010Prop46
 90
       50
102
RTVSPost2010PropOp46
 70
     0
102
RTVSPost2010Prop47
 90
       50
102
RTVSPost2010PropOp47
 70
     0
102
RTVSPost2010Prop48
 90
       50
102
RTVSPost2010PropOp48
 70
     0
102
RTVSPost2010Prop49
280
     0
102
RTVSPost2010PropOp49
 70
     0
102
RTVSPost2010Prop50
 90
       50
102
RTVSPost2010PropOp50
 70
     0
102
RTVSPost2010Prop51ColorIndex
 90
      256
102
RTVSPost2010Prop51ColorRGB
 90
-16777216
102
RTVSPost2010PropOp51
 70
     0
102
RTVSPost2010Prop52
140
1.0
102
RTVSPost2010PropOp52
 70
     0
102
RTVSPost2010Prop53
 90
        2
102
RTVSPost2010PropOp53
 70
     0
102
RTVSPost2010Prop54
  1
strokes_ogs.tif
102
RTVSPost2010PropOp54
 70
     0
102
RTVSPost2010Prop55
280
     0
102
RTVSPost2010PropOp55
 70
     0
102
RTVSPost2010Prop56
140
1.0
102
RTVSPost2010PropOp56
 70
     0
102
RTVSPost2010Prop57
140
1.0
102
RTVSPost2010PropOp57
 70
     0
  0
XRECORD
  5
A0
102
{ACAD_REACTORS
330
9F
102
}
330
9F
100
AcDbXrecord
280
     1
102
RTVSPropertyOp0
 70
     1
102
RTVSPropertyOp1
 70
     1
102
RTVSPropertyOp2
 70
     1
102
RTVSPropertyOp3
 70
     1
102
RTVSPropertyOp4
 70
     1
102
RTVSPropertyOp5
 70
     1
102
RTVSPropertyOp6
 70
     1
102
RTVSPropertyOp7
 70
     1
102
RTVSPropertyOp8
 70
     1
102
RTVSPropertyOp9
 70
     1
102
RTVSPropertyOp10
 70
     1
102
RTVSPropertyOp11
 70
     1
102
RTVSPropertyOp12
 70
     1
102
RTVSPropertyOp13
 70
     1
102
RTVSPropertyOp14
 70
     1
102
RTVSPropertyOp15
 70
     1
102
RTVSPropertyOp16
 70
     1
102
RTVSPropertyOp17
 70
     1
102
RTVSPropertyOp18
 70
     1
102
RTVSPropertyOp19
 70
     1
102
RTVSPropertyOp20
 70
     1
102
RTVSPropertyOp21
 70
     1
102
RTVSPropertyOp22
 70
     1
102
RTVSPropertyOp23
 70
     1
102
RTVSPropertyOp24
 70
     1
102
RTVSPropertyOp25
 70
     1
102
RTVSPropertyOp26
 70
     1
102
RTVSPropertyOp27
 70
     1
102
RTVSPropertyOp28
 70
     1
102
RTVSPropertyOp29
 70
     1
102
RTVSPropertyOp30
 70
     1
102
RTVSPropertyOp31
 70
     1
102
RTVSPropertyOp32
 70
     1
102
RTVSPropertyOp33
 70
     1
102
RTVSPropertyOp34
 70
     1
102
RTVSPropertyOp35
 70
     1
102
RTVSPropertyOp36
 70
     1
102
RTVSPropertyOp37
 70
     1
102
RTVSPropertyOp38
 70
     1
102
RTVSPropertyOp39
 70
     1
102
RTVSPropertyOp40
 70
     1
102
RTVSPropertyOp41
 70
     1
102
RTVSPropertyOp42
 70
     1
102
RTVSPropertyOp43
 70
     1
102
RTVSPropertyOp44
 70
     1
102
RTVSPropertyOp45
 70
     1
102
RTVSPropertyOp46
 70
     1
102
RTVSPropertyOp47
 70
     1
102
RTVSPropertyOp48
 70
     1
102
RTVSPropertyOp49
 70
     1
102
RTVSPropertyOp50
 70
     1
102
RTVSPropertyOp51
 70
     0
102
RTVSPropertyOp52
 70
     0
102
RTVSPropertyOp53
 70
     1
102
RTVSPropertyOp54
 70
     1
102
RTVSPropertyOp55
 70
     1
102
RTVSPropertyOp56
 70
     1
102
RTVSPropertyOp57
 70
     1
102
RTVSPost2010Prop28
280
     0
102
RTVSPost2010PropOp28
 70
     1
102
RTVSPost2010Prop29
280
     1
102
RTVSPost2010PropOp29
 70
     1
102
RTVSPost2010Prop30
280
     1
102
RTVSPost2010PropOp30
 70
     1
102
RTVSPost2010Prop31
280
     0
102
RTVSPost2010PropOp31
 70
     1
102
RTVSPost2010Prop32
280
     0
102
RTVSPost2010PropOp32
 70
     1
102
RTVSPost2010Prop33
280
     0
102
RTVSPost2010PropOp33
 70
     1
102
RTVSPost2010Prop34
280
     0
102
RTVSPost2010PropOp34
 70
     1
102
RTVSPost2010Prop35
280
     0
102
RTVSPost2010PropOp35
 70
     1
102
RTVSPost2010Prop36
280
     0
102
RTVSPost2010PropOp36
 70
     1
102
RTVSPost2010Prop37
 90
       50
102
RTVSPost2010PropOp37
 70
     1
102
RTVSPost2010Prop38
140
0.0
102
RTVSPost2010PropOp38
 70
     1
102
RTVSPost2010Prop39
140
1.0
102
RTVSPost2010PropOp39
 70
     1
102
RTVSPost2010Prop40
 90
        0
102
RTVSPost2010PropOp40
 70
     1
102
RTVSPost2010Prop41ColorIndex
 90
       18
102
RTVSPost2010Prop41ColorRGB
 90
        0
102
RTVSPost2010PropOp41
 70
     1
102
RTVSPost2010Prop42
 90
       50
102
RTVSPost2010PropOp42
 70
     1
102
RTVSPost2010Prop43
 90
        3
102
RTVSPost2010PropOp43
 70
     1
102
RTVSPost2010Prop44ColorIndex
 90
        5
102
RTVSPost2010Prop44ColorRGB
 90
      255
102
RTVSPost2010PropOp44
 70
     1
102
RTVSPost2010Prop45
280
     0
102
RTVSPost2010PropOp45
 70
     1
102
RTVSPost2010Prop46
 90
       50
102
RTVSPost2010PropOp46
 70
     1
102
RTVSPost2010Prop47
 90
       50
102
RTVSPost2010PropOp47
 70
     1
102
RTVSPost2010Prop48
 90
       50
102
RTVSPost2010PropOp48
 70
     1
102
RTVSPost2010Prop49
280
     0
102
RTVSPost2010PropOp49
 70
     1
102
RTVSPost2010Prop50
 90
       50
102
RTVSPost2010PropOp50
 70
     1
102
RTVSPost2010Prop51ColorIndex
 90
      256
102
RTVSPost2010Prop51ColorRGB
 90
-16777216
102
RTVSPost2010PropOp51
 70
     0
102
RTVSPost2010Prop52
140
1.0
102
RTVSPost2010PropOp52
 70
     0
102
RTVSPost2010Prop53
 90
        2
102
RTVSPost2010PropOp53
 70
     1
102
RTVSPost2010Prop54
  1
strokes_ogs.tif
102
RTVSPost2010PropOp54
 70
     1
102
RTVSPost2010Prop55
280
     0
102
RTVSPost2010PropOp55
 70
     1
102
RTVSPost2010Prop56
140
1.0
102
RTVSPost2010PropOp56
 70
     1
102
RTVSPost2010Prop57
140
1.0
102
RTVSPost2010PropOp57
 70
     1
  0
XRECORD
  5
BE
102
{ACAD_REACTORS
330
BD
102
}
330
BD
100
AcDbXrecord
280
     1
102
RTVSPropertyOp0
 70
     1
102
RTVSPropertyOp1
 70
     1
102
RTVSPropertyOp2
 70
     1
102
RTVSPropertyOp3
 70
     1
102
RTVSPropertyOp4
 70
     1
102
RTVSPropertyOp5
 70
     1
102
RTVSPropertyOp6
 70
     1
102
RTVSPropertyOp7
 70
     1
102
RTVSPropertyOp8
 70
     1
102
RTVSPropertyOp9
 70
     1
102
RTVSPropertyOp10
 70
     1
102
RTVSPropertyOp11
 70
     1
102
RTVSPropertyOp12
 70
     1
102
RTVSPropertyOp13
 70
     1
102
RTVSPropertyOp14
 70
     1
102
RTVSPropertyOp15
 70
     1
102
RTVSPropertyOp16
 70
     1
102
RTVSPropertyOp17
 70
     1
102
RTVSPropertyOp18
 70
     1
102
RTVSPropertyOp19
 70
     1
102
RTVSPropertyOp20
 70
     1
102
RTVSPropertyOp21
 70
     1
102
RTVSPropertyOp22
 70
     1
102
RTVSPropertyOp23
 70
     1
102
RTVSPropertyOp24
 70
     1
102
RTVSPropertyOp25
 70
     1
102
RTVSPropertyOp26
 70
     1
102
RTVSPropertyOp27
 70
     1
102
RTVSPropertyOp28
 70
     1
102
RTVSPropertyOp29
 70
     1
102
RTVSPropertyOp30
 70
     1
102
RTVSPropertyOp31
 70
     1
102
RTVSPropertyOp32
 70
     1
102
RTVSPropertyOp33
 70
     1
102
RTVSPropertyOp34
 70
     1
102
RTVSPropertyOp35
 70
     1
102
RTVSPropertyOp36
 70
     1
102
RTVSPropertyOp37
 70
     1
102
RTVSPropertyOp38
 70
     1
102
RTVSPropertyOp39
 70
     1
102
RTVSPropertyOp40
 70
     1
102
RTVSPropertyOp41
 70
     1
102
RTVSPropertyOp42
 70
     1
102
RTVSPropertyOp43
 70
     1
102
RTVSPropertyOp44
 70
     1
102
RTVSPropertyOp45
 70
     1
102
RTVSPropertyOp46
 70
     1
102
RTVSPropertyOp47
 70
     1
102
RTVSPropertyOp48
 70
     1
102
RTVSPropertyOp49
 70
     1
102
RTVSPropertyOp50
 70
     1
102
RTVSPropertyOp51
 70
     0
102
RTVSPropertyOp52
 70
     0
102
RTVSPropertyOp53
 70
     1
102
RTVSPropertyOp54
 70
     1
102
RTVSPropertyOp55
 70
     1
102
RTVSPropertyOp56
 70
     1
102
RTVSPropertyOp57
 70
     1
102
RTVSPost2010Prop28
280
     0
102
RTVSPost2010PropOp28
 70
     1
102
RTVSPost2010Prop29
280
     1
102
RTVSPost2010PropOp29
 70
     1
102
RTVSPost2010Prop30
280
     1
102
RTVSPost2010PropOp30
 70
     1
102
RTVSPost2010Prop31
280
     0
102
RTVSPost2010PropOp31
 70
     1
102
RTVSPost2010Prop32
280
     0
102
RTVSPost2010PropOp32
 70
     1
102
RTVSPost2010Prop33
280
     0
102
RTVSPost2010PropOp33
 70
     1
102
RTVSPost2010Prop34
280
     0
102
RTVSPost2010PropOp34
 70
     1
102
RTVSPost2010Prop35
280
     0
102
RTVSPost2010PropOp35
 70
     1
102
RTVSPost2010Prop36
280
     0
102
RTVSPost2010PropOp36
 70
     1
102
RTVSPost2010Prop37
 90
       50
102
RTVSPost2010PropOp37
 70
     1
102
RTVSPost2010Prop38
140
0.0
102
RTVSPost2010PropOp38
 70
     1
102
RTVSPost2010Prop39
140
1.0
102
RTVSPost2010PropOp39
 70
     1
102
RTVSPost2010Prop40
 90
        0
102
RTVSPost2010PropOp40
 70
     1
102
RTVSPost2010Prop41ColorIndex
 90
       18
102
RTVSPost2010Prop41ColorRGB
 90
        0
102
RTVSPost2010PropOp41
 70
     1
102
RTVSPost2010Prop42
 90
       50
102
RTVSPost2010PropOp42
 70
     1
102
RTVSPost2010Prop43
 90
        3
102
RTVSPost2010PropOp43
 70
     1
102
RTVSPost2010Prop44ColorIndex
 90
        5
102
RTVSPost2010Prop44ColorRGB
 90
      255
102
RTVSPost2010PropOp44
 70
     1
102
RTVSPost2010Prop45
280
     0
102
RTVSPost2010PropOp45
 70
     1
102
RTVSPost2010Prop46
 90
       50
102
RTVSPost2010PropOp46
 70
     1
102
RTVSPost2010Prop47
 90
       50
102
RTVSPost2010PropOp47
 70
     1
102
RTVSPost2010Prop48
 90
       50
102
RTVSPost2010PropOp48
 70
     1
102
RTVSPost2010Prop49
280
     0
102
RTVSPost2010PropOp49
 70
     1
102
RTVSPost2010Prop50
 90
       50
102
RTVSPost2010PropOp50
 70
     1
102
RTVSPost2010Prop51ColorIndex
 90
      256
102
RTVSPost2010Prop51ColorRGB
 90
-16777216
102
RTVSPost2010PropOp51
 70
     0
102
RTVSPost2010Prop52
140
1.0
102
RTVSPost2010PropOp52
 70
     0
102
RTVSPost2010Prop53
 90
        2
102
RTVSPost2010PropOp53
 70
     1
102
RTVSPost2010Prop54
  1
strokes_ogs.tif
102
RTVSPost2010PropOp54
 70
     1
102
RTVSPost2010Prop55
280
     0
102
RTVSPost2010PropOp55
 70
     1
102
RTVSPost2010Prop56
140
1.0
102
RTVSPost2010PropOp56
 70
     1
102
RTVSPost2010Prop57
140
1.0
102
RTVSPost2010PropOp57
 70
     1
  0
XRECORD
  5
BC
102
{ACAD_REACTORS
330
BB
102
}
330
BB
100
AcDbXrecord
280
     1
102
RTVSPropertyOp0
 70
     1
102
RTVSPropertyOp1
 70
     1
102
RTVSPropertyOp2
 70
     1
102
RTVSPropertyOp3
 70
     1
102
RTVSPropertyOp4
 70
     1
102
RTVSPropertyOp5
 70
     1
102
RTVSPropertyOp6
 70
     1
102
RTVSPropertyOp7
 70
     1
102
RTVSPropertyOp8
 70
     1
102
RTVSPropertyOp9
 70
     1
102
RTVSPropertyOp10
 70
     1
102
RTVSPropertyOp11
 70
     1
102
RTVSPropertyOp12
 70
     1
102
RTVSPropertyOp13
 70
     1
102
RTVSPropertyOp14
 70
     1
102
RTVSPropertyOp15
 70
     1
102
RTVSPropertyOp16
 70
     1
102
RTVSPropertyOp17
 70
     1
102
RTVSPropertyOp18
 70
     1
102
RTVSPropertyOp19
 70
     1
102
RTVSPropertyOp20
 70
     1
102
RTVSPropertyOp21
 70
     1
102
RTVSPropertyOp22
 70
     1
102
RTVSPropertyOp23
 70
     1
102
RTVSPropertyOp24
 70
     1
102
RTVSPropertyOp25
 70
     1
102
RTVSPropertyOp26
 70
     1
102
RTVSPropertyOp27
 70
     1
102
RTVSPropertyOp28
 70
     1
102
RTVSPropertyOp29
 70
     1
102
RTVSPropertyOp30
 70
     1
102
RTVSPropertyOp31
 70
     1
102
RTVSPropertyOp32
 70
     1
102
RTVSPropertyOp33
 70
     1
102
RTVSPropertyOp34
 70
     1
102
RTVSPropertyOp35
 70
     1
102
RTVSPropertyOp36
 70
     1
102
RTVSPropertyOp37
 70
     1
102
RTVSPropertyOp38
 70
     1
102
RTVSPropertyOp39
 70
     1
102
RTVSPropertyOp40
 70
     1
102
RTVSPropertyOp41
 70
     1
102
RTVSPropertyOp42
 70
     1
102
RTVSPropertyOp43
 70
     1
102
RTVSPropertyOp44
 70
     1
102
RTVSPropertyOp45
 70
     1
102
RTVSPropertyOp46
 70
     1
102
RTVSPropertyOp47
 70
     1
102
RTVSPropertyOp48
 70
     1
102
RTVSPropertyOp49
 70
     1
102
RTVSPropertyOp50
 70
     1
102
RTVSPropertyOp51
 70
     0
102
RTVSPropertyOp52
 70
     0
102
RTVSPropertyOp53
 70
     1
102
RTVSPropertyOp54
 70
     1
102
RTVSPropertyOp55
 70
     1
102
RTVSPropertyOp56
 70
     1
102
RTVSPropertyOp57
 70
     1
102
RTVSPost2010Prop28
280
     0
102
RTVSPost2010PropOp28
 70
     1
102
RTVSPost2010Prop29
280
     1
102
RTVSPost2010PropOp29
 70
     1
102
RTVSPost2010Prop30
280
     1
102
RTVSPost2010PropOp30
 70
     1
102
RTVSPost2010Prop31
280
     0
102
RTVSPost2010PropOp31
 70
     1
102
RTVSPost2010Prop32
280
     0
102
RTVSPost2010PropOp32
 70
     1
102
RTVSPost2010Prop33
280
     0
102
RTVSPost2010PropOp33
 70
     1
102
RTVSPost2010Prop34
280
     0
102
RTVSPost2010PropOp34
 70
     1
102
RTVSPost2010Prop35
280
     0
102
RTVSPost2010PropOp35
 70
     1
102
RTVSPost2010Prop36
280
     0
102
RTVSPost2010PropOp36
 70
     1
102
RTVSPost2010Prop37
 90
       50
102
RTVSPost2010PropOp37
 70
     1
102
RTVSPost2010Prop38
140
0.0
102
RTVSPost2010PropOp38
 70
     1
102
RTVSPost2010Prop39
140
1.0
102
RTVSPost2010PropOp39
 70
     1
102
RTVSPost2010Prop40
 90
        0
102
RTVSPost2010PropOp40
 70
     1
102
RTVSPost2010Prop41ColorIndex
 90
       18
102
RTVSPost2010Prop41ColorRGB
 90
        0
102
RTVSPost2010PropOp41
 70
     1
102
RTVSPost2010Prop42
 90
       50
102
RTVSPost2010PropOp42
 70
     1
102
RTVSPost2010Prop43
 90
        3
102
RTVSPost2010PropOp43
 70
     1
102
RTVSPost2010Prop44ColorIndex
 90
        5
102
RTVSPost2010Prop44ColorRGB
 90
      255
102
RTVSPost2010PropOp44
 70
     1
102
RTVSPost2010Prop45
280
     0
102
RTVSPost2010PropOp45
 70
     1
102
RTVSPost2010Prop46
 90
       50
102
RTVSPost2010PropOp46
 70
     1
102
RTVSPost2010Prop47
 90
       50
102
RTVSPost2010PropOp47
 70
     1
102
RTVSPost2010Prop48
 90
       50
102
RTVSPost2010PropOp48
 70
     1
102
RTVSPost2010Prop49
280
     0
102
RTVSPost2010PropOp49
 70
     1
102
RTVSPost2010Prop50
 90
       50
102
RTVSPost2010PropOp50
 70
     1
102
RTVSPost2010Prop51ColorIndex
 90
      256
102
RTVSPost2010Prop51ColorRGB
 90
-16777216
102
RTVSPost2010PropOp51
 70
     0
102
RTVSPost2010Prop52
140
1.0
102
RTVSPost2010PropOp52
 70
     0
102
RTVSPost2010Prop53
 90
        2
102
RTVSPost2010PropOp53
 70
     1
102
RTVSPost2010Prop54
  1
strokes_ogs.tif
102
RTVSPost2010PropOp54
 70
     1
102
RTVSPost2010Prop55
280
     0
102
RTVSPost2010PropOp55
 70
     1
102
RTVSPost2010Prop56
140
1.0
102
RTVSPost2010PropOp56
 70
     1
102
RTVSPost2010Prop57
140
1.0
102
RTVSPost2010PropOp57
 70
     1
  0
XRECORD
  5
B6
102
{ACAD_REACTORS
330
B5
102
}
330
B5
100
AcDbXrecord
280
     1
102
RTVSPropertyOp0
 70
     1
102
RTVSPropertyOp1
 70
     1
102
RTVSPropertyOp2
 70
     1
102
RTVSPropertyOp3
 70
     1
102
RTVSPropertyOp4
 70
     1
102
RTVSPropertyOp5
 70
     1
102
RTVSPropertyOp6
 70
     1
102
RTVSPropertyOp7
 70
     1
102
RTVSPropertyOp8
 70
     1
102
RTVSPropertyOp9
 70
     1
102
RTVSPropertyOp10
 70
     1
102
RTVSPropertyOp11
 70
     1
102
RTVSPropertyOp12
 70
     1
102
RTVSPropertyOp13
 70
     1
102
RTVSPropertyOp14
 70
     1
102
RTVSPropertyOp15
 70
     1
102
RTVSPropertyOp16
 70
     1
102
RTVSPropertyOp17
 70
     1
102
RTVSPropertyOp18
 70
     1
102
RTVSPropertyOp19
 70
     1
102
RTVSPropertyOp20
 70
     1
102
RTVSPropertyOp21
 70
     1
102
RTVSPropertyOp22
 70
     1
102
RTVSPropertyOp23
 70
     1
102
RTVSPropertyOp24
 70
     1
102
RTVSPropertyOp25
 70
     1
102
RTVSPropertyOp26
 70
     1
102
RTVSPropertyOp27
 70
     1
102
RTVSPropertyOp28
 70
     1
102
RTVSPropertyOp29
 70
     1
102
RTVSPropertyOp30
 70
     1
102
RTVSPropertyOp31
 70
     1
102
RTVSPropertyOp32
 70
     1
102
RTVSPropertyOp33
 70
     1
102
RTVSPropertyOp34
 70
     1
102
RTVSPropertyOp35
 70
     1
102
RTVSPropertyOp36
 70
     1
102
RTVSPropertyOp37
 70
     1
102
RTVSPropertyOp38
 70
     1
102
RTVSPropertyOp39
 70
     1
102
RTVSPropertyOp40
 70
     1
102
RTVSPropertyOp41
 70
     1
102
RTVSPropertyOp42
 70
     1
102
RTVSPropertyOp43
 70
     1
102
RTVSPropertyOp44
 70
     1
102
RTVSPropertyOp45
 70
     1
102
RTVSPropertyOp46
 70
     1
102
RTVSPropertyOp47
 70
     1
102
RTVSPropertyOp48
 70
     1
102
RTVSPropertyOp49
 70
     1
102
RTVSPropertyOp50
 70
     1
102
RTVSPropertyOp51
 70
     0
102
RTVSPropertyOp52
 70
     0
102
RTVSPropertyOp53
 70
     1
102
RTVSPropertyOp54
 70
     1
102
RTVSPropertyOp55
 70
     1
102
RTVSPropertyOp56
 70
     1
102
RTVSPropertyOp57
 70
     1
102
RTVSPost2010Prop28
280
     0
102
RTVSPost2010PropOp28
 70
     1
102
RTVSPost2010Prop29
280
     1
102
RTVSPost2010PropOp29
 70
     1
102
RTVSPost2010Prop30
280
     1
102
RTVSPost2010PropOp30
 70
     1
102
RTVSPost2010Prop31
280
     0
102
RTVSPost2010PropOp31
 70
     1
102
RTVSPost2010Prop32
280
     0
102
RTVSPost2010PropOp32
 70
     1
102
RTVSPost2010Prop33
280
     0
102
RTVSPost2010PropOp33
 70
     1
102
RTVSPost2010Prop34
280
     0
102
RTVSPost2010PropOp34
 70
     1
102
RTVSPost2010Prop35
280
     0
102
RTVSPost2010PropOp35
 70
     1
102
RTVSPost2010Prop36
280
     0
102
RTVSPost2010PropOp36
 70
     1
102
RTVSPost2010Prop37
 90
       50
102
RTVSPost2010PropOp37
 70
     1
102
RTVSPost2010Prop38
140
0.0
102
RTVSPost2010PropOp38
 70
     1
102
RTVSPost2010Prop39
140
1.0
102
RTVSPost2010PropOp39
 70
     1
102
RTVSPost2010Prop40
 90
        0
102
RTVSPost2010PropOp40
 70
     1
102
RTVSPost2010Prop41ColorIndex
 90
       18
102
RTVSPost2010Prop41ColorRGB
 90
        0
102
RTVSPost2010PropOp41
 70
     1
102
RTVSPost2010Prop42
 90
       50
102
RTVSPost2010PropOp42
 70
     1
102
RTVSPost2010Prop43
 90
        3
102
RTVSPost2010PropOp43
 70
     1
102
RTVSPost2010Prop44ColorIndex
 90
        5
102
RTVSPost2010Prop44ColorRGB
 90
      255
102
RTVSPost2010PropOp44
 70
     1
102
RTVSPost2010Prop45
280
     0
102
RTVSPost2010PropOp45
 70
     1
102
RTVSPost2010Prop46
 90
       50
102
RTVSPost2010PropOp46
 70
     1
102
RTVSPost2010Prop47
 90
       50
102
RTVSPost2010PropOp47
 70
     1
102
RTVSPost2010Prop48
 90
       50
102
RTVSPost2010PropOp48
 70
     1
102
RTVSPost2010Prop49
280
     0
102
RTVSPost2010PropOp49
 70
     1
102
RTVSPost2010Prop50
 90
       50
102
RTVSPost2010PropOp50
 70
     1
102
RTVSPost2010Prop51ColorIndex
 90
      256
102
RTVSPost2010Prop51ColorRGB
 90
-16777216
102
RTVSPost2010PropOp51
 70
     0
102
RTVSPost2010Prop52
140
1.0
102
RTVSPost2010PropOp52
 70
     0
102
RTVSPost2010Prop53
 90
        2
102
RTVSPost2010PropOp53
 70
     1
102
RTVSPost2010Prop54
  1
strokes_ogs.tif
102
RTVSPost2010PropOp54
 70
     1
102
RTVSPost2010Prop55
280
     0
102
RTVSPost2010PropOp55
 70
     1
102
RTVSPost2010Prop56
140
1.0
102
RTVSPost2010PropOp56
 70
     1
102
RTVSPost2010Prop57
140
1.0
102
RTVSPost2010PropOp57
 70
     1
  0
XRECORD
  5
B8
102
{ACAD_REACTORS
330
B7
102
}
330
B7
100
AcDbXrecord
280
     1
102
RTVSPropertyOp0
 70
     1
102
RTVSPropertyOp1
 70
     1
102
RTVSPropertyOp2
 70
     1
102
RTVSPropertyOp3
 70
     1
102
RTVSPropertyOp4
 70
     1
102
RTVSPropertyOp5
 70
     1
102
RTVSPropertyOp6
 70
     1
102
RTVSPropertyOp7
 70
     1
102
RTVSPropertyOp8
 70
     1
102
RTVSPropertyOp9
 70
     1
102
RTVSPropertyOp10
 70
     1
102
RTVSPropertyOp11
 70
     1
102
RTVSPropertyOp12
 70
     1
102
RTVSPropertyOp13
 70
     1
102
RTVSPropertyOp14
 70
     1
102
RTVSPropertyOp15
 70
     1
102
RTVSPropertyOp16
 70
     1
102
RTVSPropertyOp17
 70
     1
102
RTVSPropertyOp18
 70
     1
102
RTVSPropertyOp19
 70
     1
102
RTVSPropertyOp20
 70
     1
102
RTVSPropertyOp21
 70
     1
102
RTVSPropertyOp22
 70
     1
102
RTVSPropertyOp23
 70
     1
102
RTVSPropertyOp24
 70
     1
102
RTVSPropertyOp25
 70
     1
102
RTVSPropertyOp26
 70
     1
102
RTVSPropertyOp27
 70
     1
102
RTVSPropertyOp28
 70
     1
102
RTVSPropertyOp29
 70
     1
102
RTVSPropertyOp30
 70
     1
102
RTVSPropertyOp31
 70
     1
102
RTVSPropertyOp32
 70
     1
102
RTVSPropertyOp33
 70
     1
102
RTVSPropertyOp34
 70
     1
102
RTVSPropertyOp35
 70
     1
102
RTVSPropertyOp36
 70
     1
102
RTVSPropertyOp37
 70
     1
102
RTVSPropertyOp38
 70
     1
102
RTVSPropertyOp39
 70
     1
102
RTVSPropertyOp40
 70
     1
102
RTVSPropertyOp41
 70
     1
102
RTVSPropertyOp42
 70
     1
102
RTVSPropertyOp43
 70
     1
102
RTVSPropertyOp44
 70
     1
102
RTVSPropertyOp45
 70
     1
102
RTVSPropertyOp46
 70
     1
102
RTVSPropertyOp47
 70
     1
102
RTVSPropertyOp48
 70
     1
102
RTVSPropertyOp49
 70
     1
102
RTVSPropertyOp50
 70
     1
102
RTVSPropertyOp51
 70
     0
102
RTVSPropertyOp52
 70
     0
102
RTVSPropertyOp53
 70
     1
102
RTVSPropertyOp54
 70
     1
102
RTVSPropertyOp55
 70
     1
102
RTVSPropertyOp56
 70
     1
102
RTVSPropertyOp57
 70
     1
102
RTVSPost2010Prop28
280
     0
102
RTVSPost2010PropOp28
 70
     1
102
RTVSPost2010Prop29
280
     1
102
RTVSPost2010PropOp29
 70
     1
102
RTVSPost2010Prop30
280
     1
102
RTVSPost2010PropOp30
 70
     1
102
RTVSPost2010Prop31
280
     0
102
RTVSPost2010PropOp31
 70
     1
102
RTVSPost2010Prop32
280
     0
102
RTVSPost2010PropOp32
 70
     1
102
RTVSPost2010Prop33
280
     0
102
RTVSPost2010PropOp33
 70
     1
102
RTVSPost2010Prop34
280
     0
102
RTVSPost2010PropOp34
 70
     1
102
RTVSPost2010Prop35
280
     0
102
RTVSPost2010PropOp35
 70
     1
102
RTVSPost2010Prop36
280
     0
102
RTVSPost2010PropOp36
 70
     1
102
RTVSPost2010Prop37
 90
       50
102
RTVSPost2010PropOp37
 70
     1
102
RTVSPost2010Prop38
140
0.0
102
RTVSPost2010PropOp38
 70
     1
102
RTVSPost2010Prop39
140
1.0
102
RTVSPost2010PropOp39
 70
     1
102
RTVSPost2010Prop40
 90
        0
102
RTVSPost2010PropOp40
 70
     1
102
RTVSPost2010Prop41ColorIndex
 90
       18
102
RTVSPost2010Prop41ColorRGB
 90
        0
102
RTVSPost2010PropOp41
 70
     1
102
RTVSPost2010Prop42
 90
       50
102
RTVSPost2010PropOp42
 70
     1
102
RTVSPost2010Prop43
 90
        3
102
RTVSPost2010PropOp43
 70
     1
102
RTVSPost2010Prop44ColorIndex
 90
        5
102
RTVSPost2010Prop44ColorRGB
 90
      255
102
RTVSPost2010PropOp44
 70
     1
102
RTVSPost2010Prop45
280
     0
102
RTVSPost2010PropOp45
 70
     1
102
RTVSPost2010Prop46
 90
       50
102
RTVSPost2010PropOp46
 70
     1
102
RTVSPost2010Prop47
 90
       50
102
RTVSPost2010PropOp47
 70
     1
102
RTVSPost2010Prop48
 90
       50
102
RTVSPost2010PropOp48
 70
     1
102
RTVSPost2010Prop49
280
     0
102
RTVSPost2010PropOp49
 70
     1
102
RTVSPost2010Prop50
 90
       50
102
RTVSPost2010PropOp50
 70
     1
102
RTVSPost2010Prop51ColorIndex
 90
      256
102
RTVSPost2010Prop51ColorRGB
 90
-16777216
102
RTVSPost2010PropOp51
 70
     0
102
RTVSPost2010Prop52
140
1.0
102
RTVSPost2010PropOp52
 70
     0
102
RTVSPost2010Prop53
 90
        2
102
RTVSPost2010PropOp53
 70
     1
102
RTVSPost2010Prop54
  1
strokes_ogs.tif
102
RTVSPost2010PropOp54
 70
     1
102
RTVSPost2010Prop55
280
     0
102
RTVSPost2010PropOp55
 70
     1
102
RTVSPost2010Prop56
140
1.0
102
RTVSPost2010PropOp56
 70
     1
102
RTVSPost2010Prop57
140
1.0
102
RTVSPost2010PropOp57
 70
     1
  0
XRECORD
  5
A8
102
{ACAD_REACTORS
330
A7
102
}
330
A7
100
AcDbXrecord
280
     1
102
RTVSPropertyOp0
 70
     1
102
RTVSPropertyOp1
 70
     1
102
RTVSPropertyOp2
 70
     1
102
RTVSPropertyOp3
 70
     1
102
RTVSPropertyOp4
 70
     1
102
RTVSPropertyOp5
 70
     1
102
RTVSPropertyOp6
 70
     1
102
RTVSPropertyOp7
 70
     1
102
RTVSPropertyOp8
 70
     1
102
RTVSPropertyOp9
 70
     1
102
RTVSPropertyOp10
 70
     1
102
RTVSPropertyOp11
 70
     1
102
RTVSPropertyOp12
 70
     1
102
RTVSPropertyOp13
 70
     1
102
RTVSPropertyOp14
 70
     1
102
RTVSPropertyOp15
 70
     1
102
RTVSPropertyOp16
 70
     1
102
RTVSPropertyOp17
 70
     1
102
RTVSPropertyOp18
 70
     1
102
RTVSPropertyOp19
 70
     1
102
RTVSPropertyOp20
 70
     1
102
RTVSPropertyOp21
 70
     1
102
RTVSPropertyOp22
 70
     1
102
RTVSPropertyOp23
 70
     1
102
RTVSPropertyOp24
 70
     1
102
RTVSPropertyOp25
 70
     1
102
RTVSPropertyOp26
 70
     1
102
RTVSPropertyOp27
 70
     1
102
RTVSPropertyOp28
 70
     1
102
RTVSPropertyOp29
 70
     1
102
RTVSPropertyOp30
 70
     1
102
RTVSPropertyOp31
 70
     1
102
RTVSPropertyOp32
 70
     1
102
RTVSPropertyOp33
 70
     1
102
RTVSPropertyOp34
 70
     1
102
RTVSPropertyOp35
 70
     1
102
RTVSPropertyOp36
 70
     1
102
RTVSPropertyOp37
 70
     1
102
RTVSPropertyOp38
 70
     1
102
RTVSPropertyOp39
 70
     1
102
RTVSPropertyOp40
 70
     1
102
RTVSPropertyOp41
 70
     1
102
RTVSPropertyOp42
 70
     1
102
RTVSPropertyOp43
 70
     1
102
RTVSPropertyOp44
 70
     1
102
RTVSPropertyOp45
 70
     1
102
RTVSPropertyOp46
 70
     1
102
RTVSPropertyOp47
 70
     1
102
RTVSPropertyOp48
 70
     1
102
RTVSPropertyOp49
 70
     1
102
RTVSPropertyOp50
 70
     1
102
RTVSPropertyOp51
 70
     0
102
RTVSPropertyOp52
 70
     0
102
RTVSPropertyOp53
 70
     1
102
RTVSPropertyOp54
 70
     1
102
RTVSPropertyOp55
 70
     1
102
RTVSPropertyOp56
 70
     1
102
RTVSPropertyOp57
 70
     1
102
RTVSPost2010Prop28
280
     0
102
RTVSPost2010PropOp28
 70
     1
102
RTVSPost2010Prop29
280
     1
102
RTVSPost2010PropOp29
 70
     1
102
RTVSPost2010Prop30
280
     1
102
RTVSPost2010PropOp30
 70
     1
102
RTVSPost2010Prop31
280
     0
102
RTVSPost2010PropOp31
 70
     1
102
RTVSPost2010Prop32
280
     0
102
RTVSPost2010PropOp32
 70
     1
102
RTVSPost2010Prop33
280
     0
102
RTVSPost2010PropOp33
 70
     1
102
RTVSPost2010Prop34
280
     0
102
RTVSPost2010PropOp34
 70
     1
102
RTVSPost2010Prop35
280
     0
102
RTVSPost2010PropOp35
 70
     1
102
RTVSPost2010Prop36
280
     0
102
RTVSPost2010PropOp36
 70
     1
102
RTVSPost2010Prop37
 90
       50
102
RTVSPost2010PropOp37
 70
     1
102
RTVSPost2010Prop38
140
0.0
102
RTVSPost2010PropOp38
 70
     1
102
RTVSPost2010Prop39
140
1.0
102
RTVSPost2010PropOp39
 70
     1
102
RTVSPost2010Prop40
 90
        0
102
RTVSPost2010PropOp40
 70
     1
102
RTVSPost2010Prop41ColorIndex
 90
       18
102
RTVSPost2010Prop41ColorRGB
 90
        0
102
RTVSPost2010PropOp41
 70
     1
102
RTVSPost2010Prop42
 90
       50
102
RTVSPost2010PropOp42
 70
     1
102
RTVSPost2010Prop43
 90
        3
102
RTVSPost2010PropOp43
 70
     1
102
RTVSPost2010Prop44ColorIndex
 90
        5
102
RTVSPost2010Prop44ColorRGB
 90
      255
102
RTVSPost2010PropOp44
 70
     1
102
RTVSPost2010Prop45
280
     0
102
RTVSPost2010PropOp45
 70
     1
102
RTVSPost2010Prop46
 90
       50
102
RTVSPost2010PropOp46
 70
     1
102
RTVSPost2010Prop47
 90
       50
102
RTVSPost2010PropOp47
 70
     1
102
RTVSPost2010Prop48
 90
       50
102
RTVSPost2010PropOp48
 70
     1
102
RTVSPost2010Prop49
280
     0
102
RTVSPost2010PropOp49
 70
     1
102
RTVSPost2010Prop50
 90
       50
102
RTVSPost2010PropOp50
 70
     1
102
RTVSPost2010Prop51ColorIndex
 90
      256
102
RTVSPost2010Prop51ColorRGB
 90
-16777216
102
RTVSPost2010PropOp51
 70
     0
102
RTVSPost2010Prop52
140
1.0
102
RTVSPost2010PropOp52
 70
     0
102
RTVSPost2010Prop53
 90
        2
102
RTVSPost2010PropOp53
 70
     1
102
RTVSPost2010Prop54
  1
strokes_ogs.tif
102
RTVSPost2010PropOp54
 70
     1
102
RTVSPost2010Prop55
280
     0
102
RTVSPost2010PropOp55
 70
     1
102
RTVSPost2010Prop56
140
1.0
102
RTVSPost2010PropOp56
 70
     1
102
RTVSPost2010Prop57
140
1.0
102
RTVSPost2010PropOp57
 70
     1
  0
XRECORD
  5
9A
102
{ACAD_REACTORS
330
99
102
}
330
99
100
AcDbXrecord
280
     1
102
RTVSPropertyOp0
 70
     1
102
RTVSPropertyOp1
 70
     1
102
RTVSPropertyOp2
 70
     1
102
RTVSPropertyOp3
 70
     1
102
RTVSPropertyOp4
 70
     1
102
RTVSPropertyOp5
 70
     1
102
RTVSPropertyOp6
 70
     1
102
RTVSPropertyOp7
 70
     1
102
RTVSPropertyOp8
 70
     1
102
RTVSPropertyOp9
 70
     1
102
RTVSPropertyOp10
 70
     1
102
RTVSPropertyOp11
 70
     1
102
RTVSPropertyOp12
 70
     1
102
RTVSPropertyOp13
 70
     1
102
RTVSPropertyOp14
 70
     1
102
RTVSPropertyOp15
 70
     1
102
RTVSPropertyOp16
 70
     1
102
RTVSPropertyOp17
 70
     1
102
RTVSPropertyOp18
 70
     1
102
RTVSPropertyOp19
 70
     1
102
RTVSPropertyOp20
 70
     1
102
RTVSPropertyOp21
 70
     1
102
RTVSPropertyOp22
 70
     1
102
RTVSPropertyOp23
 70
     1
102
RTVSPropertyOp24
 70
     1
102
RTVSPropertyOp25
 70
     1
102
RTVSPropertyOp26
 70
     1
102
RTVSPropertyOp27
 70
     1
102
RTVSPropertyOp28
 70
     1
102
RTVSPropertyOp29
 70
     1
102
RTVSPropertyOp30
 70
     1
102
RTVSPropertyOp31
 70
     1
102
RTVSPropertyOp32
 70
     1
102
RTVSPropertyOp33
 70
     1
102
RTVSPropertyOp34
 70
     1
102
RTVSPropertyOp35
 70
     1
102
RTVSPropertyOp36
 70
     1
102
RTVSPropertyOp37
 70
     1
102
RTVSPropertyOp38
 70
     1
102
RTVSPropertyOp39
 70
     1
102
RTVSPropertyOp40
 70
     1
102
RTVSPropertyOp41
 70
     1
102
RTVSPropertyOp42
 70
     1
102
RTVSPropertyOp43
 70
     1
102
RTVSPropertyOp44
 70
     1
102
RTVSPropertyOp45
 70
     1
102
RTVSPropertyOp46
 70
     1
102
RTVSPropertyOp47
 70
     1
102
RTVSPropertyOp48
 70
     1
102
RTVSPropertyOp49
 70
     1
102
RTVSPropertyOp50
 70
     1
102
RTVSPropertyOp51
 70
     0
102
RTVSPropertyOp52
 70
     0
102
RTVSPropertyOp53
 70
     1
102
RTVSPropertyOp54
 70
     1
102
RTVSPropertyOp55
 70
     1
102
RTVSPropertyOp56
 70
     1
102
RTVSPropertyOp57
 70
     1
102
RTVSPost2010Prop28
280
     0
102
RTVSPost2010PropOp28
 70
     1
102
RTVSPost2010Prop29
280
     1
102
RTVSPost2010PropOp29
 70
     1
102
RTVSPost2010Prop30
280
     1
102
RTVSPost2010PropOp30
 70
     1
102
RTVSPost2010Prop31
280
     0
102
RTVSPost2010PropOp31
 70
     1
102
RTVSPost2010Prop32
280
     0
102
RTVSPost2010PropOp32
 70
     1
102
RTVSPost2010Prop33
280
     0
102
RTVSPost2010PropOp33
 70
     1
102
RTVSPost2010Prop34
280
     0
102
RTVSPost2010PropOp34
 70
     1
102
RTVSPost2010Prop35
280
     0
102
RTVSPost2010PropOp35
 70
     1
102
RTVSPost2010Prop36
280
     0
102
RTVSPost2010PropOp36
 70
     1
102
RTVSPost2010Prop37
 90
       50
102
RTVSPost2010PropOp37
 70
     1
102
RTVSPost2010Prop38
140
0.0
102
RTVSPost2010PropOp38
 70
     1
102
RTVSPost2010Prop39
140
1.0
102
RTVSPost2010PropOp39
 70
     1
102
RTVSPost2010Prop40
 90
        0
102
RTVSPost2010PropOp40
 70
     1
102
RTVSPost2010Prop41ColorIndex
 90
       18
102
RTVSPost2010Prop41ColorRGB
 90
        0
102
RTVSPost2010PropOp41
 70
     1
102
RTVSPost2010Prop42
 90
       50
102
RTVSPost2010PropOp42
 70
     1
102
RTVSPost2010Prop43
 90
        3
102
RTVSPost2010PropOp43
 70
     1
102
RTVSPost2010Prop44ColorIndex
 90
        5
102
RTVSPost2010Prop44ColorRGB
 90
      255
102
RTVSPost2010PropOp44
 70
     1
102
RTVSPost2010Prop45
280
     0
102
RTVSPost2010PropOp45
 70
     1
102
RTVSPost2010Prop46
 90
       50
102
RTVSPost2010PropOp46
 70
     1
102
RTVSPost2010Prop47
 90
       50
102
RTVSPost2010PropOp47
 70
     1
102
RTVSPost2010Prop48
 90
       50
102
RTVSPost2010PropOp48
 70
     1
102
RTVSPost2010Prop49
280
     0
102
RTVSPost2010PropOp49
 70
     1
102
RTVSPost2010Prop50
 90
       50
102
RTVSPost2010PropOp50
 70
     1
102
RTVSPost2010Prop51ColorIndex
 90
      256
102
RTVSPost2010Prop51ColorRGB
 90
-16777216
102
RTVSPost2010PropOp51
 70
     0
102
RTVSPost2010Prop52
140
1.0
102
RTVSPost2010PropOp52
 70
     0
102
RTVSPost2010Prop53
 90
        2
102
RTVSPost2010PropOp53
 70
     1
102
RTVSPost2010Prop54
  1
strokes_ogs.tif
102
RTVSPost2010PropOp54
 70
     1
102
RTVSPost2010Prop55
280
     0
102
RTVSPost2010PropOp55
 70
     1
102
RTVSPost2010Prop56
140
1.0
102
RTVSPost2010PropOp56
 70
     1
102
RTVSPost2010Prop57
140
1.0
102
RTVSPost2010PropOp57
 70
     1
  0
XRECORD
  5
BA
102
{ACAD_REACTORS
330
B9
102
}
330
B9
100
AcDbXrecord
280
     1
102
RTVSPropertyOp0
 70
     1
102
RTVSPropertyOp1
 70
     1
102
RTVSPropertyOp2
 70
     1
102
RTVSPropertyOp3
 70
     1
102
RTVSPropertyOp4
 70
     1
102
RTVSPropertyOp5
 70
     1
102
RTVSPropertyOp6
 70
     1
102
RTVSPropertyOp7
 70
     1
102
RTVSPropertyOp8
 70
     1
102
RTVSPropertyOp9
 70
     1
102
RTVSPropertyOp10
 70
     1
102
RTVSPropertyOp11
 70
     1
102
RTVSPropertyOp12
 70
     1
102
RTVSPropertyOp13
 70
     1
102
RTVSPropertyOp14
 70
     1
102
RTVSPropertyOp15
 70
     1
102
RTVSPropertyOp16
 70
     1
102
RTVSPropertyOp17
 70
     1
102
RTVSPropertyOp18
 70
     1
102
RTVSPropertyOp19
 70
     1
102
RTVSPropertyOp20
 70
     1
102
RTVSPropertyOp21
 70
     1
102
RTVSPropertyOp22
 70
     1
102
RTVSPropertyOp23
 70
     1
102
RTVSPropertyOp24
 70
     1
102
RTVSPropertyOp25
 70
     1
102
RTVSPropertyOp26
 70
     1
102
RTVSPropertyOp27
 70
     1
102
RTVSPropertyOp28
 70
     1
102
RTVSPropertyOp29
 70
     1
102
RTVSPropertyOp30
 70
     1
102
RTVSPropertyOp31
 70
     1
102
RTVSPropertyOp32
 70
     1
102
RTVSPropertyOp33
 70
     1
102
RTVSPropertyOp34
 70
     1
102
RTVSPropertyOp35
 70
     1
102
RTVSPropertyOp36
 70
     1
102
RTVSPropertyOp37
 70
     1
102
RTVSPropertyOp38
 70
     1
102
RTVSPropertyOp39
 70
     1
102
RTVSPropertyOp40
 70
     1
102
RTVSPropertyOp41
 70
     1
102
RTVSPropertyOp42
 70
     1
102
RTVSPropertyOp43
 70
     1
102
RTVSPropertyOp44
 70
     1
102
RTVSPropertyOp45
 70
     1
102
RTVSPropertyOp46
 70
     1
102
RTVSPropertyOp47
 70
     1
102
RTVSPropertyOp48
 70
     1
102
RTVSPropertyOp49
 70
     1
102
RTVSPropertyOp50
 70
     1
102
RTVSPropertyOp51
 70
     0
102
RTVSPropertyOp52
 70
     0
102
RTVSPropertyOp53
 70
     1
102
RTVSPropertyOp54
 70
     1
102
RTVSPropertyOp55
 70
     1
102
RTVSPropertyOp56
 70
     1
102
RTVSPropertyOp57
 70
     1
102
RTVSPost2010Prop28
280
     0
102
RTVSPost2010PropOp28
 70
     1
102
RTVSPost2010Prop29
280
     1
102
RTVSPost2010PropOp29
 70
     1
102
RTVSPost2010Prop30
280
     1
102
RTVSPost2010PropOp30
 70
     1
102
RTVSPost2010Prop31
280
     0
102
RTVSPost2010PropOp31
 70
     1
102
RTVSPost2010Prop32
280
     0
102
RTVSPost2010PropOp32
 70
     1
102
RTVSPost2010Prop33
280
     0
102
RTVSPost2010PropOp33
 70
     1
102
RTVSPost2010Prop34
280
     0
102
RTVSPost2010PropOp34
 70
     1
102
RTVSPost2010Prop35
280
     0
102
RTVSPost2010PropOp35
 70
     1
102
RTVSPost2010Prop36
280
     0
102
RTVSPost2010PropOp36
 70
     1
102
RTVSPost2010Prop37
 90
       50
102
RTVSPost2010PropOp37
 70
     1
102
RTVSPost2010Prop38
140
0.0
102
RTVSPost2010PropOp38
 70
     1
102
RTVSPost2010Prop39
140
1.0
102
RTVSPost2010PropOp39
 70
     1
102
RTVSPost2010Prop40
 90
        0
102
RTVSPost2010PropOp40
 70
     1
102
RTVSPost2010Prop41ColorIndex
 90
       18
102
RTVSPost2010Prop41ColorRGB
 90
        0
102
RTVSPost2010PropOp41
 70
     1
102
RTVSPost2010Prop42
 90
       50
102
RTVSPost2010PropOp42
 70
     1
102
RTVSPost2010Prop43
 90
        3
102
RTVSPost2010PropOp43
 70
     1
102
RTVSPost2010Prop44ColorIndex
 90
        5
102
RTVSPost2010Prop44ColorRGB
 90
      255
102
RTVSPost2010PropOp44
 70
     1
102
RTVSPost2010Prop45
280
     0
102
RTVSPost2010PropOp45
 70
     1
102
RTVSPost2010Prop46
 90
       50
102
RTVSPost2010PropOp46
 70
     1
102
RTVSPost2010Prop47
 90
       50
102
RTVSPost2010PropOp47
 70
     1
102
RTVSPost2010Prop48
 90
       50
102
RTVSPost2010PropOp48
 70
     1
102
RTVSPost2010Prop49
280
     0
102
RTVSPost2010PropOp49
 70
     1
102
RTVSPost2010Prop50
 90
       50
102
RTVSPost2010PropOp50
 70
     1
102
RTVSPost2010Prop51ColorIndex
 90
      256
102
RTVSPost2010Prop51ColorRGB
 90
-16777216
102
RTVSPost2010PropOp51
 70
     0
102
RTVSPost2010Prop52
140
1.0
102
RTVSPost2010PropOp52
 70
     0
102
RTVSPost2010Prop53
 90
        2
102
RTVSPost2010PropOp53
 70
     1
102
RTVSPost2010Prop54
  1
strokes_ogs.tif
102
RTVSPost2010PropOp54
 70
     1
102
RTVSPost2010Prop55
280
     0
102
RTVSPost2010PropOp55
 70
     1
102
RTVSPost2010Prop56
140
1.0
102
RTVSPost2010PropOp56
 70
     1
102
RTVSPost2010Prop57
140
1.0
102
RTVSPost2010PropOp57
 70
     1
  0
ENDSEC
  0
EOF
