  0
SECTION
  2
HEADER
  9
$ACADVER
  1
AC1015
  9
$ACADMAINTVER
 70
     6
  9
$DWGCODEPAGE
  3
ANSI_1252
  9
$INSBASE
 10
0.0
 20
0.0
 30
0.0
  9
$EXTMIN
 10
5.179143041382971
 20
6.040922599999949
 30
0.0
  9
$EXTMAX
 10
886.7091269999999
 20
535.684827054476
 30
0.0
  9
$LIMMIN
 10
0.0
 20
0.0
  9
$LIMMAX
 10
420.0
 20
297.0
  9
$ORTHOMODE
 70
     0
  9
$REGENMODE
 70
     1
  9
$FILLMODE
 70
     1
  9
$QTEXTMODE
 70
     0
  9
$MIRRTEXT
 70
     1
  9
$LTSCALE
 40
1.0
  9
$ATTMODE
 70
     1
  9
$TEXTSIZE
 40
2.5
  9
$TRACEWID
 40
1.0
  9
$TEXTSTYLE
  7
Standard
  9
$CLAYER
  8
external cut
  9
$CELTYPE
  6
ByLayer
  9
$CECOLOR
 62
   256
  9
$CELTSCALE
 40
1.0
  9
$DISPSILH
 70
     0
  9
$DIMSCALE
 40
1.0
  9
$DIMASZ
 40
2.5
  9
$DIMEXO
 40
0.625
  9
$DIMDLI
 40
3.75
  9
$DIMRND
 40
0.0
  9
$DIMDLE
 40
0.0
  9
$DIMEXE
 40
1.25
  9
$DIMTP
 40
0.0
  9
$DIMTM
 40
0.0
  9
$DIMTXT
 40
2.5
  9
$DIMCEN
 40
2.5
  9
$DIMTSZ
 40
0.0
  9
$DIMTOL
 70
     0
  9
$DIMLIM
 70
     0
  9
$DIMTIH
 70
     0
  9
$DIMTOH
 70
     0
  9
$DIMSE1
 70
     0
  9
$DIMSE2
 70
     0
  9
$DIMTAD
 70
     1
  9
$DIMZIN
 70
     8
  9
$DIMBLK
  1

  9
$DIMASO
 70
     1
  9
$DIMSHO
 70
     1
  9
$DIMPOST
  1

  9
$DIMAPOST
  1

  9
$DIMALT
 70
     0
  9
$DIMALTD
 70
     3
  9
$DIMALTF
 40
0.03937
  9
$DIMLFAC
 40
1.0
  9
$DIMTOFL
 70
     1
  9
$DIMTVP
 40
0.0
  9
$DIMTIX
 70
     0
  9
$DIMSOXD
 70
     0
  9
$DIMSAH
 70
     0
  9
$DIMBLK1
  1

  9
$DIMBLK2
  1

  9
$DIMSTYLE
  2
ISO-25
  9
$DIMCLRD
 70
     0
  9
$DIMCLRE
 70
     0
  9
$DIMCLRT
 70
     0
  9
$DIMTFAC
 40
1.0
  9
$DIMGAP
 40
0.625
  9
$DIMJUST
 70
     0
  9
$DIMSD1
 70
     0
  9
$DIMSD2
 70
     0
  9
$DIMTOLJ
 70
     0
  9
$DIMTZIN
 70
     8
  9
$DIMALTZ
 70
     0
  9
$DIMALTTZ
 70
     0
  9
$DIMUPT
 70
     0
  9
$DIMDEC
 70
     2
  9
$DIMTDEC
 70
     2
  9
$DIMALTU
 70
     2
  9
$DIMALTTD
 70
     3
  9
$DIMTXSTY
  7
Standard
  9
$DIMAUNIT
 70
     0
  9
$DIMADEC
 70
     0
  9
$DIMALTRND
 40
0.0
  9
$DIMAZIN
 70
     0
  9
$DIMDSEP
 70
    44
  9
$DIMATFIT
 70
     3
  9
$DIMFRAC
 70
     0
  9
$DIMLDRBLK
  1

  9
$DIMLUNIT
 70
     2
  9
$DIMLWD
 70
    -2
  9
$DIMLWE
 70
    -2
  9
$DIMTMOVE
 70
     0
  9
$LUNITS
 70
     2
  9
$LUPREC
 70
     4
  9
$SKETCHINC
 40
1.0
  9
$FILLETRAD
 40
10.0
  9
$AUNITS
 70
     0
  9
$AUPREC
 70
     0
  9
$MENU
  1
.
  9
$ELEVATION
 40
0.0
  9
$PELEVATION
 40
0.0
  9
$THICKNESS
 40
0.0
  9
$LIMCHECK
 70
     0
  9
$CHAMFERA
 40
10.0
  9
$CHAMFERB
 40
10.0
  9
$CHAMFERC
 40
20.0
  9
$CHAMFERD
 40
0.0
  9
$SKPOLY
 70
     0
  9
$TDCREATE
 40
2455410.676152697
  9
$TDUCREATE
 40
2455410.176152696
  9
$TDUPDATE
 40
2455410.680542164
  9
$TDUUPDATE
 40
2455410.180542164
  9
$TDINDWG
 40
0.0040681134
  9
$TDUSRTIMER
 40
0.0040679282
  9
$USRTIMER
 70
     1
  9
$ANGBASE
 50
0.0
  9
$ANGDIR
 70
     0
  9
$PDMODE
 70
     3
  9
$PDSIZE
 40
-0.7
  9
$PLINEWID
 40
0.0
  9
$SPLFRAME
 70
     0
  9
$SPLINETYPE
 70
     6
  9
$SPLINESEGS
 70
     8
  9
$HANDSEED
  5
B7
  9
$SURFTAB1
 70
     6
  9
$SURFTAB2
 70
     6
  9
$SURFTYPE
 70
     6
  9
$SURFU
 70
     6
  9
$SURFV
 70
     6
  9
$UCSBASE
  2

  9
$UCSNAME
  2

  9
$UCSORG
 10
0.0
 20
0.0
 30
0.0
  9
$UCSXDIR
 10
1.0
 20
0.0
 30
0.0
  9
$UCSYDIR
 10
0.0
 20
1.0
 30
0.0
  9
$UCSORTHOREF
  2

  9
$UCSORTHOVIEW
 70
     0
  9
$UCSORGTOP
 10
0.0
 20
0.0
 30
0.0
  9
$UCSORGBOTTOM
 10
0.0
 20
0.0
 30
0.0
  9
$UCSORGLEFT
 10
0.0
 20
0.0
 30
0.0
  9
$UCSORGRIGHT
 10
0.0
 20
0.0
 30
0.0
  9
$UCSORGFRONT
 10
0.0
 20
0.0
 30
0.0
  9
$UCSORGBACK
 10
0.0
 20
0.0
 30
0.0
  9
$PUCSBASE
  2

  9
$PUCSNAME
  2

  9
$PUCSORG
 10
0.0
 20
0.0
 30
0.0
  9
$PUCSXDIR
 10
1.0
 20
0.0
 30
0.0
  9
$PUCSYDIR
 10
0.0
 20
1.0
 30
0.0
  9
$PUCSORTHOREF
  2

  9
$PUCSORTHOVIEW
 70
     0
  9
$PUCSORGTOP
 10
0.0
 20
0.0
 30
0.0
  9
$PUCSORGBOTTOM
 10
0.0
 20
0.0
 30
0.0
  9
$PUCSORGLEFT
 10
0.0
 20
0.0
 30
0.0
  9
$PUCSORGRIGHT
 10
0.0
 20
0.0
 30
0.0
  9
$PUCSORGFRONT
 10
0.0
 20
0.0
 30
0.0
  9
$PUCSORGBACK
 10
0.0
 20
0.0
 30
0.0
  9
$USERI1
 70
     0
  9
$USERI2
 70
     0
  9
$USERI3
 70
     0
  9
$USERI4
 70
     0
  9
$USERI5
 70
     0
  9
$USERR1
 40
0.0
  9
$USERR2
 40
0.0
  9
$USERR3
 40
0.0
  9
$USERR4
 40
0.0
  9
$USERR5
 40
0.0
  9
$WORLDVIEW
 70
     1
  9
$SHADEDGE
 70
     3
  9
$SHADEDIF
 70
    70
  9
$TILEMODE
 70
     1
  9
$MAXACTVP
 70
    64
  9
$PINSBASE
 10
0.0
 20
0.0
 30
0.0
  9
$PLIMCHECK
 70
     0
  9
$PEXTMIN
 10
1.000000000000000E+20
 20
1.000000000000000E+20
 30
1.000000000000000E+20
  9
$PEXTMAX
 10
-1.000000000000000E+20
 20
-1.000000000000000E+20
 30
-1.000000000000000E+20
  9
$PLIMMIN
 10
0.0
 20
0.0
  9
$PLIMMAX
 10
420.0
 20
297.0
  9
$UNITMODE
 70
     0
  9
$VISRETAIN
 70
     1
  9
$PLINEGEN
 70
     0
  9
$PSLTSCALE
 70
     1
  9
$TREEDEPTH
 70
  3020
  9
$CMLSTYLE
  2
Standard
  9
$CMLJUST
 70
     1
  9
$CMLSCALE
 40
1.0
  9
$PROXYGRAPHICS
 70
     1
  9
$MEASUREMENT
 70
     1
  9
$CELWEIGHT
370
    -1
  9
$ENDCAPS
280
     0
  9
$JOINSTYLE
280
     0
  9
$LWDISPLAY
290
     0
  9
$INSUNITS
 70
     4
  9
$HYPERLINKBASE
  1

  9
$STYLESHEET
  1

  9
$XEDIT
290
     1
  9
$CEPSNTYPE
380
     0
  9
$PSTYLEMODE
290
     1
  9
$FINGERPRINTGUID
  2
{FAEB1C30-E019-11D5-929B-00C0DF256EC4}
  9
$VERSIONGUID
  2
{ABB8499E-D51D-4456-8EE3-CC6BDFA077D9}
  9
$EXTNAMES
290
     1
  9
$PSVPSCALE
 40
0.0
  9
$OLESTARTUP
290
     0
  0
ENDSEC
  0
SECTION
  2
CLASSES
  0
CLASS
  1
ACDBDICTIONARYWDFLT
  2
AcDbDictionaryWithDefault
  3
AutoCAD 2000
 90
        0
280
     0
281
     0
  0
CLASS
  1
ACDBPLACEHOLDER
  2
AcDbPlaceHolder
  3
AutoCAD 2000
 90
        0
280
     0
281
     0
  0
CLASS
  1
LAYOUT
  2
AcDbLayout
  3
AutoCAD 2000
 90
        0
280
     0
281
     0
  0
ENDSEC
  0
SECTION
  2
TABLES
  0
TABLE
  2
VPORT
  5
8
330
0
100
AcDbSymbolTable
 70
     2
  0
VPORT
  5
B6
330
8
100
AcDbSymbolTableRecord
100
AcDbViewportTableRecord
  2
*Active
 70
     0
 10
0.0
 20
0.0
 11
1.0
 21
1.0
 12
387.0218629423035
 22
421.7499401632765
 13
0.0
 23
0.0
 14
10.0
 24
10.0
 15
10.0
 25
10.0
 16
0.0
 26
0.0
 36
1.0
 17
0.0
 27
0.0
 37
0.0
 40
1187.526247683741
 41
1.183118741058655
 42
50.0
 43
0.0
 44
0.0
 50
0.0
 51
0.0
 71
     0
 72
   100
 73
     1
 74
     3
 75
     0
 76
     0
 77
     0
 78
     0
281
     0
 65
     1
110
0.0
120
0.0
130
0.0
111
1.0
121
0.0
131
0.0
112
0.0
122
1.0
132
0.0
 79
     0
146
0.0
  0
ENDTAB
  0
TABLE
  2
LTYPE
  5
5
330
0
100
AcDbSymbolTable
 70
     1
  0
LTYPE
  5
14
330
5
100
AcDbSymbolTableRecord
100
AcDbLinetypeTableRecord
  2
ByBlock
 70
     0
  3

 72
    65
 73
     0
 40
0.0
  0
LTYPE
  5
15
330
5
100
AcDbSymbolTableRecord
100
AcDbLinetypeTableRecord
  2
ByLayer
 70
     0
  3

 72
    65
 73
     0
 40
0.0
  0
LTYPE
  5
16
330
5
100
AcDbSymbolTableRecord
100
AcDbLinetypeTableRecord
  2
Continuous
 70
     0
  3

 72
    65
 73
     0
 40
0.0
  0
ENDTAB
  0
TABLE
  2
LAYER
  5
2
330
0
100
AcDbSymbolTable
 70
     4
  0
LAYER
  5
10
330
2
100
AcDbSymbolTableRecord
100
AcDbLayerTableRecord
  2
0
 70
     0
 62
     7
  6
Continuous
370
    -3
390
F
  0
LAYER
  5
B3
330
2
100
AcDbSymbolTableRecord
100
AcDbLayerTableRecord
  2
pocket 1mm
 70
     0
 62
     3
  6
Continuous
370
    -3
390
F
  0
LAYER
  5
B4
330
2
100
AcDbSymbolTableRecord
100
AcDbLayerTableRecord
  2
holes
 70
     0
 62
     5
  6
Continuous
370
    -3
390
F
  0
LAYER
  5
B5
330
2
100
AcDbSymbolTableRecord
100
AcDbLayerTableRecord
  2
external cut
 70
     0
 62
     1
  6
Continuous
370
    -3
390
F
  0
ENDTAB
  0
TABLE
  2
STYLE
  5
3
330
0
100
AcDbSymbolTable
 70
     1
  0
STYLE
  5
11
330
3
100
AcDbSymbolTableRecord
100
AcDbTextStyleTableRecord
  2
Standard
 70
     0
 40
1.0
 41
1.0
 50
0.0
 71
     0
 42
2.5
  3
RomanS
  4

  0
ENDTAB
  0
TABLE
  2
VIEW
  5
6
330
0
100
AcDbSymbolTable
 70
     0
  0
ENDTAB
  0
TABLE
  2
UCS
  5
7
330
0
100
AcDbSymbolTable
 70
     0
  0
ENDTAB
  0
TABLE
  2
APPID
  5
9
330
0
100
AcDbSymbolTable
 70
     1
  0
APPID
  5
12
330
9
100
AcDbSymbolTableRecord
100
AcDbRegAppTableRecord
  2
ACAD
 70
     0
  0
ENDTAB
  0
TABLE
  2
DIMSTYLE
  5
A
330
0
100
AcDbSymbolTable
 70
     1
100
AcDbDimStyleTable
 71
     0
  0
DIMSTYLE
105
27
330
A
100
AcDbSymbolTableRecord
100
AcDbDimStyleTableRecord
  2
ISO-25
 70
     0
 41
2.5
 42
0.625
 44
1.25
 73
     0
 74
     0
 77
     1
 78
     8
 79
     2
140
2.5
141
2.5
146
0.0
147
0.625
271
     2
272
     0
273
     0
274
     0
278
    44
283
     0
289
     0
340
11
  0
ENDTAB
  0
TABLE
  2
BLOCK_RECORD
  5
1
330
0
100
AcDbSymbolTable
 70
     1
  0
BLOCK_RECORD
  5
1F
330
1
100
AcDbSymbolTableRecord
100
AcDbBlockTableRecord
  2
*Model_Space
340
22
  0
BLOCK_RECORD
  5
1B
330
1
100
AcDbSymbolTableRecord
100
AcDbBlockTableRecord
  2
*Paper_Space
340
1E
  0
BLOCK_RECORD
  5
23
330
1
100
AcDbSymbolTableRecord
100
AcDbBlockTableRecord
  2
*Paper_Space0
340
26
  0
ENDTAB
  0
ENDSEC
  0
SECTION
  2
BLOCKS
  0
BLOCK
  5
20
330
1F
100
AcDbEntity
  8
0
100
AcDbBlockBegin
  2
*Model_Space
 70
     0
 10
0.0
 20
0.0
 30
0.0
  3
*Model_Space
  1

  0
ENDBLK
  5
21
330
1F
100
AcDbEntity
  8
0
100
AcDbBlockEnd
  0
BLOCK
  5
1C
330
1B
100
AcDbEntity
 67
     1
  8
0
100
AcDbBlockBegin
  2
*Paper_Space
 70
     0
 10
0.0
 20
0.0
 30
0.0
  3
*Paper_Space
  1

  0
ENDBLK
  5
1D
330
1B
100
AcDbEntity
 67
     1
  8
0
100
AcDbBlockEnd
  0
BLOCK
  5
24
330
23
100
AcDbEntity
  8
0
100
AcDbBlockBegin
  2
*Paper_Space0
 70
     0
 10
0.0
 20
0.0
 30
0.0
  3
*Paper_Space0
  1

  0
ENDBLK
  5
25
330
23
100
AcDbEntity
  8
0
100
AcDbBlockEnd
  0
ENDSEC
  0
SECTION
  2
ENTITIES
  0
LWPOLYLINE
  5
2A
330
1F
100
AcDbEntity
  8
pocket 1mm
100
AcDbPolyline
 90
        5
 70
   128
 43
0.0
 10
58.889336
 20
124.5080989999999
 42
-0.4142140000000001
 10
46.8327
 20
112.4514639999999
 42
-0.4142140000000001
 10
34.77606399999999
 20
124.5080989999999
 42
-0.4142140000000001
 10
46.8327
 20
136.564735
 42
-0.4142140000000001
 10
58.889336
 20
124.5080989999999
  0
LWPOLYLINE
  5
2B
330
1F
100
AcDbEntity
  8
pocket 1mm
100
AcDbPolyline
 90
        5
 70
   128
 43
0.0
 10
158.99843
 20
150.433724
 42
-0.4142140000000001
 10
124.9967629999999
 20
116.4320559999999
 42
-0.4142140000000001
 10
90.99509499999999
 20
150.433724
 42
-0.4142140000000001
 10
124.9967629999999
 20
184.4353909999999
 42
-0.4142140000000001
 10
158.99843
 20
150.433724
  0
LWPOLYLINE
  5
2C
330
1F
100
AcDbEntity
  8
pocket 1mm
100
AcDbPolyline
 90
        5
 70
   128
 43
0.0
 10
163.79843
 20
150.433724
 42
-0.4142140000000001
 10
124.9967629999999
 20
111.632056
 42
-0.4142140000000001
 10
86.19509499999999
 20
150.433724
 42
-0.4142140000000001
 10
124.9967629999999
 20
189.2353909999999
 42
-0.4142140000000001
 10
163.79843
 20
150.433724
  0
LWPOLYLINE
  5
2D
330
1F
100
AcDbEntity
  8
pocket 1mm
100
AcDbPolyline
 90
        5
 70
   128
 43
0.0
 10
58.889336
 20
200.521961
 42
-0.4142140000000001
 10
46.8327
 20
188.465325
 42
-0.4142140000000001
 10
34.77606399999999
 20
200.521961
 42
-0.4142140000000001
 10
46.8327
 20
212.5785959999999
 42
-0.4142140000000001
 10
58.889336
 20
200.521961
  0
LWPOLYLINE
  5
2E
330
1F
100
AcDbEntity
  8
pocket 1mm
100
AcDbPolyline
 90
        5
 70
   128
 43
0.0
 10
58.889336
 20
276.5358219999999
 42
-0.4142140000000001
 10
46.8327
 20
264.4791859999999
 42
-0.4142140000000001
 10
34.77606399999999
 20
276.5358219999999
 42
-0.4142140000000001
 10
46.8327
 20
288.5924569999999
 42
-0.4142140000000001
 10
58.889336
 20
276.5358219999999
  0
LWPOLYLINE
  5
2F
330
1F
100
AcDbEntity
  8
pocket 1mm
100
AcDbPolyline
 90
        5
 70
   128
 43
0.0
 10
58.889336
 20
352.549683
 42
-0.4142140000000001
 10
46.8327
 20
340.493047
 42
-0.4142140000000001
 10
34.77606399999999
 20
352.549683
 42
-0.4142140000000001
 10
46.8327
 20
364.606319
 42
-0.4142140000000001
 10
58.889336
 20
352.549683
  0
LWPOLYLINE
  5
30
330
1F
100
AcDbEntity
  8
pocket 1mm
100
AcDbPolyline
 90
        5
 70
   128
 43
0.0
 10
58.889336
 20
428.563544
 42
-0.4142140000000001
 10
46.8327
 20
416.506908
 42
-0.4142140000000001
 10
34.77606399999999
 20
428.563544
 42
-0.4142140000000001
 10
46.8327
 20
440.6201799999999
 42
-0.4142140000000001
 10
58.889336
 20
428.563544
  0
LWPOLYLINE
  5
31
330
1F
100
AcDbEntity
  8
pocket 1mm
100
AcDbPolyline
 90
        5
 70
   128
 43
0.0
 10
236.6017649999999
 20
111.632056
 42
-0.4142140000000001
 10
202.600097
 20
77.63038900000001
 42
-0.4142140000000001
 10
168.59843
 20
111.632056
 42
-0.4142140000000001
 10
202.600097
 20
145.633724
 42
-0.4142140000000001
 10
236.6017649999999
 20
111.632056
  0
LWPOLYLINE
  5
32
330
1F
100
AcDbEntity
  8
pocket 1mm
100
AcDbPolyline
 90
        5
 70
   128
 43
0.0
 10
241.4017649999999
 20
111.632056
 42
-0.4142140000000001
 10
202.600097
 20
72.830389
 42
-0.4142140000000001
 10
163.79843
 20
111.632056
 42
-0.4142140000000001
 10
202.600097
 20
150.433724
 42
-0.4142140000000001
 10
241.4017649999999
 20
111.632056
  0
LWPOLYLINE
  5
33
330
1F
100
AcDbEntity
  8
pocket 1mm
100
AcDbPolyline
 90
        5
 70
   128
 43
0.0
 10
236.6017649999999
 20
196.235391
 42
-0.4142140000000001
 10
202.600097
 20
162.233724
 42
-0.4142140000000001
 10
168.59843
 20
196.235391
 42
-0.4142140000000001
 10
202.600097
 20
230.2370589999999
 42
-0.4142140000000001
 10
236.6017649999999
 20
196.235391
  0
LWPOLYLINE
  5
34
330
1F
100
AcDbEntity
  8
pocket 1mm
100
AcDbPolyline
 90
        5
 70
   128
 43
0.0
 10
241.4017649999999
 20
196.235391
 42
-0.4142140000000001
 10
202.600097
 20
157.433724
 42
-0.4142140000000001
 10
163.79843
 20
196.235391
 42
-0.4142140000000001
 10
202.600097
 20
235.0370579999999
 42
-0.4142140000000001
 10
241.4017649999999
 20
196.235391
  0
LWPOLYLINE
  5
35
330
1F
100
AcDbEntity
  8
pocket 1mm
100
AcDbPolyline
 90
        5
 70
   128
 43
0.0
 10
158.99843
 20
235.0370579999999
 42
-0.4142140000000001
 10
124.9967629999999
 20
201.035391
 42
-0.4142140000000001
 10
90.99509499999999
 20
235.0370579999999
 42
-0.4142140000000001
 10
124.9967629999999
 20
269.038726
 42
-0.4142140000000001
 10
158.99843
 20
235.0370579999999
  0
LWPOLYLINE
  5
36
330
1F
100
AcDbEntity
  8
pocket 1mm
100
AcDbPolyline
 90
        5
 70
   128
 43
0.0
 10
163.79843
 20
235.0370579999999
 42
-0.4142140000000001
 10
124.9967629999999
 20
196.235391
 42
-0.4142140000000001
 10
86.19509499999999
 20
235.0370579999999
 42
-0.4142140000000001
 10
124.9967629999999
 20
273.8387259999999
 42
-0.4142140000000001
 10
163.79843
 20
235.0370579999999
  0
LWPOLYLINE
  5
37
330
1F
100
AcDbEntity
  8
pocket 1mm
100
AcDbPolyline
 90
        5
 70
   128
 43
0.0
 10
158.99843
 20
319.640393
 42
-0.4142140000000001
 10
124.9967629999999
 20
285.6387259999999
 42
-0.4142140000000001
 10
90.99509499999999
 20
319.640393
 42
-0.4142140000000001
 10
124.9967629999999
 20
353.642061
 42
-0.4142140000000001
 10
158.99843
 20
319.640393
  0
LWPOLYLINE
  5
38
330
1F
100
AcDbEntity
  8
pocket 1mm
100
AcDbPolyline
 90
        5
 70
   128
 43
0.0
 10
163.79843
 20
319.640393
 42
-0.4142140000000001
 10
124.9967629999999
 20
280.8387259999999
 42
-0.4142140000000001
 10
86.19509499999999
 20
319.640393
 42
-0.4142140000000001
 10
124.9967629999999
 20
358.44206
 42
-0.4142140000000001
 10
163.79843
 20
319.640393
  0
LWPOLYLINE
  5
39
330
1F
100
AcDbEntity
  8
pocket 1mm
100
AcDbPolyline
 90
        5
 70
   128
 43
0.0
 10
236.6017649999999
 20
280.8387259999999
 42
-0.4142140000000001
 10
202.600097
 20
246.837058
 42
-0.4142140000000001
 10
168.59843
 20
280.8387259999999
 42
-0.4142140000000001
 10
202.600097
 20
314.840393
 42
-0.4142140000000001
 10
236.6017649999999
 20
280.8387259999999
  0
LWPOLYLINE
  5
3A
330
1F
100
AcDbEntity
  8
pocket 1mm
100
AcDbPolyline
 90
        5
 70
   128
 43
0.0
 10
241.4017649999999
 20
280.8387259999999
 42
-0.4142140000000001
 10
202.600097
 20
242.037058
 42
-0.4142140000000001
 10
163.79843
 20
280.8387259999999
 42
-0.4142140000000001
 10
202.600097
 20
319.640393
 42
-0.4142140000000001
 10
241.4017649999999
 20
280.8387259999999
  0
LWPOLYLINE
  5
3B
330
1F
100
AcDbEntity
  8
pocket 1mm
100
AcDbPolyline
 90
        5
 70
   128
 43
0.0
 10
236.6017649999999
 20
365.44206
 42
-0.4142140000000001
 10
202.600097
 20
331.440393
 42
-0.4142140000000001
 10
168.59843
 20
365.44206
 42
-0.4142140000000001
 10
202.600097
 20
399.4437279999999
 42
-0.4142140000000001
 10
236.6017649999999
 20
365.44206
  0
LWPOLYLINE
  5
3C
330
1F
100
AcDbEntity
  8
pocket 1mm
100
AcDbPolyline
 90
        5
 70
   128
 43
0.0
 10
241.4017649999999
 20
365.44206
 42
-0.4142140000000001
 10
202.600097
 20
326.640393
 42
-0.4142140000000001
 10
163.79843
 20
365.44206
 42
-0.4142140000000001
 10
202.600097
 20
404.2437279999999
 42
-0.4142140000000001
 10
241.4017649999999
 20
365.44206
  0
LWPOLYLINE
  5
3D
330
1F
100
AcDbEntity
  8
pocket 1mm
100
AcDbPolyline
 90
        5
 70
   128
 43
0.0
 10
158.99843
 20
404.2437279999999
 42
-0.4142140000000001
 10
124.9967629999999
 20
370.24206
 42
-0.4142140000000001
 10
90.99509499999999
 20
404.2437279999999
 42
-0.4142140000000001
 10
124.9967629999999
 20
438.245395
 42
-0.4142140000000001
 10
158.99843
 20
404.2437279999999
  0
LWPOLYLINE
  5
3E
330
1F
100
AcDbEntity
  8
pocket 1mm
100
AcDbPolyline
 90
        5
 70
   128
 43
0.0
 10
163.79843
 20
404.2437279999999
 42
-0.4142140000000001
 10
124.9967629999999
 20
365.44206
 42
-0.4142140000000001
 10
86.19509499999999
 20
404.2437279999999
 42
-0.4142140000000001
 10
124.9967629999999
 20
443.045395
 42
-0.4142140000000001
 10
163.79843
 20
404.2437279999999
  0
LWPOLYLINE
  5
3F
330
1F
100
AcDbEntity
  8
pocket 1mm
100
AcDbPolyline
 90
        5
 70
   128
 43
0.0
 10
158.99843
 20
488.8470629999999
 42
-0.4142140000000001
 10
124.9967629999999
 20
454.8453949999999
 42
-0.4142140000000001
 10
90.99509499999999
 20
488.8470629999999
 42
-0.4142140000000001
 10
124.9967629999999
 20
522.8487299999999
 42
-0.4142140000000001
 10
158.99843
 20
488.8470629999999
  0
LWPOLYLINE
  5
40
330
1F
100
AcDbEntity
  8
pocket 1mm
100
AcDbPolyline
 90
        5
 70
   128
 43
0.0
 10
163.79843
 20
488.8470629999999
 42
-0.4142140000000001
 10
124.9967629999999
 20
450.045395
 42
-0.4142140000000001
 10
86.19509499999999
 20
488.8470629999999
 42
-0.4142140000000001
 10
124.9967629999999
 20
527.64873
 42
-0.4142140000000001
 10
163.79843
 20
488.8470629999999
  0
LWPOLYLINE
  5
41
330
1F
100
AcDbEntity
  8
pocket 1mm
100
AcDbPolyline
 90
        5
 70
   128
 43
0.0
 10
236.6017649999999
 20
450.045395
 42
-0.4142140000000001
 10
202.600097
 20
416.043728
 42
-0.4142140000000001
 10
168.59843
 20
450.045395
 42
-0.4142140000000001
 10
202.600097
 20
484.0470629999999
 42
-0.4142140000000001
 10
236.6017649999999
 20
450.045395
  0
LWPOLYLINE
  5
42
330
1F
100
AcDbEntity
  8
pocket 1mm
100
AcDbPolyline
 90
        5
 70
   128
 43
0.0
 10
241.4017649999999
 20
450.045395
 42
-0.4142140000000001
 10
202.600097
 20
411.2437279999999
 42
-0.4142140000000001
 10
163.79843
 20
450.045395
 42
-0.4142140000000001
 10
202.600097
 20
488.8470629999999
 42
-0.4142140000000001
 10
241.4017649999999
 20
450.045395
  0
LWPOLYLINE
  5
43
330
1F
100
AcDbEntity
  8
pocket 1mm
100
AcDbPolyline
 90
       62
 70
   128
 43
0.0
 10
30.769046
 20
134.7062149999999
 42
0.4142140000000001
 10
30.476226
 20
135.799035
 10
28.085629
 20
137.179247
 42
-0.095807
 10
34.161553
 20
143.255171
 10
35.541765
 20
140.864574
 42
0.4142140000000001
 10
37.72740499999999
 20
140.278933
 42
0.4142140000000001
 10
38.313046
 20
142.464574
 10
36.932834
 20
144.8551709999999
 42
-0.095807
 10
45.2327
 20
147.0791129999999
 10
45.2327
 20
144.3186889999999
 42
0.4142140000000001
 10
46.8327
 20
142.7186889999999
 42
0.4142140000000001
 10
48.4327
 20
144.3186889999999
 10
48.4327
 20
147.0791129999999
 42
-0.095807
 10
56.73256600000001
 20
144.8551709999999
 10
55.352355
 20
142.464574
 42
0.4142140000000001
 10
55.93799499999999
 20
140.278933
 42
0.4142140000000001
 10
58.123636
 20
140.864574
 10
59.503848
 20
143.255171
 42
-0.095807
 10
65.57977099999999
 20
137.179247
 10
63.189174
 20
135.799035
 42
0.4142140000000001
 10
62.60353399999999
 20
133.613394
 42
0.4142140000000001
 10
64.789174
 20
133.027754
 10
67.179771
 20
134.407966
 42
-0.095807
 10
69.403714
 20
126.1080989999999
 10
66.64329000000001
 20
126.1080989999999
 42
0.4142140000000001
 10
65.04329
 20
124.5080989999999
 42
0.4142140000000001
 10
66.64329000000001
 20
122.9080989999999
 10
69.403714
 20
122.9080989999999
 42
-0.095807
 10
67.179771
 20
114.608233
 10
64.789174
 20
115.988445
 42
0.4142140000000001
 10
62.60353399999999
 20
115.402804
 42
0.4142140000000001
 10
63.189174
 20
113.2171639999999
 10
65.57977099999999
 20
111.8369519999999
 42
-0.095807
 10
59.503848
 20
105.761028
 10
58.123636
 20
108.1516249999999
 42
0.4142140000000001
 10
55.93799499999999
 20
108.7372659999999
 42
0.4142140000000001
 10
55.352355
 20
106.5516249999999
 10
56.73256600000001
 20
104.1610279999999
 42
-0.095807
 10
48.4327
 20
101.9370859999999
 10
48.4327
 20
104.6975089999999
 42
0.4142140000000001
 10
46.8327
 20
106.297509
 42
0.4142140000000001
 10
45.2327
 20
104.6975089999999
 10
45.2327
 20
101.9370859999999
 42
-0.095807
 10
36.932834
 20
104.1610279999999
 10
38.313046
 20
106.5516249999999
 42
0.4142140000000001
 10
37.72740499999999
 20
108.7372659999999
 42
0.4142140000000001
 10
35.541765
 20
108.1516249999999
 10
34.161553
 20
105.761028
 42
-0.095807
 10
28.085629
 20
111.8369519999999
 10
30.476226
 20
113.2171639999999
 42
0.4142140000000001
 10
31.061867
 20
115.402804
 42
0.4142140000000001
 10
28.876226
 20
115.988445
 10
26.48562899999999
 20
114.608233
 42
-0.095807
 10
24.261686
 20
122.9080989999999
 10
27.02211
 20
122.9080989999999
 42
0.4142140000000001
 10
28.62211
 20
124.5080989999999
 42
0.4142140000000001
 10
27.02211
 20
126.1080989999999
 10
24.261686
 20
126.1080989999999
 42
-0.095807
 10
26.48562899999999
 20
134.407966
 10
28.876226
 20
133.027754
 42
0.4142140000000001
 10
31.061867
 20
133.613394
 42
0.4142140000000001
 10
30.769046
 20
134.7062149999999
  0
LWPOLYLINE
  5
44
330
1F
100
AcDbEntity
  8
pocket 1mm
100
AcDbPolyline
 90
       62
 70
   128
 43
0.0
 10
30.769046
 20
210.720076
 42
0.4142140000000001
 10
30.476226
 20
211.8128959999999
 10
28.085629
 20
213.193108
 42
-0.095807
 10
34.161553
 20
219.269032
 10
35.541765
 20
216.878435
 42
0.4142140000000001
 10
37.72740499999999
 20
216.2927939999999
 42
0.4142140000000001
 10
38.313046
 20
218.478435
 10
36.932834
 20
220.8690319999999
 42
-0.095807
 10
45.2327
 20
223.092974
 10
45.2327
 20
220.3325509999999
 42
0.4142140000000001
 10
46.8327
 20
218.7325509999999
 42
0.4142140000000001
 10
48.4327
 20
220.3325509999999
 10
48.4327
 20
223.092974
 42
-0.095807
 10
56.73256600000001
 20
220.8690319999999
 10
55.352355
 20
218.478435
 42
0.4142140000000001
 10
55.93799499999999
 20
216.2927939999999
 42
0.4142140000000001
 10
58.123636
 20
216.878435
 10
59.503848
 20
219.269032
 42
-0.095807
 10
65.57977099999999
 20
213.193108
 10
63.189174
 20
211.8128959999999
 42
0.4142140000000001
 10
62.60353399999999
 20
209.627256
 42
0.4142140000000001
 10
64.789174
 20
209.0416149999999
 10
67.179771
 20
210.421827
 42
-0.095807
 10
69.403714
 20
202.121961
 10
66.64329000000001
 20
202.121961
 42
0.4142140000000001
 10
65.04329
 20
200.521961
 42
0.4142140000000001
 10
66.64329000000001
 20
198.921961
 10
69.403714
 20
198.921961
 42
-0.095807
 10
67.179771
 20
190.622094
 10
64.789174
 20
192.002306
 42
0.4142140000000001
 10
62.60353399999999
 20
191.416666
 42
0.4142140000000001
 10
63.189174
 20
189.2310249999999
 10
65.57977099999999
 20
187.8508129999999
 42
-0.095807
 10
59.503848
 20
181.774889
 10
58.123636
 20
184.165486
 42
0.4142140000000001
 10
55.93799499999999
 20
184.751127
 42
0.4142140000000001
 10
55.352355
 20
182.565486
 10
56.73256600000001
 20
180.1748889999999
 42
-0.095807
 10
48.4327
 20
177.9509469999999
 10
48.4327
 20
180.7113709999999
 42
0.4142140000000001
 10
46.8327
 20
182.311371
 42
0.4142140000000001
 10
45.2327
 20
180.7113709999999
 10
45.2327
 20
177.9509469999999
 42
-0.095807
 10
36.932834
 20
180.1748889999999
 10
38.313046
 20
182.565486
 42
0.4142140000000001
 10
37.72740499999999
 20
184.751127
 42
0.4142140000000001
 10
35.541765
 20
184.165486
 10
34.161553
 20
181.774889
 42
-0.095807
 10
28.085629
 20
187.8508129999999
 10
30.476226
 20
189.2310249999999
 42
0.4142140000000001
 10
31.061867
 20
191.416666
 42
0.4142140000000001
 10
28.876226
 20
192.002306
 10
26.48562899999999
 20
190.622094
 42
-0.095807
 10
24.261686
 20
198.921961
 10
27.02211
 20
198.921961
 42
0.4142140000000001
 10
28.62211
 20
200.521961
 42
0.4142140000000001
 10
27.02211
 20
202.121961
 10
24.261686
 20
202.121961
 42
-0.095807
 10
26.48562899999999
 20
210.421827
 10
28.876226
 20
209.0416149999999
 42
0.4142140000000001
 10
31.061867
 20
209.627256
 42
0.4142140000000001
 10
30.769046
 20
210.720076
  0
LWPOLYLINE
  5
45
330
1F
100
AcDbEntity
  8
pocket 1mm
100
AcDbPolyline
 90
       62
 70
   128
 43
0.0
 10
30.769046
 20
286.733937
 42
0.4142140000000001
 10
30.476226
 20
287.8267569999999
 10
28.085629
 20
289.2069689999999
 42
-0.095807
 10
34.161553
 20
295.2828929999999
 10
35.541765
 20
292.8922959999999
 42
0.4142140000000001
 10
37.72740499999999
 20
292.3066549999999
 42
0.4142140000000001
 10
38.313046
 20
294.4922959999999
 10
36.932834
 20
296.882893
 42
-0.095807
 10
45.2327
 20
299.1068349999999
 10
45.2327
 20
296.3464119999999
 42
0.4142140000000001
 10
46.8327
 20
294.746412
 42
0.4142140000000001
 10
48.4327
 20
296.3464119999999
 10
48.4327
 20
299.1068349999999
 42
-0.095807
 10
56.73256600000001
 20
296.882893
 10
55.352355
 20
294.4922959999999
 42
0.4142140000000001
 10
55.93799499999999
 20
292.3066549999999
 42
0.4142140000000001
 10
58.123636
 20
292.8922959999999
 10
59.503848
 20
295.2828929999999
 42
-0.095807
 10
65.57977099999999
 20
289.2069689999999
 10
63.189174
 20
287.8267569999999
 42
0.4142140000000001
 10
62.60353399999999
 20
285.641117
 42
0.4142140000000001
 10
64.789174
 20
285.0554759999999
 10
67.179771
 20
286.4356879999999
 42
-0.095807
 10
69.403714
 20
278.135822
 10
66.64329000000001
 20
278.135822
 42
0.4142140000000001
 10
65.04329
 20
276.5358219999999
 42
0.4142140000000001
 10
66.64329000000001
 20
274.935822
 10
69.403714
 20
274.935822
 42
-0.095807
 10
67.179771
 20
266.635956
 10
64.789174
 20
268.0161669999999
 42
0.4142140000000001
 10
62.60353399999999
 20
267.430527
 42
0.4142140000000001
 10
63.189174
 20
265.244886
 10
65.57977099999999
 20
263.864674
 42
-0.095807
 10
59.503848
 20
257.78875
 10
58.123636
 20
260.1793479999999
 42
0.4142140000000001
 10
55.93799499999999
 20
260.764988
 42
0.4142140000000001
 10
55.352355
 20
258.5793479999999
 10
56.73256600000001
 20
256.18875
 42
-0.095807
 10
48.4327
 20
253.964808
 10
48.4327
 20
256.725232
 42
0.4142140000000001
 10
46.8327
 20
258.3252319999999
 42
0.4142140000000001
 10
45.2327
 20
256.725232
 10
45.2327
 20
253.964808
 42
-0.095807
 10
36.932834
 20
256.18875
 10
38.313046
 20
258.5793479999999
 42
0.4142140000000001
 10
37.72740499999999
 20
260.764988
 42
0.4142140000000001
 10
35.541765
 20
260.1793479999999
 10
34.161553
 20
257.78875
 42
-0.095807
 10
28.085629
 20
263.864674
 10
30.476226
 20
265.244886
 42
0.4142140000000001
 10
31.061867
 20
267.430527
 42
0.4142140000000001
 10
28.876226
 20
268.0161669999999
 10
26.48562899999999
 20
266.635956
 42
-0.095807
 10
24.261686
 20
274.935822
 10
27.02211
 20
274.935822
 42
0.4142140000000001
 10
28.62211
 20
276.5358219999999
 42
0.4142140000000001
 10
27.02211
 20
278.135822
 10
24.261686
 20
278.135822
 42
-0.095807
 10
26.48562899999999
 20
286.4356879999999
 10
28.876226
 20
285.0554759999999
 42
0.4142140000000001
 10
31.061867
 20
285.641117
 42
0.4142140000000001
 10
30.769046
 20
286.733937
  0
LWPOLYLINE
  5
46
330
1F
100
AcDbEntity
  8
pocket 1mm
100
AcDbPolyline
 90
       62
 70
   128
 43
0.0
 10
30.769046
 20
362.747798
 42
0.4142140000000001
 10
30.476226
 20
363.8406189999999
 10
28.085629
 20
365.2208299999999
 42
-0.095807
 10
34.161553
 20
371.296754
 10
35.541765
 20
368.906157
 42
0.4142140000000001
 10
37.72740499999999
 20
368.3205169999999
 42
0.4142140000000001
 10
38.313046
 20
370.5061569999999
 10
36.932834
 20
372.8967539999999
 42
-0.095807
 10
45.2327
 20
375.120697
 10
45.2327
 20
372.360273
 42
0.4142140000000001
 10
46.8327
 20
370.760273
 42
0.4142140000000001
 10
48.4327
 20
372.360273
 10
48.4327
 20
375.120697
 42
-0.095807
 10
56.73256600000001
 20
372.8967539999999
 10
55.352355
 20
370.5061569999999
 42
0.4142140000000001
 10
55.93799499999999
 20
368.3205169999999
 42
0.4142140000000001
 10
58.123636
 20
368.906157
 10
59.503848
 20
371.296754
 42
-0.095807
 10
65.57977099999999
 20
365.2208299999999
 10
63.189174
 20
363.8406189999999
 42
0.4142140000000001
 10
62.60353399999999
 20
361.6549779999999
 42
0.4142140000000001
 10
64.789174
 20
361.069337
 10
67.179771
 20
362.449549
 42
-0.095807
 10
69.403714
 20
354.1496829999999
 10
66.64329000000001
 20
354.1496829999999
 42
0.4142140000000001
 10
65.04329
 20
352.549683
 42
0.4142140000000001
 10
66.64329000000001
 20
350.9496829999999
 10
69.403714
 20
350.9496829999999
 42
-0.095807
 10
67.179771
 20
342.6498169999999
 10
64.789174
 20
344.030029
 42
0.4142140000000001
 10
62.60353399999999
 20
343.4443879999999
 42
0.4142140000000001
 10
63.189174
 20
341.258747
 10
65.57977099999999
 20
339.878535
 42
-0.095807
 10
59.503848
 20
333.802612
 10
58.123636
 20
336.1932089999999
 42
0.4142140000000001
 10
55.93799499999999
 20
336.778849
 42
0.4142140000000001
 10
55.352355
 20
334.593209
 10
56.73256600000001
 20
332.2026119999999
 42
-0.095807
 10
48.4327
 20
329.9786689999999
 10
48.4327
 20
332.739093
 42
0.4142140000000001
 10
46.8327
 20
334.3390929999999
 42
0.4142140000000001
 10
45.2327
 20
332.739093
 10
45.2327
 20
329.9786689999999
 42
-0.095807
 10
36.932834
 20
332.2026119999999
 10
38.313046
 20
334.593209
 42
0.4142140000000001
 10
37.72740499999999
 20
336.778849
 42
0.4142140000000001
 10
35.541765
 20
336.1932089999999
 10
34.161553
 20
333.802612
 42
-0.095807
 10
28.085629
 20
339.878535
 10
30.476226
 20
341.258747
 42
0.4142140000000001
 10
31.061867
 20
343.4443879999999
 42
0.4142140000000001
 10
28.876226
 20
344.030029
 10
26.48562899999999
 20
342.6498169999999
 42
-0.095807
 10
24.261686
 20
350.9496829999999
 10
27.02211
 20
350.9496829999999
 42
0.4142140000000001
 10
28.62211
 20
352.549683
 42
0.4142140000000001
 10
27.02211
 20
354.1496829999999
 10
24.261686
 20
354.1496829999999
 42
-0.095807
 10
26.48562899999999
 20
362.449549
 10
28.876226
 20
361.069337
 42
0.4142140000000001
 10
31.061867
 20
361.6549779999999
 42
0.4142140000000001
 10
30.769046
 20
362.747798
  0
LWPOLYLINE
  5
47
330
1F
100
AcDbEntity
  8
pocket 1mm
100
AcDbPolyline
 90
       62
 70
   128
 43
0.0
 10
30.769046
 20
438.761659
 42
0.4142140000000001
 10
30.476226
 20
439.8544799999999
 10
28.085629
 20
441.234692
 42
-0.095807
 10
34.161553
 20
447.310615
 10
35.541765
 20
444.920018
 42
0.4142140000000001
 10
37.72740499999999
 20
444.334378
 42
0.4142140000000001
 10
38.313046
 20
446.520018
 10
36.932834
 20
448.910615
 42
-0.095807
 10
45.2327
 20
451.134558
 10
45.2327
 20
448.3741339999999
 42
0.4142140000000001
 10
46.8327
 20
446.7741339999999
 42
0.4142140000000001
 10
48.4327
 20
448.3741339999999
 10
48.4327
 20
451.134558
 42
-0.095807
 10
56.73256600000001
 20
448.910615
 10
55.352355
 20
446.520018
 42
0.4142140000000001
 10
55.93799499999999
 20
444.334378
 42
0.4142140000000001
 10
58.123636
 20
444.920018
 10
59.503848
 20
447.310615
 42
-0.095807
 10
65.57977099999999
 20
441.234692
 10
63.189174
 20
439.8544799999999
 42
0.4142140000000001
 10
62.60353399999999
 20
437.6688389999999
 42
0.4142140000000001
 10
64.789174
 20
437.083198
 10
67.179771
 20
438.4634099999999
 42
-0.095807
 10
69.403714
 20
430.163544
 10
66.64329000000001
 20
430.163544
 42
0.4142140000000001
 10
65.04329
 20
428.563544
 42
0.4142140000000001
 10
66.64329000000001
 20
426.963544
 10
69.403714
 20
426.963544
 42
-0.095807
 10
67.179771
 20
418.6636779999999
 10
64.789174
 20
420.0438899999999
 42
0.4142140000000001
 10
62.60353399999999
 20
419.458249
 42
0.4142140000000001
 10
63.189174
 20
417.272608
 10
65.57977099999999
 20
415.892397
 42
-0.095807
 10
59.503848
 20
409.8164729999999
 10
58.123636
 20
412.20707
 42
0.4142140000000001
 10
55.93799499999999
 20
412.7927099999999
 42
0.4142140000000001
 10
55.352355
 20
410.60707
 10
56.73256600000001
 20
408.216473
 42
-0.095807
 10
48.4327
 20
405.9925299999999
 10
48.4327
 20
408.752954
 42
0.4142140000000001
 10
46.8327
 20
410.352954
 42
0.4142140000000001
 10
45.2327
 20
408.752954
 10
45.2327
 20
405.9925299999999
 42
-0.095807
 10
36.932834
 20
408.216473
 10
38.313046
 20
410.60707
 42
0.4142140000000001
 10
37.72740499999999
 20
412.7927099999999
 42
0.4142140000000001
 10
35.541765
 20
412.20707
 10
34.161553
 20
409.8164729999999
 42
-0.095807
 10
28.085629
 20
415.892397
 10
30.476226
 20
417.272608
 42
0.4142140000000001
 10
31.061867
 20
419.458249
 42
0.4142140000000001
 10
28.876226
 20
420.0438899999999
 10
26.48562899999999
 20
418.6636779999999
 42
-0.095807
 10
24.261686
 20
426.963544
 10
27.02211
 20
426.963544
 42
0.4142140000000001
 10
28.62211
 20
428.563544
 42
0.4142140000000001
 10
27.02211
 20
430.163544
 10
24.261686
 20
430.163544
 42
-0.095807
 10
26.48562899999999
 20
438.4634099999999
 10
28.876226
 20
437.083198
 42
0.4142140000000001
 10
31.061867
 20
437.6688389999999
 42
0.4142140000000001
 10
30.769046
 20
438.761659
  0
LWPOLYLINE
  5
48
330
1F
100
AcDbEntity
  8
pocket 1mm
100
AcDbPolyline
 90
        5
 70
   128
 43
0.0
 10
866.129783
 20
287.9802419999999
 10
855.250464
 20
287.9802419999999
 10
855.250464
 20
306.785167
 10
866.129783
 20
306.785167
 10
866.129783
 20
287.9802419999999
  0
LWPOLYLINE
  5
49
330
1F
100
AcDbEntity
  8
pocket 1mm
100
AcDbPolyline
 90
        5
 70
   128
 43
0.0
 10
860.448285
 20
201.945711
 10
855.648285
 20
201.945711
 10
855.648285
 20
250.356602
 10
860.448285
 20
250.356602
 10
860.448285
 20
201.945711
  0
LWPOLYLINE
  5
4A
330
1F
100
AcDbEntity
  8
pocket 1mm
100
AcDbPolyline
 90
        5
 70
   128
 43
0.0
 10
866.2482849999999
 20
201.945711
 10
861.4482849999999
 20
201.945711
 10
861.4482849999999
 20
250.356602
 10
866.2482849999999
 20
250.356602
 10
866.2482849999999
 20
201.945711
  0
LWPOLYLINE
  5
4B
330
1F
100
AcDbEntity
  8
pocket 1mm
100
AcDbPolyline
 90
        5
 70
   128
 43
0.0
 10
872.0482849999999
 20
201.945711
 10
867.2482849999999
 20
201.945711
 10
867.2482849999999
 20
250.356602
 10
872.0482849999999
 20
250.356602
 10
872.0482849999999
 20
201.945711
  0
LWPOLYLINE
  5
4C
330
1F
100
AcDbEntity
  8
pocket 1mm
100
AcDbPolyline
 90
        5
 70
   128
 43
0.0
 10
877.8482849999999
 20
201.945711
 10
877.8482849999999
 20
250.356602
 10
873.0482849999999
 20
250.356602
 10
873.0482849999999
 20
201.945711
 10
877.8482849999999
 20
201.945711
  0
LWPOLYLINE
  5
4D
330
1F
100
AcDbEntity
  8
pocket 1mm
100
AcDbPolyline
 90
        5
 70
   128
 43
0.0
 10
866.129783
 20
164.322071
 10
866.129783
 20
145.517146
 10
855.250464
 20
145.517146
 10
855.250464
 20
164.322071
 10
866.129783
 20
164.322071
  0
LWPOLYLINE
  5
4E
330
1F
100
AcDbEntity
  8
pocket 1mm
100
AcDbPolyline
 90
        5
 70
   128
 43
0.0
 10
846.2862750000001
 20
206.190848
 42
-0.4142140000000001
 10
851.833
 20
200.644123
 42
-0.4142140000000001
 10
846.2862750000001
 20
195.097398
 42
-0.4142140000000001
 10
840.7395499999999
 20
200.644123
 42
-0.4142140000000001
 10
846.2862750000001
 20
206.190848
  0
LWPOLYLINE
  5
4F
330
1F
100
AcDbEntity
  8
pocket 1mm
100
AcDbPolyline
 90
        5
 70
   128
 43
0.0
 10
846.2862750000001
 20
257.204914
 42
-0.4142140000000001
 10
851.833
 20
251.658189
 42
-0.4142140000000001
 10
846.2862750000001
 20
246.111464
 42
-0.4142140000000001
 10
840.7395499999999
 20
251.658189
 42
-0.4142140000000001
 10
846.2862750000001
 20
257.204914
  0
LWPOLYLINE
  5
50
330
1F
100
AcDbEntity
  8
holes
100
AcDbPolyline
 90
        5
 70
   128
 43
0.0
 10
318.669867
 20
364.89975
 10
323.4698669999999
 20
364.89975
 10
323.4698669999999
 20
403.86129
 10
318.669867
 20
403.86129
 10
318.669867
 20
364.89975
  0
LWPOLYLINE
  5
51
330
1F
100
AcDbEntity
  8
holes
100
AcDbPolyline
 90
        5
 70
   128
 43
0.0
 10
268.5081799999999
 20
312.2972259999999
 10
268.5081799999999
 20
317.0972259999999
 10
284.784077
 20
317.0972259999999
 10
284.784077
 20
312.2972259999999
 10
268.5081799999999
 20
312.2972259999999
  0
LWPOLYLINE
  5
52
330
1F
100
AcDbEntity
  8
holes
100
AcDbPolyline
 90
        5
 70
   128
 43
0.0
 10
358.144866
 20
317.0972259999999
 10
374.4207629999999
 20
317.0972259999999
 10
374.4207629999999
 20
312.2972259999999
 10
358.144866
 20
312.2972259999999
 10
358.144866
 20
317.0972259999999
  0
LWPOLYLINE
  5
53
330
1F
100
AcDbEntity
  8
external cut
100
AcDbPolyline
 90
        9
 70
   128
 43
0.0
 10
824.068562
 20
30.973639
 10
824.068562
 20
50.173639
 42
0.4142140000000001
 10
821.6685620000001
 20
52.573639
 10
770.6926519999999
 20
52.573639
 42
0.4142140000000001
 10
768.2926519999999
 20
50.173639
 10
768.2926519999999
 20
30.973639
 42
0.4142140000000001
 10
770.6926519999999
 20
28.573639
 10
821.6685620000001
 20
28.573639
 42
0.4142140000000001
 10
824.068562
 20
30.973639
  0
LWPOLYLINE
  5
54
330
1F
100
AcDbEntity
  8
external cut
100
AcDbPolyline
 90
        9
 70
   128
 43
0.0
 10
760.2926519999999
 20
30.973639
 10
760.2926519999999
 20
50.173639
 42
0.4142140000000001
 10
757.892652
 20
52.573639
 10
706.916741
 20
52.573639
 42
0.4142140000000001
 10
704.516741
 20
50.173639
 10
704.516741
 20
30.973639
 42
0.4142140000000001
 10
706.916741
 20
28.573639
 10
757.892652
 20
28.573639
 42
0.4142140000000001
 10
760.2926519999999
 20
30.973639
  0
LWPOLYLINE
  5
55
330
1F
100
AcDbEntity
  8
holes
100
AcDbPolyline
 90
        5
 70
   128
 43
0.0
 10
268.5081799999999
 20
198.737033
 10
284.784077
 20
198.737033
 10
284.784077
 20
203.537033
 10
268.5081799999999
 20
203.537033
 10
268.5081799999999
 20
198.737033
  0
LWPOLYLINE
  5
56
330
1F
100
AcDbEntity
  8
holes
100
AcDbPolyline
 90
        5
 70
   128
 43
0.0
 10
358.144866
 20
198.737033
 10
358.144866
 20
203.537033
 10
374.4207629999999
 20
203.537033
 10
374.4207629999999
 20
198.737033
 10
358.144866
 20
198.737033
  0
LWPOLYLINE
  5
57
330
1F
100
AcDbEntity
  8
holes
100
AcDbPolyline
 90
        9
 70
   128
 43
0.0
 10
261.382912
 20
23.657487
 10
316.358822
 20
23.657487
 42
0.4142140000000001
 10
318.758822
 20
26.05748699999999
 10
318.758822
 20
53.376518
 42
0.4142140000000001
 10
316.358822
 20
55.776518
 10
261.382912
 20
55.776518
 42
0.4142140000000001
 10
258.982912
 20
53.376518
 10
258.982912
 20
26.05748699999999
 42
0.4142140000000001
 10
261.382912
 20
23.657487
  0
LWPOLYLINE
  5
58
330
1F
100
AcDbEntity
  8
holes
100
AcDbPolyline
 90
        9
 70
   128
 43
0.0
 10
329.158822
 20
23.657487
 10
384.1347329999999
 20
23.657487
 42
0.4142140000000001
 10
386.534733
 20
26.05748699999999
 10
386.534733
 20
53.376518
 42
0.4142140000000001
 10
384.1347329999999
 20
55.776518
 10
329.158822
 20
55.776518
 42
0.4142140000000001
 10
326.758822
 20
53.376518
 10
326.758822
 20
26.05748699999999
 42
0.4142140000000001
 10
329.158822
 20
23.657487
  0
LWPOLYLINE
  5
59
330
1F
100
AcDbEntity
  8
holes
100
AcDbPolyline
 90
        5
 70
   128
 43
0.0
 10
790.230565
 20
114.213483
 10
795.030565
 20
114.213483
 10
795.030565
 20
147.2240089999999
 10
790.230565
 20
147.2240089999999
 10
790.230565
 20
114.213483
  0
LWPOLYLINE
  5
5A
330
1F
100
AcDbEntity
  8
holes
100
AcDbPolyline
 90
        5
 70
   128
 43
0.0
 10
727.430566
 20
114.213483
 10
727.430566
 20
147.2240089999999
 10
732.230566
 20
147.2240089999999
 10
732.230566
 20
114.213483
 10
727.430566
 20
114.213483
  0
LWPOLYLINE
  5
5B
330
1F
100
AcDbEntity
  8
holes
100
AcDbPolyline
 90
        5
 70
   128
 43
0.0
 10
601.3789690000001
 20
65.070378
 10
591.7789690000001
 20
65.070378
 10
591.7789690000001
 20
95.470377
 10
601.3789690000001
 20
95.470377
 10
601.3789690000001
 20
65.070378
  0
LWPOLYLINE
  5
5C
330
1F
100
AcDbEntity
  8
holes
100
AcDbPolyline
 90
        5
 70
   128
 43
0.0
 10
601.3789690000001
 20
110.6703769999999
 10
591.7789690000001
 20
110.6703769999999
 10
591.7789690000001
 20
141.070376
 10
601.3789690000001
 20
141.070376
 10
601.3789690000001
 20
110.6703769999999
  0
LWPOLYLINE
  5
5D
330
1F
100
AcDbEntity
  8
holes
100
AcDbPolyline
 90
        5
 70
   128
 43
0.0
 10
448.227148
 20
65.070378
 10
448.227148
 20
95.470377
 10
438.627149
 20
95.470377
 10
438.627149
 20
65.070378
 10
448.227148
 20
65.070378
  0
LWPOLYLINE
  5
5E
330
1F
100
AcDbEntity
  8
holes
100
AcDbPolyline
 90
        5
 70
   128
 43
0.0
 10
448.227148
 20
110.6703769999999
 10
448.227148
 20
141.070376
 10
438.627149
 20
141.070376
 10
438.627149
 20
110.6703769999999
 10
448.227148
 20
110.6703769999999
  0
LWPOLYLINE
  5
5F
330
1F
100
AcDbEntity
  8
holes
100
AcDbPolyline
 90
        9
 70
   128
 43
0.0
 10
702.516895
 20
232.583375
 10
814.6585150000001
 20
232.583375
 42
0.4142140000000001
 10
817.058515
 20
234.983375
 10
817.058515
 20
246.0563709999999
 42
0.4142140000000001
 10
814.6585150000001
 20
248.4563709999999
 10
702.516895
 20
248.4563709999999
 42
0.4142140000000001
 10
700.116895
 20
246.0563709999999
 10
700.116895
 20
234.983375
 42
0.4142140000000001
 10
702.516895
 20
232.583375
  0
LWPOLYLINE
  5
60
330
1F
100
AcDbEntity
  8
holes
100
AcDbPolyline
 90
        5
 70
   128
 43
0.0
 10
608.724283
 20
254.235941
 10
608.724283
 20
283.3072829999999
 10
652.500708
 20
283.3072829999999
 10
659.8500349999999
 20
254.235941
 10
608.724283
 20
254.235941
  0
LWPOLYLINE
  5
61
330
1F
100
AcDbEntity
  8
holes
100
AcDbPolyline
 90
        6
 70
   128
 43
0.0
 10
532.734466
 20
287.511363
 10
591.718525
 20
287.511363
 10
587.7012639999999
 20
249.510291
 10
567.363854
 20
231.083589
 10
527.165694
 20
231.083589
 10
532.734466
 20
287.511363
  0
LWPOLYLINE
  5
62
330
1F
100
AcDbEntity
  8
holes
100
AcDbPolyline
 90
        5
 70
   128
 43
0.0
 10
353.5955009999999
 20
110.699436
 10
353.5955009999999
 20
149.753818
 10
358.3955009999999
 20
149.753818
 10
358.3955009999999
 20
110.699436
 10
353.5955009999999
 20
110.699436
  0
LWPOLYLINE
  5
63
330
1F
100
AcDbEntity
  8
holes
100
AcDbPolyline
 90
        5
 70
   128
 43
0.0
 10
294.795502
 20
110.699436
 10
289.9955019999999
 20
110.699436
 10
289.9955019999999
 20
149.753818
 10
294.795502
 20
149.753818
 10
294.795502
 20
110.699436
  0
LWPOLYLINE
  5
64
330
1F
100
AcDbEntity
  8
holes
100
AcDbPolyline
 90
        5
 70
   128
 43
0.0
 10
794.876632
 20
372.9799889999999
 10
790.076632
 20
372.9799889999999
 10
790.076632
 20
405.541529
 10
794.876632
 20
405.541529
 10
794.876632
 20
372.9799889999999
  0
LWPOLYLINE
  5
65
330
1F
100
AcDbEntity
  8
holes
100
AcDbPolyline
 90
        5
 70
   128
 43
0.0
 10
763.076633
 20
381.158533
 10
763.076633
 20
397.362984
 10
758.276633
 20
397.362984
 10
758.276633
 20
381.158533
 10
763.076633
 20
381.158533
  0
LWPOLYLINE
  5
66
330
1F
100
AcDbEntity
  8
holes
100
AcDbPolyline
 90
        5
 70
   128
 43
0.0
 10
731.2766339999999
 20
372.9799889999999
 10
726.476634
 20
372.9799889999999
 10
726.476634
 20
405.541529
 10
731.2766339999999
 20
405.541529
 10
731.2766339999999
 20
372.9799889999999
  0
LWPOLYLINE
  5
67
330
1F
100
AcDbEntity
  8
holes
100
AcDbPolyline
 90
        5
 70
   128
 43
0.0
 10
654.500615
 20
491.9911559999999
 10
756.430878
 20
491.9911559999999
 10
756.430878
 20
496.7911559999999
 10
654.500615
 20
496.7911559999999
 10
654.500615
 20
491.9911559999999
  0
LWPOLYLINE
  5
68
330
1F
100
AcDbEntity
  8
holes
100
AcDbPolyline
 90
        5
 70
   128
 43
0.0
 10
101.8829409999999
 20
93.39287099999999
 42
-0.4142140000000001
 10
98.49094100000002
 20
90.000871
 42
-0.4142140000000001
 10
95.098941
 20
93.39287099999999
 42
-0.4142140000000001
 10
98.49094100000002
 20
96.78487099999999
 42
-0.4142140000000001
 10
101.8829409999999
 20
93.39287099999999
  0
LWPOLYLINE
  5
69
330
1F
100
AcDbEntity
  8
holes
100
AcDbPolyline
 90
        5
 70
   128
 43
0.0
 10
55.18494
 20
124.5080989999999
 42
-0.4142140000000001
 10
46.8327
 20
116.1558599999999
 42
-0.4142140000000001
 10
38.48046
 20
124.5080989999999
 42
-0.4142140000000001
 10
46.8327
 20
132.8603389999999
 42
-0.4142140000000001
 10
55.18494
 20
124.5080989999999
  0
LWPOLYLINE
  5
6A
330
1F
100
AcDbEntity
  8
holes
100
AcDbPolyline
 90
        5
 70
   128
 43
0.0
 10
133.349002
 20
150.433724
 42
-0.4142140000000001
 10
124.9967629999999
 20
142.081484
 42
-0.4142140000000001
 10
116.6445229999999
 20
150.433724
 42
-0.4142140000000001
 10
124.9967629999999
 20
158.7859639999999
 42
-0.4142140000000001
 10
133.349002
 20
150.433724
  0
LWPOLYLINE
  5
6B
330
1F
100
AcDbEntity
  8
holes
100
AcDbPolyline
 90
        5
 70
   128
 43
0.0
 10
55.18494
 20
200.521961
 42
-0.4142140000000001
 10
46.8327
 20
192.1697209999999
 42
-0.4142140000000001
 10
38.48046
 20
200.521961
 42
-0.4142140000000001
 10
46.8327
 20
208.8741999999999
 42
-0.4142140000000001
 10
55.18494
 20
200.521961
  0
LWPOLYLINE
  5
6C
330
1F
100
AcDbEntity
  8
holes
100
AcDbPolyline
 90
        5
 70
   128
 43
0.0
 10
55.18494
 20
276.5358219999999
 42
-0.4142140000000001
 10
46.8327
 20
268.1835819999999
 42
-0.4142140000000001
 10
38.48046
 20
276.5358219999999
 42
-0.4142140000000001
 10
46.8327
 20
284.888062
 42
-0.4142140000000001
 10
55.18494
 20
276.5358219999999
  0
LWPOLYLINE
  5
6D
330
1F
100
AcDbEntity
  8
holes
100
AcDbPolyline
 90
        5
 70
   128
 43
0.0
 10
55.18494
 20
352.549683
 42
-0.4142140000000001
 10
46.8327
 20
344.197443
 42
-0.4142140000000001
 10
38.48046
 20
352.549683
 42
-0.4142140000000001
 10
46.8327
 20
360.901923
 42
-0.4142140000000001
 10
55.18494
 20
352.549683
  0
LWPOLYLINE
  5
6E
330
1F
100
AcDbEntity
  8
holes
100
AcDbPolyline
 90
        5
 70
   128
 43
0.0
 10
55.18494
 20
428.563544
 42
-0.4142140000000001
 10
46.8327
 20
420.2113039999999
 42
-0.4142140000000001
 10
38.48046
 20
428.563544
 42
-0.4142140000000001
 10
46.8327
 20
436.9157839999999
 42
-0.4142140000000001
 10
55.18494
 20
428.563544
  0
LWPOLYLINE
  5
6F
330
1F
100
AcDbEntity
  8
holes
100
AcDbPolyline
 90
        5
 70
   128
 43
0.0
 10
210.952337
 20
111.632056
 42
-0.4142140000000001
 10
202.600097
 20
103.279817
 42
-0.4142140000000001
 10
194.247857
 20
111.632056
 42
-0.4142140000000001
 10
202.600097
 20
119.984296
 42
-0.4142140000000001
 10
210.952337
 20
111.632056
  0
LWPOLYLINE
  5
70
330
1F
100
AcDbEntity
  8
holes
100
AcDbPolyline
 90
        5
 70
   128
 43
0.0
 10
210.952337
 20
196.235391
 42
-0.4142140000000001
 10
202.600097
 20
187.8831509999999
 42
-0.4142140000000001
 10
194.247857
 20
196.235391
 42
-0.4142140000000001
 10
202.600097
 20
204.587631
 42
-0.4142140000000001
 10
210.952337
 20
196.235391
  0
LWPOLYLINE
  5
71
330
1F
100
AcDbEntity
  8
holes
100
AcDbPolyline
 90
        5
 70
   128
 43
0.0
 10
133.349002
 20
235.0370579999999
 42
-0.4142140000000001
 10
124.9967629999999
 20
226.684819
 42
-0.4142140000000001
 10
116.6445229999999
 20
235.0370579999999
 42
-0.4142140000000001
 10
124.9967629999999
 20
243.3892979999999
 42
-0.4142140000000001
 10
133.349002
 20
235.0370579999999
  0
LWPOLYLINE
  5
72
330
1F
100
AcDbEntity
  8
holes
100
AcDbPolyline
 90
        5
 70
   128
 43
0.0
 10
133.349002
 20
319.640393
 42
-0.4142140000000001
 10
124.9967629999999
 20
311.2881529999999
 42
-0.4142140000000001
 10
116.6445229999999
 20
319.640393
 42
-0.4142140000000001
 10
124.9967629999999
 20
327.992633
 42
-0.4142140000000001
 10
133.349002
 20
319.640393
  0
LWPOLYLINE
  5
73
330
1F
100
AcDbEntity
  8
holes
100
AcDbPolyline
 90
        5
 70
   128
 43
0.0
 10
210.952337
 20
280.8387259999999
 42
-0.4142140000000001
 10
202.600097
 20
272.486486
 42
-0.4142140000000001
 10
194.247857
 20
280.8387259999999
 42
-0.4142140000000001
 10
202.600097
 20
289.1909659999999
 42
-0.4142140000000001
 10
210.952337
 20
280.8387259999999
  0
LWPOLYLINE
  5
74
330
1F
100
AcDbEntity
  8
holes
100
AcDbPolyline
 90
        5
 70
   128
 43
0.0
 10
210.952337
 20
365.44206
 42
-0.4142140000000001
 10
202.600097
 20
357.0898209999999
 42
-0.4142140000000001
 10
194.247857
 20
365.44206
 42
-0.4142140000000001
 10
202.600097
 20
373.7943
 42
-0.4142140000000001
 10
210.952337
 20
365.44206
  0
LWPOLYLINE
  5
75
330
1F
100
AcDbEntity
  8
holes
100
AcDbPolyline
 90
        5
 70
   128
 43
0.0
 10
133.349002
 20
404.2437279999999
 42
-0.4142140000000001
 10
124.9967629999999
 20
395.891488
 42
-0.4142140000000001
 10
116.6445229999999
 20
404.2437279999999
 42
-0.4142140000000001
 10
124.9967629999999
 20
412.595968
 42
-0.4142140000000001
 10
133.349002
 20
404.2437279999999
  0
LWPOLYLINE
  5
76
330
1F
100
AcDbEntity
  8
holes
100
AcDbPolyline
 90
        5
 70
   128
 43
0.0
 10
133.349002
 20
488.8470629999999
 42
-0.4142140000000001
 10
124.9967629999999
 20
480.494823
 42
-0.4142140000000001
 10
116.6445229999999
 20
488.8470629999999
 42
-0.4142140000000001
 10
124.9967629999999
 20
497.1993019999999
 42
-0.4142140000000001
 10
133.349002
 20
488.8470629999999
  0
LWPOLYLINE
  5
77
330
1F
100
AcDbEntity
  8
holes
100
AcDbPolyline
 90
        5
 70
   128
 43
0.0
 10
210.952337
 20
450.045395
 42
-0.4142140000000001
 10
202.600097
 20
441.693155
 42
-0.4142140000000001
 10
194.247857
 20
450.045395
 42
-0.4142140000000001
 10
202.600097
 20
458.3976349999999
 42
-0.4142140000000001
 10
210.952337
 20
450.045395
  0
LWPOLYLINE
  5
78
330
1F
100
AcDbEntity
  8
holes
100
AcDbPolyline
 90
        5
 70
   128
 43
0.0
 10
608.5949349999999
 20
346.668889
 10
608.5949349999999
 20
317.597548
 10
652.3713599999999
 20
317.597548
 10
659.7206869999999
 20
346.668889
 10
608.5949349999999
 20
346.668889
  0
LWPOLYLINE
  5
79
330
1F
100
AcDbEntity
  8
holes
100
AcDbPolyline
 90
        6
 70
   128
 43
0.0
 10
532.6051179999999
 20
313.393468
 10
591.5891769999999
 20
313.393468
 10
587.571916
 20
351.39454
 10
567.234506
 20
369.8212419999999
 10
527.0363469999999
 20
369.8212419999999
 10
532.6051179999999
 20
313.393468
  0
LWPOLYLINE
  5
7A
330
1F
100
AcDbEntity
  8
holes
100
AcDbPolyline
 90
        5
 70
   128
 43
0.0
 10
787.5475579999999
 20
181.720322
 10
792.347558
 20
181.720322
 10
792.347558
 20
201.353024
 10
787.5475579999999
 20
201.353024
 10
787.5475579999999
 20
181.720322
  0
LWPOLYLINE
  5
7B
330
1F
100
AcDbEntity
  8
holes
100
AcDbPolyline
 90
        5
 70
   128
 43
0.0
 10
723.9475589999999
 20
181.720322
 10
723.9475589999999
 20
201.353024
 10
728.747559
 20
201.353024
 10
728.747559
 20
181.720322
 10
723.9475589999999
 20
181.720322
  0
LWPOLYLINE
  5
7C
330
1F
100
AcDbEntity
  8
holes
100
AcDbPolyline
 90
        5
 70
   128
 43
0.0
 10
333.6758859999999
 20
477.3695799999999
 10
435.606149
 20
477.3695799999999
 10
435.606149
 20
482.1695799999999
 10
333.6758859999999
 20
482.1695799999999
 10
333.6758859999999
 20
477.3695799999999
  0
LWPOLYLINE
  5
7D
330
1F
100
AcDbEntity
  8
external cut
100
AcDbPolyline
 90
        5
 70
   128
 43
0.0
 10
114.19112
 20
93.39287099999999
 42
-0.4142140000000001
 10
98.49094100000002
 20
77.69269099999999
 42
-0.4142140000000001
 10
82.79076100000001
 20
93.39287099999999
 42
-0.4142140000000001
 10
98.49094100000002
 20
109.0930509999999
 42
-0.4142140000000001
 10
114.19112
 20
93.39287099999999
  0
LWPOLYLINE
  5
7E
330
1F
100
AcDbEntity
  8
external cut
100
AcDbPolyline
 90
        9
 70
   128
 43
0.0
 10
702.516895
 20
226.983375
 10
814.6585150000001
 20
226.983375
 42
0.4142140000000001
 10
822.6585150000001
 20
234.983375
 10
822.6585150000001
 20
246.0563709999999
 42
0.4142140000000001
 10
814.6585150000001
 20
254.0563709999999
 10
702.516895
 20
254.0563709999999
 42
0.4142140000000001
 10
694.516895
 20
246.0563709999999
 10
694.516895
 20
234.983375
 42
0.4142140000000001
 10
702.516895
 20
226.983375
  0
LWPOLYLINE
  5
7F
330
1F
100
AcDbEntity
  8
external cut
100
AcDbPolyline
 90
        5
 70
   128
 43
0.0
 10
259.240781
 20
344.8502229999999
 10
249.2939559999999
 20
436.3883009999999
 10
392.8457769999999
 20
436.3883009999999
 10
382.898952
 20
344.8502229999999
 10
259.240781
 20
344.8502229999999
  0
LWPOLYLINE
  5
80
330
1F
100
AcDbEntity
  8
external cut
100
AcDbPolyline
 90
       30
 70
   128
 43
0.0
 10
253.075433
 20
186.141219
 10
331.0503919999999
 20
186.141219
 42
-1.0
 10
335.8503919999999
 20
186.141219
 10
335.8503919999999
 20
181.341219
 10
359.8359029999999
 20
181.341219
 10
359.8359029999999
 20
186.141219
 42
-1.0
 10
364.6359029999999
 20
186.141219
 10
389.85351
 20
186.141219
 10
389.85351
 20
239.069813
 10
385.053511
 20
239.069813
 42
-1.0
 10
385.053511
 20
243.869813
 10
385.053511
 20
271.964446
 42
-1.0
 10
385.053511
 20
276.764446
 10
389.85351
 20
276.764446
 10
389.85351
 20
329.6930399999999
 10
364.6359029999999
 20
329.6930399999999
 42
-0.4142140000000001
 10
362.235903
 20
327.29304
 42
-0.4142140000000001
 10
359.8359029999999
 20
329.6930399999999
 10
359.8359029999999
 20
334.4930399999999
 10
335.8503919999999
 20
334.4930399999999
 10
335.8503919999999
 20
329.6930399999999
 42
-1.0
 10
331.0503919999999
 20
329.6930399999999
 10
253.075433
 20
329.6930399999999
 10
253.075433
 20
276.764446
 10
257.8754329999999
 20
276.764446
 42
-1.0
 10
257.8754329999999
 20
271.964446
 10
257.8754329999999
 20
243.869813
 42
-1.0
 10
257.8754329999999
 20
239.069813
 10
253.075433
 20
239.069813
 10
253.075433
 20
186.141219
  0
LWPOLYLINE
  5
81
330
1F
100
AcDbEntity
  8
external cut
100
AcDbPolyline
 90
      357
 70
   128
 43
0.0
 10
250.982912
 20
15.657487
 10
299.111506
 20
15.657487
 42
-1.0
 10
303.911506
 20
15.657487
 10
303.911506
 20
10.85748699999999
 10
341.6061389999999
 20
10.85748699999999
 10
341.6061389999999
 20
15.657487
 42
-1.0
 10
346.4061389999999
 20
15.657487
 10
394.534733
 20
15.657487
 10
394.534733
 20
38.828927
 42
-1.0
 10
394.534733
 20
43.628927
 10
402.034504
 20
43.628927
 42
-0.19413
 10
404.2551899999999
 20
42.732957
 10
404.3265359999999
 20
42.66419699999999
 10
404.337251
 20
42.65389899999999
 10
404.3490359999999
 20
42.64262399999999
 10
404.361962
 20
42.630326
 10
404.3761029999999
 20
42.61696299999999
 10
404.39153
 20
42.60249
 10
404.408317
 20
42.586864
 10
404.4265359999999
 20
42.57004199999999
 10
404.446258
 20
42.551978
 10
404.4675579999999
 20
42.532631
 10
404.4905059999999
 20
42.51195599999999
 10
404.515177
 20
42.489909
 10
404.541641
 20
42.466446
 10
404.5699719999999
 20
42.441525
 10
404.6002419999999
 20
42.415101
 10
404.6325229999999
 20
42.387131
 10
404.666889
 20
42.35757
 10
404.7034109999999
 20
42.326376
 10
404.7421619999999
 20
42.293504
 10
404.7832139999999
 20
42.258911
 10
404.826666
 20
42.22258599999999
 10
404.8727149999999
 20
42.18464799999999
 10
404.921588
 20
42.14525
 10
404.9735079999999
 20
42.10454399999999
 10
405.0286999999999
 20
42.06268099999999
 10
405.087388
 20
42.019815
 10
405.1497959999999
 20
41.976097
 10
405.21615
 20
41.93167899999999
 10
405.2866729999999
 20
41.886714
 10
405.361591
 20
41.84135399999999
 10
405.441126
 20
41.795751
 10
405.525505
 20
41.75005699999999
 10
405.614951
 20
41.704425
 10
405.709689
 20
41.65900599999999
 10
405.809943
 20
41.61395399999999
 10
405.915939
 20
41.569419
 10
406.027899
 20
41.52555399999999
 10
406.1460489999999
 20
41.482513
 10
406.2706129999999
 20
41.440445
 10
406.4018159999999
 20
41.399505
 10
406.539812
 20
41.359859
 10
406.684477
 20
41.32174
 10
406.835616
 20
41.285394
 10
406.9930369999999
 20
41.251068
 10
407.1565449999999
 20
41.21901
 10
407.325945
 20
41.189467
 10
407.5010439999999
 20
41.162686
 10
407.6816469999999
 20
41.138915
 10
407.8675609999999
 20
41.11839899999999
 10
408.0585919999999
 20
41.101387
 10
408.254544
 20
41.088126
 10
408.4552249999999
 20
41.07886299999999
 10
408.6604409999999
 20
41.073845
 10
408.869996
 20
41.07331799999999
 10
409.0836979999999
 20
41.077532
 10
409.3013509999999
 20
41.08673099999999
 10
409.522762
 20
41.101165
 10
409.7477379999999
 20
41.12107899999999
 10
409.976083
 20
41.146722
 10
410.207604
 20
41.17833899999999
 10
410.4420819999999
 20
41.21616599999999
 10
410.6792019999999
 20
41.260384
 10
410.9186259999999
 20
41.311163
 10
411.160012
 20
41.368672
 10
411.403023
 20
41.43307899999999
 10
411.647318
 20
41.504554
 10
411.892557
 20
41.58326599999999
 10
412.1384029999999
 20
41.669384
 10
412.3845149999999
 20
41.763077
 10
412.6305529999999
 20
41.864514
 10
412.8761789999999
 20
41.973865
 10
413.121052
 20
42.09129799999999
 10
413.3648339999999
 20
42.21698299999999
 10
413.607185
 20
42.35108799999999
 10
413.8477649999999
 20
42.493783
 10
414.0862349999999
 20
42.64523599999999
 10
414.3222559999999
 20
42.805618
 10
414.5554879999999
 20
42.975096
 10
414.785592
 20
43.153841
 10
415.0122289999999
 20
43.342021
 10
415.2350379999999
 20
43.539708
 10
415.453587
 20
43.74659099999999
 10
415.667419
 20
43.96226
 10
415.876082
 20
44.186306
 10
416.079119
 20
44.418321
 10
416.276078
 20
44.657894
 10
416.466503
 20
44.904617
 10
416.64994
 20
45.158081
 10
416.825935
 20
45.417877
 10
416.994034
 20
45.68359599999999
 10
417.153782
 20
45.954828
 10
417.304724
 20
46.23116599999999
 10
417.4464069999999
 20
46.512199
 10
417.5783759999999
 20
46.797518
 10
417.700176
 20
47.08671599999999
 10
417.811354
 20
47.379381
 10
417.9114539999999
 20
47.675106
 10
418.000023
 20
47.973482
 10
418.076606
 20
48.274099
 10
418.1407479999999
 20
48.57654799999999
 10
418.192147
 20
48.880378
 10
418.231102
 20
49.18496199999999
 10
418.258063
 20
49.489634
 10
418.273483
 20
49.793725
 10
418.277812
 20
50.096567
 10
418.2714999999999
 20
50.39749099999999
 10
418.254998
 20
50.695831
 10
418.228758
 20
50.990918
 10
418.1932299999999
 20
51.282083
 10
418.148866
 20
51.568659
 10
418.0961149999999
 20
51.849978
 10
418.035429
 20
52.125371
 10
417.967258
 20
52.394171
 10
417.892054
 20
52.655709
 10
417.810268
 20
52.909318
 10
417.722349
 20
53.15432900000001
 10
417.6287499999999
 20
53.39007399999999
 10
417.529921
 20
53.615886
 10
417.4263119999999
 20
53.83109499999999
 10
417.3183749999999
 20
54.035035
 10
417.2065609999999
 20
54.227223
 10
417.091318
 20
54.40792
 10
416.9730979999999
 20
54.577573
 10
416.85235
 20
54.736629
 10
416.7295229999999
 20
54.885536
 10
416.605068
 20
55.02474
 10
416.4794339999999
 20
55.154688
 10
416.3530709999999
 20
55.275829
 10
416.226429
 20
55.388608
 10
416.0999569999999
 20
55.493473
 10
415.974105
 20
55.59086999999999
 10
415.8493229999999
 20
55.68124799999999
 10
415.726062
 20
55.765053
 10
415.6047689999999
 20
55.842732
 10
415.4858959999999
 20
55.91473199999999
 10
415.369893
 20
55.9815
 10
415.2572079999999
 20
56.043484
 10
415.1482919999999
 20
56.101131
 10
415.0435939999999
 20
56.154887
 10
414.943564
 20
56.20519999999999
 10
414.848555
 20
56.25245899999999
 10
414.758523
 20
56.296824
 10
414.673329
 20
56.3384
 10
414.592833
 20
56.377287
 10
414.516895
 20
56.41359
 10
414.4453759999999
 20
56.447411
 10
414.378134
 20
56.478853
 10
414.315031
 20
56.508019
 10
414.2559249999999
 20
56.53501099999999
 10
414.2006779999999
 20
56.55993299999999
 10
414.1491489999999
 20
56.582888
 10
414.101198
 20
56.603977
 10
414.0566849999999
 20
56.623305
 10
414.015471
 20
56.640974
 10
413.977414
 20
56.65708699999999
 10
413.9423759999999
 20
56.671747
 10
413.910216
 20
56.685056
 10
413.8807939999999
 20
56.697118
 10
413.8539699999999
 20
56.70803499999999
 10
413.8296049999999
 20
56.717911
 10
413.6750529999999
 20
56.780503
 42
0.096499
 10
411.399088
 20
57.223886
 10
394.534733
 20
57.223886
 42
-1.0
 10
394.534733
 20
62.02388599999999
 10
394.534733
 20
80.242354
 10
356.558822
 20
80.242354
 10
356.558822
 20
70.47722199999999
 10
351.758822
 20
70.47722199999999
 10
351.758822
 20
80.242354
 10
293.758823
 20
80.242354
 10
293.758823
 20
70.47722199999999
 10
288.958823
 20
70.47722199999999
 10
288.958823
 20
80.242354
 10
250.982912
 20
80.242354
 10
250.982912
 20
62.02388599999999
 42
-0.4142140000000001
 10
253.382912
 20
59.623886
 42
-0.4142140000000001
 10
250.982912
 20
57.223886
 10
234.1185569999999
 20
57.223886
 42
0.096499
 10
231.842591
 20
56.780503
 10
231.688039
 20
56.717911
 10
231.663674
 20
56.70803499999999
 10
231.6368509999999
 20
56.697118
 10
231.6074289999999
 20
56.685056
 10
231.575269
 20
56.671747
 10
231.540231
 20
56.65708699999999
 10
231.502174
 20
56.640974
 10
231.46096
 20
56.623305
 10
231.416447
 20
56.603977
 10
231.3684959999999
 20
56.582888
 10
231.316967
 20
56.55993299999999
 10
231.261719
 20
56.53501099999999
 10
231.2026139999999
 20
56.508019
 10
231.1395099999999
 20
56.478853
 10
231.0722689999999
 20
56.447411
 10
231.000749
 20
56.41359
 10
230.9248119999999
 20
56.377287
 10
230.844316
 20
56.3384
 10
230.759122
 20
56.296824
 10
230.6690899999999
 20
56.25245899999999
 10
230.5740799999999
 20
56.20519999999999
 10
230.4740509999999
 20
56.154887
 10
230.3693529999999
 20
56.101131
 10
230.260437
 20
56.043484
 10
230.147752
 20
55.9815
 10
230.0317479999999
 20
55.91473199999999
 10
229.912875
 20
55.842732
 10
229.7915829999999
 20
55.765053
 10
229.6683209999999
 20
55.68124799999999
 10
229.5435399999999
 20
55.59086999999999
 10
229.417688
 20
55.493473
 10
229.291216
 20
55.388608
 10
229.164574
 20
55.275829
 10
229.0382109999999
 20
55.154688
 10
228.912577
 20
55.02474
 10
228.788121
 20
54.885536
 10
228.665295
 20
54.736629
 10
228.544546
 20
54.577573
 10
228.4263259999999
 20
54.40792
 10
228.3110839999999
 20
54.227223
 10
228.1992699999999
 20
54.035035
 10
228.091333
 20
53.83109499999999
 10
227.987724
 20
53.615886
 10
227.888895
 20
53.39007399999999
 10
227.7952959999999
 20
53.15432900000001
 10
227.707377
 20
52.909318
 10
227.625591
 20
52.655709
 10
227.550387
 20
52.394171
 10
227.482216
 20
52.125371
 10
227.4215299999999
 20
51.849978
 10
227.368779
 20
51.568659
 10
227.324414
 20
51.282083
 10
227.288886
 20
50.990918
 10
227.262646
 20
50.695831
 10
227.246145
 20
50.39749099999999
 10
227.239833
 20
50.096567
 10
227.244162
 20
49.793725
 10
227.2595809999999
 20
49.489634
 10
227.286543
 20
49.18496199999999
 10
227.325498
 20
48.880378
 10
227.376897
 20
48.57654799999999
 10
227.441039
 20
48.274099
 10
227.517622
 20
47.973482
 10
227.606191
 20
47.675106
 10
227.706291
 20
47.379381
 10
227.8174689999999
 20
47.08671599999999
 10
227.9392689999999
 20
46.797518
 10
228.071238
 20
46.512199
 10
228.21292
 20
46.23116599999999
 10
228.363863
 20
45.954828
 10
228.523611
 20
45.68359599999999
 10
228.6917089999999
 20
45.417877
 10
228.8677049999999
 20
45.158081
 10
229.051142
 20
44.904617
 10
229.241567
 20
44.657894
 10
229.4385259999999
 20
44.418321
 10
229.6415629999999
 20
44.186306
 10
229.8502249999999
 20
43.96226
 10
230.064058
 20
43.74659099999999
 10
230.282606
 20
43.539708
 10
230.505416
 20
43.342021
 10
230.732052
 20
43.153841
 10
230.962156
 20
42.975096
 10
231.1953879999999
 20
42.805618
 10
231.4314089999999
 20
42.64523599999999
 10
231.6698799999999
 20
42.493783
 10
231.91046
 20
42.35108799999999
 10
232.152811
 20
42.21698299999999
 10
232.396593
 20
42.09129799999999
 10
232.641466
 20
41.973865
 10
232.8870919999999
 20
41.864514
 10
233.1331299999999
 20
41.763077
 10
233.3792419999999
 20
41.669384
 10
233.625087
 20
41.58326599999999
 10
233.8703269999999
 20
41.504554
 10
234.114622
 20
41.43307899999999
 10
234.357633
 20
41.368672
 10
234.599019
 20
41.311163
 10
234.8384419999999
 20
41.260384
 10
235.075563
 20
41.21616599999999
 10
235.310041
 20
41.17833899999999
 10
235.541562
 20
41.146722
 10
235.7699069999999
 20
41.12107899999999
 10
235.994882
 20
41.101165
 10
236.216294
 20
41.08673099999999
 10
236.433947
 20
41.077532
 10
236.647649
 20
41.07331799999999
 10
236.857204
 20
41.073845
 10
237.062419
 20
41.07886299999999
 10
237.2631
 20
41.088126
 10
237.4590529999999
 20
41.101387
 10
237.6500829999999
 20
41.11839899999999
 10
237.835997
 20
41.138915
 10
238.0166009999999
 20
41.162686
 10
238.1917
 20
41.189467
 10
238.3611
 20
41.21901
 10
238.5246069999999
 20
41.251068
 10
238.6820279999999
 20
41.285394
 10
238.833168
 20
41.32174
 10
238.9778329999999
 20
41.359859
 10
239.1158289999999
 20
41.399505
 10
239.247032
 20
41.440445
 10
239.3715959999999
 20
41.482513
 10
239.489746
 20
41.52555399999999
 10
239.601706
 20
41.569419
 10
239.7077009999999
 20
41.61395399999999
 10
239.8079549999999
 20
41.65900599999999
 10
239.902693
 20
41.704425
 10
239.992139
 20
41.75005699999999
 10
240.076518
 20
41.795751
 10
240.156054
 20
41.84135399999999
 10
240.2309709999999
 20
41.886714
 10
240.301495
 20
41.93167899999999
 10
240.3678479999999
 20
41.976097
 10
240.430257
 20
42.019815
 10
240.488945
 20
42.06268099999999
 10
240.5441359999999
 20
42.10454399999999
 10
240.596056
 20
42.14525
 10
240.6449289999999
 20
42.18464799999999
 10
240.6909789999999
 20
42.22258599999999
 10
240.734431
 20
42.258911
 10
240.775483
 20
42.293504
 10
240.8142339999999
 20
42.326376
 10
240.850756
 20
42.35757
 10
240.8851209999999
 20
42.387131
 10
240.9174029999999
 20
42.415101
 10
240.947673
 20
42.441525
 10
240.976004
 20
42.466446
 10
241.002468
 20
42.489909
 10
241.0271379999999
 20
42.51195599999999
 10
241.050087
 20
42.532631
 10
241.0713859999999
 20
42.551978
 10
241.0911089999999
 20
42.57004199999999
 10
241.1093279999999
 20
42.586864
 10
241.126114
 20
42.60249
 10
241.1415419999999
 20
42.61696299999999
 10
241.155683
 20
42.630326
 10
241.1686089999999
 20
42.64262399999999
 10
241.1803939999999
 20
42.65389899999999
 10
241.1911089999999
 20
42.66419699999999
 10
241.2624549999999
 20
42.732957
 42
-0.19413
 10
243.483141
 20
43.628927
 10
250.982912
 20
43.628927
 42
-0.4142140000000001
 10
253.382912
 20
41.228927
 42
-0.4142140000000001
 10
250.982912
 20
38.828927
 10
250.982912
 20
15.657487
  0
LWPOLYLINE
  5
82
330
1F
100
AcDbEntity
  8
external cut
100
AcDbPolyline
 90
       25
 70
   128
 43
0.0
 10
836.0685619999999
 20
20.57364
 10
836.0685619999999
 20
26.43225499999999
 42
-1.0
 10
836.0685619999999
 20
31.232255
 10
840.8685619999998
 20
31.232255
 10
840.8685619999998
 20
51.599015
 10
836.0685619999999
 20
51.599015
 42
-0.4142140000000001
 10
833.668562
 20
53.999015
 42
-0.4142140000000001
 10
836.0685619999999
 20
56.399015
 10
836.0685619999999
 20
60.573639
 10
692.516741
 20
60.573639
 10
692.516741
 20
56.399015
 42
-0.4142140000000001
 10
694.916741
 20
53.999015
 42
-0.4142140000000001
 10
692.516741
 20
51.599015
 10
687.7167410000001
 20
51.599015
 10
687.7167410000001
 20
31.232255
 10
692.516741
 20
31.232255
 42
-1.0
 10
692.516741
 20
26.43225499999999
 10
692.516741
 20
20.57364
 10
740.6453349999999
 20
20.57364
 42
-1.0
 10
745.445335
 20
20.57364
 10
745.445335
 20
15.77364
 10
783.1399679999999
 20
15.77364
 10
783.1399679999999
 20
20.57364
 42
-1.0
 10
787.939968
 20
20.57364
 10
836.0685619999999
 20
20.57364
  0
LWPOLYLINE
  5
83
330
1F
100
AcDbEntity
  8
external cut
100
AcDbPolyline
 90
       25
 70
   128
 43
0.0
 10
418.5987889999999
 20
203.0912199999999
 10
418.5987889999999
 20
195.4912209999999
 10
447.344153
 20
195.4912209999999
 10
479.497026
 20
168.769077
 10
498.617473
 20
168.769077
 10
498.617473
 20
163.969077
 10
522.617473
 20
163.969077
 10
522.617473
 20
168.769077
 10
544.217473
 20
168.769077
 10
544.217473
 20
163.969077
 10
568.2174719999999
 20
163.969077
 10
568.2174719999999
 20
168.769077
 10
582.9866919999999
 20
168.769077
 42
-0.790358
 10
661.5633159999999
 20
166.5959909999999
 10
675.9641289999999
 20
166.5959909999999
 10
675.9641289999999
 20
176.369076
 10
671.60294
 20
176.369076
 42
-0.278811
 10
664.518744
 20
180.652335
 42
0.604622
 10
579.5152749999999
 20
180.652335
 42
-0.278811
 10
572.4310789999999
 20
176.369076
 10
485.133349
 20
176.369076
 42
-0.175112
 10
480.02
 20
178.216543
 10
452.3129809999999
 20
201.243753
 42
0.175112
 10
447.1996309999999
 20
203.0912199999999
 10
418.5987889999999
 20
203.0912199999999
  0
LWPOLYLINE
  5
84
330
1F
100
AcDbEntity
  8
external cut
100
AcDbPolyline
 90
       44
 70
   128
 43
0.0
 10
420.227274
 20
239.4133339999999
 10
420.227274
 20
228.7172379999999
 10
448.9726379999999
 20
228.7172379999999
 10
481.125512
 20
201.995094
 10
500.2459589999999
 20
201.995094
 10
500.2459589999999
 20
197.195095
 10
524.245958
 20
197.195095
 10
524.245958
 20
201.995094
 10
545.845958
 20
201.995094
 10
545.845958
 20
197.195095
 10
569.8459579999999
 20
197.195095
 10
569.8459579999999
 20
201.995094
 10
584.6151769999998
 20
201.995094
 42
-0.790358
 10
663.1918019999999
 20
199.822009
 10
677.592615
 20
199.822009
 10
677.592615
 20
211.737695
 10
672.792615
 20
211.737695
 42
-1.0
 10
672.792615
 20
216.537695
 10
672.792615
 20
230.4273269999999
 42
-1.0
 10
672.792615
 20
235.2273269999999
 10
677.592615
 20
235.2273269999999
 10
677.592615
 20
250.947647
 10
674.0762440000001
 20
261.009517
 10
669.544983
 20
259.4259549999999
 42
-1.0
 10
667.9614209999999
 20
263.957216
 10
664.4093719999999
 20
274.121176
 42
-1.0
 10
662.8258099999999
 20
278.6524379999999
 10
667.357072
 20
280.2359999999999
 10
662.158506
 20
295.111363
 10
632.1408439999999
 20
295.111363
 10
632.1408439999999
 20
290.3113629999999
 42
-1.0
 10
627.340844
 20
290.3113629999999
 10
612.955333
 20
290.3113629999999
 42
-1.0
 10
608.155333
 20
290.3113629999999
 10
608.155333
 20
295.111363
 10
525.3803740000001
 20
295.111363
 10
516.7817549999999
 20
264.229348
 10
521.405857
 20
262.941839
 42
-1.0
 10
520.118347
 20
258.317737
 10
519.046786
 20
254.469218
 42
-1.0
 10
517.759277
 20
249.845117
 10
513.135175
 20
251.132626
 10
511.563566
 20
245.4881789999999
 10
420.227274
 20
239.4133339999999
  0
LWPOLYLINE
  5
85
330
1F
100
AcDbEntity
  8
external cut
100
AcDbPolyline
 90
       17
 70
   128
 43
0.0
 10
689.454655
 20
108.090776
 10
689.454655
 20
115.206462
 42
1.0
 10
689.454655
 20
120.006462
 10
684.6546549999999
 20
120.006462
 10
684.6546549999999
 20
143.496093
 10
689.454655
 20
143.496093
 42
1.0
 10
689.454655
 20
148.2960929999999
 10
689.454655
 20
159.2164139999999
 10
833.006476
 20
159.2164139999999
 10
833.006476
 20
148.2960929999999
 42
1.0
 10
833.006476
 20
143.496093
 10
837.8064759999999
 20
143.496093
 10
837.8064759999999
 20
120.006462
 10
833.006476
 20
120.006462
 42
1.0
 10
833.006476
 20
115.206462
 10
833.006476
 20
108.090776
 10
689.454655
 20
108.090776
  0
LWPOLYLINE
  5
86
330
1F
100
AcDbEntity
  8
external cut
100
AcDbPolyline
 90
        6
 70
   128
 43
0.0
 10
21.597813
 20
47.456096
 10
21.597813
 20
61.395917
 10
26.397813
 20
61.395917
 10
26.397813
 20
47.456096
 42
0.904015
 10
23.997813
 20
71.19938499999999
 42
0.904015
 10
21.597813
 20
47.456096
  0
LWPOLYLINE
  5
87
330
1F
100
AcDbEntity
  8
external cut
100
AcDbPolyline
 90
       15
 70
   128
 43
0.0
 10
854.72792
 20
71.259225
 10
854.72792
 20
89.43433500000001
 42
0.4142140000000001
 10
849.927921
 20
94.23433499999999
 10
689.224678
 20
94.23433499999999
 42
0.4142140000000001
 10
684.4246779999999
 20
89.43433500000001
 10
684.4246779999999
 20
71.259225
 10
735.3763
 20
71.259225
 10
735.3763
 20
81.02435699999999
 10
740.1762999999999
 20
81.02435699999999
 10
740.1762999999999
 20
71.259225
 10
798.976299
 20
71.259225
 10
798.976299
 20
81.02435699999999
 10
803.776299
 20
81.02435699999999
 10
803.776299
 20
71.259225
 10
854.72792
 20
71.259225
  0
LWPOLYLINE
  5
88
330
1F
100
AcDbEntity
  8
external cut
100
AcDbPolyline
 90
       17
 70
   128
 43
0.0
 10
614.578969
 20
63.305246
 10
614.578969
 20
142.8355089999999
 42
0.4142140000000001
 10
606.578969
 20
150.835508
 10
433.427149
 20
150.835508
 42
0.4142140000000001
 10
425.427149
 20
142.8355089999999
 10
425.427149
 20
63.305246
 42
0.4142140000000001
 10
433.427149
 20
55.30524599999999
 10
485.8030589999999
 20
55.30524599999999
 10
485.8030589999999
 20
65.070378
 10
490.6030589999999
 20
65.070378
 10
490.6030589999999
 20
55.30524599999999
 10
549.4030579999999
 20
55.30524599999999
 10
549.4030579999999
 20
65.070378
 10
554.203058
 20
65.070378
 10
554.203058
 20
55.30524599999999
 10
606.578969
 20
55.30524599999999
 42
0.4142140000000001
 10
614.578969
 20
63.305246
  0
LWPOLYLINE
  5
89
330
1F
100
AcDbEntity
  8
external cut
100
AcDbPolyline
 90
        5
 70
   128
 43
0.0
 10
395.971412
 20
91.317835
 10
252.419591
 20
91.317835
 10
252.419591
 20
168.83955
 10
395.971412
 20
168.83955
 10
395.971412
 20
91.317835
  0
LWPOLYLINE
  5
8A
330
1F
100
AcDbEntity
  8
external cut
100
AcDbPolyline
 90
       25
 70
   128
 43
0.0
 10
505.323915
 20
290.5975799999999
 10
498.648018
 20
290.5975799999999
 42
0.4142140000000001
 10
497.048018
 20
288.9975799999999
 10
497.048018
 20
282.9975799999999
 10
488.3321269999999
 20
282.9975799999999
 10
488.3321269999999
 20
281.6660299999999
 42
-0.4142140000000001
 10
481.9321269999999
 20
275.26603
 10
432.40312
 20
275.26603
 42
-0.4142140000000001
 10
426.003121
 20
281.6660299999999
 10
426.003121
 20
282.9975799999999
 10
417.2872289999999
 20
282.9975799999999
 10
417.2872289999999
 20
288.9975799999999
 42
0.4142140000000001
 10
415.6872289999999
 20
290.5975799999999
 10
409.0113319999999
 20
290.5975799999999
 42
0.4142140000000001
 10
407.4113319999999
 20
288.9975799999999
 10
407.4113319999999
 20
282.9975799999999
 10
401.6497
 20
282.9975799999999
 42
0.304566
 10
414.712097
 20
268.9012319999999
 42
0.058108
 10
416.552814
 20
268.6865879999999
 10
497.7824339999999
 20
268.6865879999999
 42
0.058108
 10
499.6231509999999
 20
268.9012319999999
 42
0.304566
 10
512.6855469999999
 20
282.9975799999999
 10
506.923915
 20
282.9975799999999
 10
506.923915
 20
288.9975799999999
 42
0.4142140000000001
 10
505.323915
 20
290.5975799999999
  0
LWPOLYLINE
  5
8B
330
1F
100
AcDbEntity
  8
external cut
100
AcDbPolyline
 90
      168
 70
   128
 43
0.0
 10
564.0819309999999
 20
445.262168
 10
564.0819309999999
 20
474.830432
 10
568.881931
 20
474.830432
 10
568.881931
 20
468.599237
 10
579.2819309999999
 20
468.599237
 10
579.2819309999999
 20
477.702686
 10
584.0819309999999
 20
477.702686
 10
584.0809249999999
 20
459.3835879999999
 10
609.615349
 20
457.6852749999999
 10
609.2968009999999
 20
452.895857
 10
637.7533639999999
 20
451.0031889999999
 10
638.071912
 20
455.792608
 10
661.076832
 20
454.2625329999999
 10
660.758284
 20
449.473115
 10
675.418222
 20
448.498072
 10
673.257429
 20
456.2585789999999
 10
677.8815309999999
 20
457.5460889999999
 10
680.7553679999999
 20
447.2246769999999
 10
687.7573110000001
 20
449.7961179999999
 10
687.7573110000001
 20
484.3625129999999
 10
708.181373
 20
484.3625129999999
 10
713.3302089999999
 20
475.884391
 10
717.1023230000001
 20
476.1170009999999
 10
717.3977559999999
 20
471.326101
 10
730.605371
 20
472.140555
 10
730.3099379999999
 20
476.9314549999999
 10
740.994142
 20
477.5903009999999
 10
738.773482
 20
484.108757
 10
743.3170589999999
 20
485.6566289999999
 10
753.763699
 20
454.9918789999999
 10
778.9071579999999
 20
454.9918789999999
 10
778.9071579999999
 20
450.191879
 10
811.5615389999998
 20
450.191879
 10
811.5615389999998
 20
454.9918789999999
 10
836.647271
 20
454.9918789999999
 10
836.647271
 20
458.231008
 10
841.4472710000001
 20
458.231008
 10
841.4472710000001
 20
483.831008
 10
836.647271
 20
483.831008
 10
836.647271
 20
494.164241
 10
830.8730370000001
 20
494.164241
 10
830.8730370000001
 20
498.964241
 10
841.4949979999999
 20
498.964241
 10
834.6931149999999
 20
509.542608
 10
810.439401
 20
509.542608
 10
804.4532679999999
 20
527.497035
 10
789.2103929999999
 20
527.497035
 10
789.2103929999999
 20
513.520528
 10
784.410394
 20
513.520528
 10
784.410394
 20
527.497035
 10
769.740701
 20
527.497035
 10
756.0444539999999
 20
506.3203099999999
 10
627.183332
 20
506.3203099999999
 10
613.726908
 20
527.497035
 10
605.7204349999999
 20
527.497035
 10
605.7204349999999
 20
513.520528
 10
600.920435
 20
513.520528
 10
600.920435
 20
528.789907
 42
0.25005
 10
590.21724
 20
525.3657919999999
 10
564.8032329999999
 20
492.942822
 10
574.3281009999999
 20
492.942822
 10
574.3281009999999
 20
488.1503659999999
 10
561.0607459999999
 20
488.1627579999999
 42
0.228903
 10
557.298764
 20
486.349599
 10
556.818608
 20
485.745553
 10
556.743073
 20
485.650516
 10
556.660871
 20
485.547017
 10
556.5725399999999
 20
485.435654
 10
556.4786139999999
 20
485.3170269999999
 10
556.3796299999999
 20
485.1917339999999
 10
556.2761230000001
 20
485.060374
 10
556.1686309999999
 20
484.923546
 10
556.057689
 20
484.7818479999999
 10
555.943833
 20
484.635878
 10
555.8275980000001
 20
484.486237
 10
555.7095219999999
 20
484.3335219999999
 10
555.590141
 20
484.178332
 10
555.4699889999999
 20
484.0212669999999
 10
555.3496039999999
 20
483.862923
 10
555.2295209999999
 20
483.7039019999999
 10
555.110276
 20
483.5448
 10
554.9924059999999
 20
483.3862159999999
 10
554.876446
 20
483.2287509999999
 10
554.7629329999999
 20
483.0730009999999
 10
554.6524019999999
 20
482.9195669999999
 10
554.545287
 20
482.768887
 10
554.4416049999999
 20
482.620768
 10
554.341273
 20
482.474857
 10
554.2442059999999
 20
482.3308009999999
 10
554.1503190000001
 20
482.188247
 10
554.0595279999999
 20
482.046843
 10
553.9717469999999
 20
481.906235
 10
553.8868929999999
 20
481.766071
 10
553.8048809999999
 20
481.625998
 10
553.725626
 20
481.485663
 10
553.649044
 20
481.344713
 10
553.57505
 20
481.2027959999999
 10
553.5035589999999
 20
481.059558
 10
553.4344869999999
 20
480.9146469999999
 10
553.36775
 20
480.7677099999999
 10
553.303262
 20
480.6183929999999
 10
553.2409389999998
 20
480.466345
 10
553.1806959999999
 20
480.311212
 10
553.1224499999999
 20
480.152642
 10
553.0661150000001
 20
479.9902809999999
 10
553.0116089999999
 20
479.8238809999999
 10
552.9588639999999
 20
479.653609
 10
552.907813
 20
479.479733
 10
552.858391
 20
479.302526
 10
552.8105309999999
 20
479.1222559999999
 10
552.764167
 20
478.939195
 10
552.719233
 20
478.753612
 10
552.6756619999999
 20
478.565778
 10
552.63339
 20
478.3759639999999
 10
552.592349
 20
478.1844389999999
 10
552.552473
 20
477.991474
 10
552.513697
 20
477.7973389999999
 10
552.4759539999999
 20
477.602304
 10
552.439178
 20
477.40664
 10
552.403303
 20
477.2106179999999
 10
552.3682629999999
 20
477.0145059999999
 10
552.3339909999999
 20
476.8185769999999
 10
552.300423
 20
476.623099
 10
552.2674900000001
 20
476.4283429999999
 10
552.235129
 20
476.23458
 10
552.203286
 20
476.042075
 10
552.171968
 20
475.851077
 10
552.141198
 20
475.66183
 10
552.110997
 20
475.474578
 10
552.081386
 20
475.289563
 10
552.052387
 20
475.1070309999999
 10
552.0240209999999
 20
474.9272259999999
 10
551.996309
 20
474.75039
 10
551.969274
 20
474.576769
 10
551.942937
 20
474.4066049999999
 10
551.917319
 20
474.240144
 10
551.8924419999999
 20
474.077628
 10
551.8683269999999
 20
473.919302
 10
551.844996
 20
473.7654089999999
 10
551.8224700000001
 20
473.616194
 10
551.8007709999999
 20
473.4719
 10
551.77992
 20
473.332772
 10
551.7599389999999
 20
473.199053
 10
551.740849
 20
473.0709860000001
 10
551.722672
 20
472.948817
 10
551.705421
 20
472.8327209999999
 10
551.6890789999999
 20
472.722603
 10
551.67362
 20
472.6183009999999
 10
551.6590169999999
 20
472.5196509999999
 10
551.645246
 20
472.426491
 10
551.632279
 20
472.338659
 10
551.620093
 20
472.255991
 10
551.60866
 20
472.1783249999999
 10
551.5979549999999
 20
472.105498
 10
551.5879529999999
 20
472.0373480000001
 10
551.5786259999999
 20
471.973711
 10
551.5699509999999
 20
471.914426
 10
551.5619
 20
471.859328
 10
551.554448
 20
471.808256
 10
551.54757
 20
471.7610469999999
 10
551.541239
 20
471.7175379999999
 10
551.53543
 20
471.677567
 10
551.5301159999999
 20
471.64097
 10
551.5252730000001
 20
471.607585
 10
551.492975
 20
471.3848419999999
 42
0.099481
 10
551.8352039999999
 20
465.089754
 10
556.953396
 20
445.262168
 10
564.0819309999999
 20
445.262168
  0
LWPOLYLINE
  5
8C
330
1F
100
AcDbEntity
  8
external cut
100
AcDbPolyline
 90
       25
 70
   128
 43
0.0
 10
833.006476
 20
270.496667
 10
833.006476
 20
316.4641159999999
 10
817.9609499999999
 20
316.4641159999999
 10
817.9609499999999
 20
321.7024499999999
 42
0.137155
 10
817.265021
 20
324.191748
 42
0.5630270000000001
 10
771.241953
 20
324.191748
 42
0.137155
 10
770.5460229999999
 20
321.7024499999999
 10
770.5460229999999
 20
316.4641159999999
 10
751.915108
 20
316.4641159999999
 10
751.915108
 20
321.7024499999999
 42
0.137155
 10
751.2191790000001
 20
324.191748
 42
0.5630270000000001
 10
705.1961099999999
 20
324.191748
 42
0.137155
 10
704.500181
 20
321.7024499999999
 10
704.500181
 20
316.4641159999999
 10
689.454655
 20
316.4641159999999
 10
689.454655
 20
270.496667
 10
727.030566
 20
270.496667
 10
727.030566
 20
280.2617989999999
 10
731.830566
 20
280.2617989999999
 10
731.830566
 20
270.496667
 10
790.6305650000001
 20
270.496667
 10
790.6305650000001
 20
280.2617989999999
 10
795.430565
 20
280.2617989999999
 10
795.430565
 20
270.496667
 10
833.006476
 20
270.496667
  0
LWPOLYLINE
  5
8D
330
1F
100
AcDbEntity
  8
external cut
100
AcDbPolyline
 90
       21
 70
   128
 43
0.0
 10
601.106401
 20
38.78499199999999
 10
601.106401
 20
40.49643399999999
 42
0.4142140000000001
 10
597.906401
 20
43.696434
 10
442.4132489999999
 20
43.696434
 42
0.4142140000000001
 10
439.213249
 20
40.49643399999999
 10
439.213249
 20
38.78499199999999
 42
0.4142140000000001
 10
442.4132489999999
 20
35.58499199999999
 10
471.2823389999999
 20
35.58499199999999
 10
478.1080489999999
 20
15.482623
 10
485.959825
 20
15.482623
 10
485.959825
 20
25.247755
 10
490.7598249999999
 20
25.247755
 10
490.7598249999999
 20
15.482623
 10
549.559824
 20
15.482623
 10
549.559824
 20
25.247755
 10
554.359824
 20
25.247755
 10
554.359824
 20
15.482623
 10
562.211601
 20
15.482623
 10
569.037311
 20
35.58499199999999
 10
597.906401
 20
35.58499199999999
 42
0.4142140000000001
 10
601.106401
 20
38.78499199999999
  0
LWPOLYLINE
  5
8E
330
1F
100
AcDbEntity
  8
external cut
100
AcDbPolyline
 90
       17
 70
   128
 43
0.0
 10
48.427387
 20
491.8363209999999
 10
55.03183899999999
 20
491.8363209999999
 42
0.4142140000000001
 10
56.63183899999999
 20
493.4363209999999
 10
56.63183899999999
 20
499.436321
 10
66.41038299999999
 20
499.436321
 42
0.4142140000000001
 10
68.01038299999999
 20
501.036321
 10
68.01038299999999
 20
503.4784259999999
 10
74.41038299999999
 20
503.4784259999999
 10
74.41038299999999
 20
504.9730849999999
 42
0.075189
 10
29.04884299999999
 20
504.9730849999999
 10
29.04884299999999
 20
503.4784259999999
 10
35.44884299999999
 20
503.4784259999999
 10
35.44884299999999
 20
501.036321
 42
0.4142140000000001
 10
37.04884299999999
 20
499.436321
 10
46.827388
 20
499.436321
 10
46.827388
 20
493.4363209999999
 42
0.4142140000000001
 10
48.427387
 20
491.8363209999999
  0
LWPOLYLINE
  5
8F
330
1F
100
AcDbEntity
  8
external cut
100
AcDbPolyline
 90
        9
 70
   128
 43
0.0
 10
832.4525429999999
 20
438.597502
 10
832.4525429999999
 20
349.7304619999999
 10
688.900723
 20
349.7304619999999
 10
688.900723
 20
438.597502
 10
726.476634
 20
438.597502
 10
726.476634
 20
423.376224
 10
794.876632
 20
423.376224
 10
794.876632
 20
438.597502
 10
832.4525429999999
 20
438.597502
  0
LWPOLYLINE
  5
90
330
1F
100
AcDbEntity
  8
external cut
100
AcDbPolyline
 90
        5
 70
   128
 43
0.0
 10
81.339631
 20
124.5080989999999
 42
-0.4142140000000001
 10
46.8327
 20
90.001169
 42
-0.4142140000000001
 10
12.32577
 20
124.5080989999999
 42
-0.4142140000000001
 10
46.8327
 20
159.0150299999999
 42
-0.4142140000000001
 10
81.339631
 20
124.5080989999999
  0
LWPOLYLINE
  5
91
330
1F
100
AcDbEntity
  8
external cut
100
AcDbPolyline
 90
        5
 70
   128
 43
0.0
 10
159.503693
 20
150.433724
 42
-0.4142140000000001
 10
124.9967629999999
 20
115.9267929999999
 42
-0.4142140000000001
 10
90.489832
 20
150.433724
 42
-0.4142140000000001
 10
124.9967629999999
 20
184.940654
 42
-0.4142140000000001
 10
159.503693
 20
150.433724
  0
LWPOLYLINE
  5
92
330
1F
100
AcDbEntity
  8
external cut
100
AcDbPolyline
 90
        5
 70
   128
 43
0.0
 10
81.339631
 20
200.521961
 42
-0.4142140000000001
 10
46.8327
 20
166.0150299999999
 42
-0.4142140000000001
 10
12.32577
 20
200.521961
 42
-0.4142140000000001
 10
46.8327
 20
235.028891
 42
-0.4142140000000001
 10
81.339631
 20
200.521961
  0
LWPOLYLINE
  5
93
330
1F
100
AcDbEntity
  8
external cut
100
AcDbPolyline
 90
        5
 70
   128
 43
0.0
 10
81.339631
 20
276.5358219999999
 42
-0.4142140000000001
 10
46.8327
 20
242.028891
 42
-0.4142140000000001
 10
12.32577
 20
276.5358219999999
 42
-0.4142140000000001
 10
46.8327
 20
311.042752
 42
-0.4142140000000001
 10
81.339631
 20
276.5358219999999
  0
LWPOLYLINE
  5
94
330
1F
100
AcDbEntity
  8
external cut
100
AcDbPolyline
 90
        5
 70
   128
 43
0.0
 10
81.339631
 20
352.549683
 42
-0.4142140000000001
 10
46.8327
 20
318.042752
 42
-0.4142140000000001
 10
12.32577
 20
352.549683
 42
-0.4142140000000001
 10
46.8327
 20
387.0566129999999
 42
-0.4142140000000001
 10
81.339631
 20
352.549683
  0
LWPOLYLINE
  5
95
330
1F
100
AcDbEntity
  8
external cut
100
AcDbPolyline
 90
        5
 70
   128
 43
0.0
 10
81.339631
 20
428.563544
 42
-0.4142140000000001
 10
46.8327
 20
394.0566129999999
 42
-0.4142140000000001
 10
12.32577
 20
428.563544
 42
-0.4142140000000001
 10
46.8327
 20
463.0704749999999
 42
-0.4142140000000001
 10
81.339631
 20
428.563544
  0
LWPOLYLINE
  5
96
330
1F
100
AcDbEntity
  8
external cut
100
AcDbPolyline
 90
        5
 70
   128
 43
0.0
 10
237.107028
 20
111.632056
 42
-0.4142140000000001
 10
202.600097
 20
77.125126
 42
-0.4142140000000001
 10
168.0931669999999
 20
111.632056
 42
-0.4142140000000001
 10
202.600097
 20
146.138987
 42
-0.4142140000000001
 10
237.107028
 20
111.632056
  0
LWPOLYLINE
  5
97
330
1F
100
AcDbEntity
  8
external cut
100
AcDbPolyline
 90
        5
 70
   128
 43
0.0
 10
237.107028
 20
196.235391
 42
-0.4142140000000001
 10
202.600097
 20
161.72846
 42
-0.4142140000000001
 10
168.0931669999999
 20
196.235391
 42
-0.4142140000000001
 10
202.600097
 20
230.742322
 42
-0.4142140000000001
 10
237.107028
 20
196.235391
  0
LWPOLYLINE
  5
98
330
1F
100
AcDbEntity
  8
external cut
100
AcDbPolyline
 90
        5
 70
   128
 43
0.0
 10
159.503693
 20
235.0370579999999
 42
-0.4142140000000001
 10
124.9967629999999
 20
200.5301279999999
 42
-0.4142140000000001
 10
90.489832
 20
235.0370579999999
 42
-0.4142140000000001
 10
124.9967629999999
 20
269.543989
 42
-0.4142140000000001
 10
159.503693
 20
235.0370579999999
  0
LWPOLYLINE
  5
99
330
1F
100
AcDbEntity
  8
external cut
100
AcDbPolyline
 90
        5
 70
   128
 43
0.0
 10
159.503693
 20
319.640393
 42
-0.4142140000000001
 10
124.9967629999999
 20
285.133463
 42
-0.4142140000000001
 10
90.489832
 20
319.640393
 42
-0.4142140000000001
 10
124.9967629999999
 20
354.147324
 42
-0.4142140000000001
 10
159.503693
 20
319.640393
  0
LWPOLYLINE
  5
9A
330
1F
100
AcDbEntity
  8
external cut
100
AcDbPolyline
 90
        5
 70
   128
 43
0.0
 10
237.107028
 20
280.8387259999999
 42
-0.4142140000000001
 10
202.600097
 20
246.331795
 42
-0.4142140000000001
 10
168.0931669999999
 20
280.8387259999999
 42
-0.4142140000000001
 10
202.600097
 20
315.345656
 42
-0.4142140000000001
 10
237.107028
 20
280.8387259999999
  0
LWPOLYLINE
  5
9B
330
1F
100
AcDbEntity
  8
external cut
100
AcDbPolyline
 90
        5
 70
   128
 43
0.0
 10
237.107028
 20
365.44206
 42
-0.4142140000000001
 10
202.600097
 20
330.9351299999999
 42
-0.4142140000000001
 10
168.0931669999999
 20
365.44206
 42
-0.4142140000000001
 10
202.600097
 20
399.948991
 42
-0.4142140000000001
 10
237.107028
 20
365.44206
  0
LWPOLYLINE
  5
9C
330
1F
100
AcDbEntity
  8
external cut
100
AcDbPolyline
 90
        5
 70
   128
 43
0.0
 10
159.503693
 20
404.2437279999999
 42
-0.4142140000000001
 10
124.9967629999999
 20
369.736797
 42
-0.4142140000000001
 10
90.489832
 20
404.2437279999999
 42
-0.4142140000000001
 10
124.9967629999999
 20
438.750658
 42
-0.4142140000000001
 10
159.503693
 20
404.2437279999999
  0
LWPOLYLINE
  5
9D
330
1F
100
AcDbEntity
  8
external cut
100
AcDbPolyline
 90
        5
 70
   128
 43
0.0
 10
159.503693
 20
488.8470629999999
 42
-0.4142140000000001
 10
124.9967629999999
 20
454.340132
 42
-0.4142140000000001
 10
90.489832
 20
488.8470629999999
 42
-0.4142140000000001
 10
124.9967629999999
 20
523.3539929999999
 42
-0.4142140000000001
 10
159.503693
 20
488.8470629999999
  0
LWPOLYLINE
  5
9E
330
1F
100
AcDbEntity
  8
external cut
100
AcDbPolyline
 90
        5
 70
   128
 43
0.0
 10
237.107028
 20
450.045395
 42
-0.4142140000000001
 10
202.600097
 20
415.538465
 42
-0.4142140000000001
 10
168.0931669999999
 20
450.045395
 42
-0.4142140000000001
 10
202.600097
 20
484.552326
 42
-0.4142140000000001
 10
237.107028
 20
450.045395
  0
LWPOLYLINE
  5
9F
330
1F
100
AcDbEntity
  8
external cut
100
AcDbPolyline
 90
       44
 70
   128
 43
0.0
 10
420.0979269999999
 20
361.491497
 10
420.0979269999999
 20
372.187592
 10
448.843291
 20
372.187592
 10
480.996164
 20
398.909736
 10
500.116611
 20
398.909736
 10
500.116611
 20
403.7097359999999
 10
524.116611
 20
403.7097359999999
 10
524.116611
 20
398.909736
 10
545.7166110000001
 20
398.909736
 10
545.7166110000001
 20
403.7097359999999
 10
569.7166099999999
 20
403.7097359999999
 10
569.7166099999999
 20
398.909736
 10
584.4858299999999
 20
398.909736
 42
0.790358
 10
663.062454
 20
401.082822
 10
677.4632669999999
 20
401.082822
 10
677.4632669999999
 20
389.167135
 10
672.663267
 20
389.167135
 42
1.0
 10
672.663267
 20
384.367135
 10
672.663267
 20
370.477504
 42
1.0
 10
672.663267
 20
365.6775039999999
 10
677.4632669999999
 20
365.6775039999999
 10
677.4632669999999
 20
349.9571829999999
 10
673.9468969999999
 20
339.8953139999999
 10
669.415635
 20
341.4788759999999
 42
1.0
 10
667.832073
 20
336.9476139999999
 10
664.280025
 20
326.783654
 42
1.0
 10
662.6964629999999
 20
322.252393
 10
667.2277239999999
 20
320.668831
 10
662.0291589999999
 20
305.793468
 10
632.0114969999999
 20
305.793468
 10
632.0114969999999
 20
310.593468
 42
1.0
 10
627.211497
 20
310.593468
 10
612.825986
 20
310.593468
 42
1.0
 10
608.0259859999999
 20
310.593468
 10
608.0259859999999
 20
305.793468
 10
525.251026
 20
305.793468
 10
516.652407
 20
336.675482
 10
521.276509
 20
337.9629919999999
 42
1.0
 10
519.988999
 20
342.5870939999999
 10
518.9174389999999
 20
346.435612
 42
1.0
 10
517.6299289999999
 20
351.0597139999999
 10
513.0058269999999
 20
349.7722039999999
 10
511.434218
 20
355.4166519999999
 10
420.0979269999999
 20
361.491497
  0
LWPOLYLINE
  5
A0
330
1F
100
AcDbEntity
  8
external cut
100
AcDbPolyline
 90
       25
 70
   128
 43
0.0
 10
420.0979269999999
 20
396.109736
 10
420.0979269999999
 20
403.7097359999999
 10
448.843291
 20
403.7097359999999
 10
480.996164
 20
430.4318799999999
 10
500.116611
 20
430.4318799999999
 10
500.116611
 20
435.2318799999999
 10
524.116611
 20
435.2318799999999
 10
524.116611
 20
430.4318799999999
 10
545.7166110000001
 20
430.4318799999999
 10
545.7166110000001
 20
435.2318799999999
 10
569.7166099999999
 20
435.2318799999999
 10
569.7166099999999
 20
430.4318799999999
 10
584.4858299999999
 20
430.4318799999999
 42
0.790358
 10
663.062454
 20
432.604965
 10
677.4632669999999
 20
432.604965
 10
677.4632669999999
 20
422.8318799999999
 10
673.102078
 20
422.8318799999999
 42
0.278811
 10
666.0178809999999
 20
418.5486209999999
 42
-0.604622
 10
581.014413
 20
418.5486209999999
 42
0.278811
 10
573.930217
 20
422.8318799999999
 10
486.632487
 20
422.8318799999999
 42
0.175112
 10
481.5191379999999
 20
420.9844129999999
 10
453.812118
 20
397.9572029999999
 42
-0.175112
 10
448.698769
 20
396.109736
 10
420.0979269999999
 20
396.109736
  0
LWPOLYLINE
  5
A1
330
1F
100
AcDbEntity
  8
external cut
100
AcDbPolyline
 90
       25
 70
   128
 43
0.0
 10
505.626575
 20
300.4199009999999
 10
498.950678
 20
300.4199009999999
 42
-0.4142140000000001
 10
497.350678
 20
302.019901
 10
497.350678
 20
308.019901
 10
488.6347859999999
 20
308.019901
 10
488.6347859999999
 20
309.3514509999999
 42
0.4142140000000001
 10
482.234786
 20
315.7514509999999
 10
432.70578
 20
315.7514509999999
 42
0.4142140000000001
 10
426.3057799999999
 20
309.3514509999999
 10
426.3057799999999
 20
308.019901
 10
417.589888
 20
308.019901
 10
417.589888
 20
302.019901
 42
-0.4142140000000001
 10
415.989888
 20
300.4199009999999
 10
409.3139909999999
 20
300.4199009999999
 42
-0.4142140000000001
 10
407.713991
 20
302.019901
 10
407.713991
 20
308.019901
 10
401.95236
 20
308.019901
 42
-0.304566
 10
415.014756
 20
322.116249
 42
-0.058108
 10
416.855473
 20
322.3308929999999
 10
498.0850929999999
 20
322.3308929999999
 42
-0.058108
 10
499.9258099999999
 20
322.116249
 42
-0.304566
 10
512.9882059999999
 20
308.019901
 10
507.226575
 20
308.019901
 10
507.226575
 20
302.019901
 42
-0.4142140000000001
 10
505.626575
 20
300.4199009999999
  0
LWPOLYLINE
  5
A2
330
1F
100
AcDbEntity
  8
external cut
100
AcDbPolyline
 90
        6
 70
   128
 43
0.0
 10
54.19577
 20
47.456096
 10
54.19577
 20
61.395917
 10
58.99576899999999
 20
61.395917
 10
58.99576899999999
 20
47.456096
 42
0.904015
 10
56.59576999999999
 20
71.19938499999999
 42
0.904015
 10
54.19577
 20
47.456096
  0
LWPOLYLINE
  5
A3
330
1F
100
AcDbEntity
  8
external cut
100
AcDbPolyline
 90
        6
 70
   128
 43
0.0
 10
86.793726
 20
47.456096
 10
86.793726
 20
61.395917
 10
91.59372600000001
 20
61.395917
 10
91.59372600000001
 20
47.456096
 42
0.904015
 10
89.193726
 20
71.19938499999999
 42
0.904015
 10
86.793726
 20
47.456096
  0
LWPOLYLINE
  5
A4
330
1F
100
AcDbEntity
  8
external cut
100
AcDbPolyline
 90
        6
 70
   128
 43
0.0
 10
119.391683
 20
47.456096
 10
119.391683
 20
61.395917
 10
124.1916819999999
 20
61.395917
 10
124.1916819999999
 20
47.456096
 42
0.904015
 10
121.791683
 20
71.19938499999999
 42
0.904015
 10
119.391683
 20
47.456096
  0
LWPOLYLINE
  5
A5
330
1F
100
AcDbEntity
  8
external cut
100
AcDbPolyline
 90
        6
 70
   128
 43
0.0
 10
151.9896389999999
 20
47.456096
 10
151.9896389999999
 20
61.395917
 10
156.789639
 20
61.395917
 10
156.789639
 20
47.456096
 42
0.904015
 10
154.389639
 20
71.19938499999999
 42
0.904015
 10
151.9896389999999
 20
47.456096
  0
LWPOLYLINE
  5
A6
330
1F
100
AcDbEntity
  8
external cut
100
AcDbPolyline
 90
        6
 70
   128
 43
0.0
 10
21.615378
 20
6.712928999999999
 10
21.615378
 20
28.721378
 10
26.415378
 20
28.721378
 10
26.415378
 20
6.712928999999999
 42
0.9274139999999999
 10
24.01537799999999
 20
38.531905
 42
0.9274139999999999
 10
21.615378
 20
6.712928999999999
  0
LWPOLYLINE
  5
A7
330
1F
100
AcDbEntity
  8
external cut
100
AcDbPolyline
 90
        6
 70
   128
 43
0.0
 10
60.614425
 20
6.712928999999999
 10
60.614425
 20
28.721378
 10
65.41442499999999
 20
28.721378
 10
65.41442499999999
 20
6.712928999999999
 42
0.9274139999999999
 10
63.014425
 20
38.531905
 42
0.9274139999999999
 10
60.614425
 20
6.712928999999999
  0
LWPOLYLINE
  5
A8
330
1F
100
AcDbEntity
  8
external cut
100
AcDbPolyline
 90
        6
 70
   128
 43
0.0
 10
99.61347099999999
 20
6.712928999999999
 10
99.61347099999999
 20
28.721378
 10
104.413471
 20
28.721378
 10
104.413471
 20
6.712928999999999
 42
0.9274139999999999
 10
102.013471
 20
38.531905
 42
0.9274139999999999
 10
99.61347099999999
 20
6.712928999999999
  0
LWPOLYLINE
  5
A9
330
1F
100
AcDbEntity
  8
external cut
100
AcDbPolyline
 90
        6
 70
   128
 43
0.0
 10
138.612518
 20
6.712928999999999
 10
138.612518
 20
28.721378
 10
143.4125169999999
 20
28.721378
 10
143.4125169999999
 20
6.712928999999999
 42
0.9274139999999999
 10
141.012518
 20
38.531905
 42
0.9274139999999999
 10
138.612518
 20
6.712928999999999
  0
LWPOLYLINE
  5
AA
330
1F
100
AcDbEntity
  8
external cut
100
AcDbPolyline
 90
       40
 70
   128
 43
0.0
 10
632.6125959999999
 20
6.703664999999999
 10
642.2125959999999
 20
6.703664999999999
 42
0.4142140000000001
 10
645.4125959999999
 20
9.903665
 10
645.4125959999999
 20
11.503665
 10
637.412596
 20
11.503665
 10
637.412596
 20
16.303664
 10
645.4125959999999
 20
16.303664
 10
645.4125959999999
 20
31.003664
 10
642.2125959999999
 20
31.003664
 10
642.2125959999999
 20
35.803664
 10
650.2125959999999
 20
35.803664
 10
650.2125959999999
 20
58.979575
 10
636.616125
 20
58.979575
 10
636.616125
 20
63.779575
 10
650.2125959999999
 20
63.779575
 10
650.2125959999999
 20
122.5795739999999
 10
636.616125
 20
122.5795739999999
 10
636.616125
 20
127.379574
 10
650.2125959999999
 20
127.379574
 10
650.2125959999999
 20
150.555485
 10
642.2125959999999
 20
150.555485
 10
642.2125959999999
 20
155.355485
 10
645.4125959999999
 20
155.205485
 10
645.4125959999999
 20
169.905485
 10
637.412596
 20
170.055485
 10
637.412596
 20
174.855485
 10
645.4125959999999
 20
174.855485
 10
645.4125959999999
 20
176.455485
 42
0.4142140000000001
 10
642.2125959999999
 20
179.6554849999999
 10
632.6125959999999
 20
179.6554849999999
 42
0.4142140000000001
 10
629.412596
 20
176.305485
 10
629.412596
 20
158.5995979999999
 42
-0.4142140000000001
 10
629.412596
 20
155.355485
 42
-0.4142140000000001
 10
626.0184839999999
 20
155.355485
 10
624.6125959999999
 20
155.355485
 10
624.6125959999999
 20
31.003664
 10
626.0184839999999
 20
31.003664
 42
-1.0
 10
629.412596
 20
27.609552
 10
629.412596
 20
9.903665
 42
0.4142140000000001
 10
632.6125959999999
 20
6.703664999999999
  0
LWPOLYLINE
  5
AB
330
1F
100
AcDbEntity
  8
external cut
100
AcDbPolyline
 90
       25
 70
   128
 43
0.0
 10
886.7091269999999
 20
168.457736
 10
866.129783
 20
143.496093
 10
853.2294109999998
 20
143.496093
 10
853.2294109999998
 20
164.322071
 10
848.429411
 20
164.322071
 10
848.429411
 20
192.4396139999999
 42
-0.491191
 10
837.8064759999999
 20
200.644123
 42
-0.491191
 10
848.429411
 20
208.848632
 10
848.429411
 20
243.45368
 42
-0.491191
 10
837.8064759999999
 20
251.658189
 42
-0.491191
 10
848.429411
 20
259.862698
 10
848.429411
 20
287.9802419999999
 10
853.2294109999998
 20
287.9802419999999
 10
853.2294109999998
 20
308.806219
 10
866.129783
 20
308.806219
 10
886.7091269999999
 20
283.844577
 10
886.7091269999999
 20
259.951156
 10
876.943995
 20
259.951156
 10
876.943995
 20
255.151156
 10
886.7091269999999
 20
255.151156
 10
886.7091269999999
 20
197.151157
 10
876.943995
 20
197.151157
 10
876.943995
 20
192.351157
 10
886.7091269999999
 20
192.351157
 10
886.7091269999999
 20
168.457736
  0
LWPOLYLINE
  5
AC
330
1F
100
AcDbEntity
  8
external cut
100
AcDbPolyline
 90
       40
 70
   128
 43
0.0
 10
862.074549
 20
331.5275619999999
 10
871.674549
 20
331.5275619999999
 42
0.4142140000000001
 10
874.8745490000001
 20
334.727562
 10
874.8745490000001
 20
336.327562
 10
866.874549
 20
336.327562
 10
866.874549
 20
341.127562
 10
874.8745490000001
 20
341.127562
 10
874.8745490000001
 20
355.8275609999999
 10
871.674549
 20
355.8275609999999
 10
871.674549
 20
360.627561
 10
879.6745490000001
 20
360.627561
 10
879.6745490000001
 20
383.8034719999999
 10
866.0780779999999
 20
383.8034719999999
 10
866.0780779999999
 20
388.6034719999999
 10
879.6745490000001
 20
388.6034719999999
 10
879.6745490000001
 20
447.403471
 10
866.0780779999999
 20
447.403471
 10
866.0780779999999
 20
452.2034709999999
 10
879.6745490000001
 20
452.2034709999999
 10
879.6745490000001
 20
475.379383
 10
871.674549
 20
475.379383
 10
871.674549
 20
480.179382
 10
874.8745490000001
 20
480.029382
 10
874.8745490000001
 20
494.729382
 10
866.874549
 20
494.879382
 10
866.874549
 20
499.679382
 10
874.8745490000001
 20
499.679382
 10
874.8745490000001
 20
501.279382
 42
0.4142140000000001
 10
871.674549
 20
504.479382
 10
862.074549
 20
504.479382
 42
0.4142140000000001
 10
858.874549
 20
501.129382
 10
858.874549
 20
483.4234949999999
 42
-0.4142140000000001
 10
858.874549
 20
480.179382
 42
-0.4142140000000001
 10
855.4804369999999
 20
480.179382
 10
854.0745499999999
 20
480.179382
 10
854.0745499999999
 20
355.8275609999999
 10
855.4804369999999
 20
355.8275609999999
 42
-1.0
 10
858.874549
 20
352.433449
 10
858.874549
 20
334.727562
 42
0.4142140000000001
 10
862.074549
 20
331.5275619999999
  0
LWPOLYLINE
  5
AD
330
1F
100
AcDbEntity
  8
external cut
100
AcDbPolyline
 90
      189
 70
   128
 43
0.0
 10
269.39251
 20
448.794944
 42
0.25005
 10
280.095705
 20
445.370829
 10
280.095705
 20
460.640208
 10
284.8957049999999
 20
460.640208
 10
284.8957049999999
 20
446.663701
 10
292.9021789999999
 20
446.663701
 10
306.358602
 20
467.8404249999999
 10
435.219724
 20
467.8404249999999
 10
448.9159719999999
 20
446.663701
 10
463.5856639999999
 20
446.663701
 10
463.5856639999999
 20
460.640208
 10
468.385664
 20
460.640208
 10
468.385664
 20
446.663701
 10
483.6285379999999
 20
446.663701
 10
489.6146719999999
 20
464.6181269999999
 10
513.8683849999999
 20
464.6181269999999
 10
520.6702679999999
 20
475.196495
 10
510.048307
 20
475.196495
 10
510.048307
 20
479.996495
 10
515.8225419999999
 20
479.996495
 10
515.8225419999999
 20
490.329728
 10
526.6751730000001
 20
490.329728
 10
526.6751730000001
 20
491.735615
 42
-0.4142140000000001
 10
526.6751730000001
 20
495.129728
 42
-0.4142140000000001
 10
530.069286
 20
495.129728
 10
547.775173
 20
495.129728
 42
0.4142140000000001
 10
550.975173
 20
498.329728
 10
550.975173
 20
507.929728
 42
0.4142140000000001
 10
547.775173
 20
511.129728
 10
546.1751730000001
 20
511.129728
 10
546.1751730000001
 20
503.129728
 10
541.375173
 20
503.129728
 10
541.375173
 20
511.129728
 10
526.6751730000001
 20
511.129728
 10
526.6751730000001
 20
515.929728
 10
515.8225419999999
 20
515.929728
 10
515.8225419999999
 20
519.168857
 10
490.7368099999999
 20
519.168857
 10
490.7368099999999
 20
523.9688570000001
 10
458.082428
 20
523.9688570000001
 10
458.082428
 20
519.168857
 10
432.93897
 20
519.168857
 10
422.4923299999999
 20
488.504107
 10
417.9487529999999
 20
490.051979
 10
420.1694119999999
 20
496.570435
 10
409.4852079999999
 20
497.2292809999999
 10
409.780641
 20
502.0201809999999
 10
396.573027
 20
502.8346349999999
 10
396.277593
 20
498.0437349999999
 10
392.5054789999999
 20
498.276344
 10
387.356644
 20
489.7982230000001
 10
366.932581
 20
489.7982230000001
 10
366.932581
 20
507.427719
 10
378.724772
 20
514.929798
 10
376.875946
 20
519.1017279999999
 10
382.694212
 20
521.249536
 42
0.4142140000000001
 10
383.1676639999999
 20
522.2770780000001
 10
382.059483
 20
525.2790669999999
 42
0.4142140000000001
 10
381.0319399999999
 20
525.752518
 10
374.927264
 20
523.4989829999999
 10
373.4245029999999
 20
526.8900059999999
 10
367.064179
 20
524.3162889999999
 10
359.9306389999999
 20
526.9360589999999
 10
357.00259
 20
516.419948
 10
352.3784889999999
 20
517.707458
 10
354.593493
 20
525.6626639999999
 10
339.9335549999999
 20
524.687621
 10
340.252102
 20
519.898203
 10
317.247182
 20
518.368128
 10
316.9286339999999
 20
523.157546
 10
288.4720709999999
 20
521.2648789999999
 10
288.7906189999999
 20
516.475461
 10
263.2561949999999
 20
514.777147
 10
263.257229
 20
495.952787
 10
258.457201
 20
495.952787
 10
258.457201
 20
505.561499
 10
248.0572019999999
 20
505.561499
 10
248.0572019999999
 20
499.3303039999999
 10
243.257202
 20
499.3303039999999
 10
243.257202
 20
528.8985679999999
 10
236.128666
 20
528.8985679999999
 10
231.010475
 20
509.0709819999999
 42
0.099481
 10
230.6682459999999
 20
502.775894
 10
230.700543
 20
502.5531509999999
 10
230.705387
 20
502.5197659999999
 10
230.7107
 20
502.483169
 10
230.7165089999999
 20
502.443197
 10
230.72284
 20
502.3996889999999
 10
230.7297189999999
 20
502.352479
 10
230.7371709999999
 20
502.301408
 10
230.745221
 20
502.2463099999999
 10
230.753897
 20
502.187025
 10
230.763223
 20
502.1233879999999
 10
230.7732259999999
 20
502.055237
 10
230.7839309999999
 20
501.982411
 10
230.7953629999999
 20
501.904745
 10
230.80755
 20
501.822077
 10
230.820516
 20
501.734245
 10
230.834288
 20
501.6410849999999
 10
230.8488899999999
 20
501.5424349999999
 10
230.86435
 20
501.4381329999999
 10
230.8806919999999
 20
501.328015
 10
230.897943
 20
501.2119189999999
 10
230.91612
 20
501.0897499999999
 10
230.9352089999999
 20
500.9616829999999
 10
230.955191
 20
500.8279639999999
 10
230.9760409999999
 20
500.688836
 10
230.997741
 20
500.544542
 10
231.020266
 20
500.3953269999999
 10
231.043598
 20
500.2414339999999
 10
231.067713
 20
500.083108
 10
231.0925899999999
 20
499.920592
 10
231.118208
 20
499.7541309999999
 10
231.144545
 20
499.5839669999999
 10
231.1715799999999
 20
499.4103459999999
 10
231.199291
 20
499.23351
 10
231.2276569999999
 20
499.0537039999999
 10
231.2566569999999
 20
498.871173
 10
231.286268
 20
498.686158
 10
231.3164689999999
 20
498.498906
 10
231.347239
 20
498.309658
 10
231.3785559999999
 20
498.11866
 10
231.4103989999999
 20
497.9261559999999
 10
231.442761
 20
497.7323929999999
 10
231.475693
 20
497.537637
 10
231.509262
 20
497.342159
 10
231.543533
 20
497.1462299999999
 10
231.578574
 20
496.9501179999999
 10
231.614448
 20
496.754095
 10
231.651224
 20
496.558432
 10
231.688967
 20
496.363397
 10
231.727744
 20
496.1692619999999
 10
231.7676189999999
 20
495.9762969999999
 10
231.8086599999999
 20
495.784772
 10
231.8509329999999
 20
495.594958
 10
231.894503
 20
495.407124
 10
231.9394369999999
 20
495.2215409999999
 10
231.9858009999999
 20
495.03848
 10
232.033662
 20
494.85821
 10
232.0830839999999
 20
494.681003
 10
232.134134
 20
494.5071269999999
 10
232.1868799999999
 20
494.3368549999999
 10
232.241385
 20
494.1704549999999
 10
232.29772
 20
494.008094
 10
232.3559669999999
 20
493.849524
 10
232.41621
 20
493.694391
 10
232.4785319999999
 20
493.5423429999999
 10
232.54302
 20
493.3930259999999
 10
232.6097579999999
 20
493.2460889999999
 10
232.67883
 20
493.101178
 10
232.7503209999999
 20
492.95794
 10
232.824315
 20
492.8160219999999
 10
232.900897
 20
492.6750730000001
 10
232.980152
 20
492.5347369999999
 10
233.062164
 20
492.3946639999999
 10
233.147018
 20
492.2545
 10
233.234798
 20
492.1138929999999
 10
233.3255899999999
 20
491.972488
 10
233.4194769999999
 20
491.8299349999999
 10
233.5165439999999
 20
491.685879
 10
233.616876
 20
491.539968
 10
233.720557
 20
491.391849
 10
233.827673
 20
491.2411689999999
 10
233.938204
 20
491.0877349999999
 10
234.051717
 20
490.9319849999999
 10
234.1676759999999
 20
490.774519
 10
234.2855469999999
 20
490.615936
 10
234.404791
 20
490.4568339999999
 10
234.524874
 20
490.297812
 10
234.64526
 20
490.139469
 10
234.765411
 20
489.982403
 10
234.884793
 20
489.8272139999999
 10
235.002869
 20
489.674499
 10
235.1191029999999
 20
489.524857
 10
235.232959
 20
489.3788879999999
 10
235.343902
 20
489.23719
 10
235.4513939999999
 20
489.100362
 10
235.5548999999999
 20
488.9690019999999
 10
235.6538839999999
 20
488.843709
 10
235.74781
 20
488.725082
 10
235.836142
 20
488.613719
 10
235.9183439999999
 20
488.51022
 10
235.993879
 20
488.415183
 10
236.474035
 20
487.811137
 42
0.228903
 10
240.236017
 20
485.997978
 10
253.5033709999999
 20
486.01037
 10
253.5033709999999
 20
481.2179139999999
 10
243.978504
 20
481.2179139999999
 10
269.39251
 20
448.794944
  0
LWPOLYLINE
  5
AE
330
1F
100
AcDbEntity
  8
external cut
100
AcDbPolyline
 90
       11
 70
   128
 43
0.0
 10
754.765837
 20
181.979226
 10
761.5292789999999
 20
181.979226
 42
0.4142140000000001
 10
767.9292789999999
 20
175.5792259999999
 10
818.461989
 20
175.5792259999999
 42
0.4466540000000001
 10
824.8236759999999
 20
182.6784669999999
 10
822.0442789999999
 20
207.965387
 10
694.250837
 20
207.965387
 10
691.471441
 20
182.6784669999999
 42
0.4466540000000001
 10
697.8331279999999
 20
175.5792259999999
 10
748.3658379999999
 20
175.5792259999999
 42
0.4142140000000001
 10
754.765837
 20
181.979226
  0
ENDSEC
  0
SECTION
  2
OBJECTS
  0
DICTIONARY
  5
C
330
0
100
AcDbDictionary
281
     1
  3
ACAD_GROUP
350
D
  3
ACAD_LAYOUT
350
1A
  3
ACAD_MLINESTYLE
350
17
  3
ACAD_PLOTSETTINGS
350
19
  3
ACAD_PLOTSTYLENAME
350
E
  0
DICTIONARY
  5
D
102
{ACAD_REACTORS
330
C
102
}
330
C
100
AcDbDictionary
281
     1
  0
DICTIONARY
  5
1A
102
{ACAD_REACTORS
330
C
102
}
330
C
100
AcDbDictionary
281
     1
  3
Layout1
350
1E
  3
Layout2
350
26
  3
Model
350
22
  0
DICTIONARY
  5
17
102
{ACAD_REACTORS
330
C
102
}
330
C
100
AcDbDictionary
281
     1
  3
Standard
350
18
  0
DICTIONARY
  5
19
102
{ACAD_REACTORS
330
C
102
}
330
C
100
AcDbDictionary
281
     1
  0
ACDBDICTIONARYWDFLT
  5
E
102
{ACAD_REACTORS
330
C
102
}
330
C
100
AcDbDictionary
281
     1
  3
Normal
350
F
100
AcDbDictionaryWithDefault
340
F
  0
LAYOUT
  5
1E
102
{ACAD_REACTORS
330
1A
102
}
330
1A
100
AcDbPlotSettings
  1

  2

  4

  6

 40
0.0
 41
0.0
 42
0.0
 43
0.0
 44
0.0
 45
0.0
 46
0.0
 47
0.0
 48
0.0
 49
0.0
140
0.0
141
0.0
142
1.0
143
1.0
 70
   688
 72
     0
 73
     0
 74
     5
  7

 75
    16
147
1.0
148
0.0
149
0.0
100
AcDbLayout
  1
Layout1
 70
     1
 71
     1
 10
0.0
 20
0.0
 11
420.0
 21
297.0
 12
0.0
 22
0.0
 32
0.0
 14
1.000000000000000E+20
 24
1.000000000000000E+20
 34
1.000000000000000E+20
 15
-1.000000000000000E+20
 25
-1.000000000000000E+20
 35
-1.000000000000000E+20
146
0.0
 13
0.0
 23
0.0
 33
0.0
 16
1.0
 26
0.0
 36
0.0
 17
0.0
 27
1.0
 37
0.0
 76
     0
330
1B
  0
LAYOUT
  5
26
102
{ACAD_REACTORS
330
1A
102
}
330
1A
100
AcDbPlotSettings
  1

  2

  4

  6

 40
0.0
 41
0.0
 42
0.0
 43
0.0
 44
0.0
 45
0.0
 46
0.0
 47
0.0
 48
0.0
 49
0.0
140
0.0
141
0.0
142
1.0
143
1.0
 70
   688
 72
     0
 73
     0
 74
     5
  7

 75
    16
147
1.0
148
0.0
149
0.0
100
AcDbLayout
  1
Layout2
 70
     1
 71
     2
 10
0.0
 20
0.0
 11
0.0
 21
0.0
 12
0.0
 22
0.0
 32
0.0
 14
0.0
 24
0.0
 34
0.0
 15
0.0
 25
0.0
 35
0.0
146
0.0
 13
0.0
 23
0.0
 33
0.0
 16
1.0
 26
0.0
 36
0.0
 17
0.0
 27
1.0
 37
0.0
 76
     0
330
23
  0
LAYOUT
  5
22
102
{ACAD_REACTORS
330
1A
102
}
330
1A
100
AcDbPlotSettings
  1

  2

  4

  6

 40
0.0
 41
0.0
 42
0.0
 43
0.0
 44
0.0
 45
0.0
 46
0.0
 47
0.0
 48
0.0
 49
0.0
140
0.0
141
0.0
142
1.0
143
1.0
 70
  1712
 72
     0
 73
     0
 74
     0
  7

 75
     0
147
1.0
148
0.0
149
0.0
100
AcDbLayout
  1
Model
 70
     1
 71
     0
 10
0.0
 20
0.0
 11
0.0
 21
0.0
 12
0.0
 22
0.0
 32
0.0
 14
0.0
 24
0.0
 34
0.0
 15
0.0
 25
0.0
 35
0.0
146
0.0
 13
0.0
 23
0.0
 33
0.0
 16
1.0
 26
0.0
 36
0.0
 17
0.0
 27
1.0
 37
0.0
 76
     0
330
1F
  0
MLINESTYLE
  5
18
102
{ACAD_REACTORS
330
17
102
}
330
17
100
AcDbMlineStyle
  2
STANDARD
 70
     0
  3

 62
   256
 51
90.0
 52
90.0
 71
     2
 49
1.0
 62
   256
  6
BYLAYER
 49
-1.0
 62
   256
  6
BYLAYER
  0
ACDBPLACEHOLDER
  5
F
102
{ACAD_REACTORS
330
E
102
}
330
E
  0
ENDSEC
  0
EOF
