  0
SECTION
  2
HEADER
  9
$ACADVER
  1
AC1009
  9
$LIMMIN
 10
0.000000
 20
0.000000
  9
$LIMMAX
 10
12.000397
 20
12.000397
  0
ENDSEC
  0
SECTION
  2
TABLES
  0
TABLE
  2
LTYPE
 70
     4
  0
LTYPE
  2
CONTINUOUS
 70
     0
  3
Solid line
 72
     65
 73
     0
 40
0.000000
  0
LTYPE
  2
HIDDEN
 70
     0
  3
 _ _ _ _ _ _ _ _ _ _ _
 72
     65
 73
     2
 40
0.375000
 49
0.250000
 49
-0.125000
  0
LTYPE
  2
DASHED
 70
     0
  3
 ___ ___ ___ ___ ___ ___ ___ 
 72
     65
 73
     2
 40
0.750000
 49
0.500000
 49
-0.250000
  0
LTYPE
  2
CENTER
 70
     0
  3
___ _ ___ _ ___ _ ___
 72
     65
 73
     4
 40
2.000000
 49
1.250000
 49
-0.250000
 49
0.250000
 49
-0.250000
  0
LTYPE
  2
BORDER
 70
     0
  3
___ ___ . ___ ___ . ___ ___
 72
     65
 73
     6
 40
1.750000
 49
0.500000
 49
-0.250000
 49
0.500000
 49
-0.250000
 49
0.000000
 49
-0.250000
  0
LTYPE
  2
DOT
 70
     0
  3
.................
 72
     65
 73
     2
 40
0.250000
 49
0.000000
 49
-0.250000
  0
LTYPE
  2
DASHDOT
 70
     0
  3
__ . __ . __ . __
 72
     65
 73
     4
 40
1.000000
 49
0.500000
 49
-0.250000
 49
0.000000
 49
-0.250000
  0
LTYPE
  2
DIVIDE
 70
     0
  3
___ .. ___ .. ___ .. ___
 72
     65
 73
     6
 40
1.250000
 49
0.500000
 49
-0.250000
 49
0.000000
 49
-0.250000
 49
0.000000
 49
-0.250000
  0
ENDTAB
  0
TABLE
  2
LAYER
 70
     8
  0
LAYER
  2
BLACK
 70
     0
 62
     1
  6
CONTINUOUS
  0
LAYER
  2
WHITE
 70
     0
 62
     7
  6
CONTINUOUS
  0
LAYER
  2
RED
 70
     0
 62
     1
  6
CONTINUOUS
  0
LAYER
  2
YELLOW
 70
     0
 62
     2
  6
CONTINUOUS
  0
LAYER
  2
GREEN
 70
     0
 62
     3
  6
CONTINUOUS
  0
LAYER
  2
CYAN
 70
     0
 62
     4
  6
CONTINUOUS
  0
LAYER
  2
BLUE
 70
     0
 62
     5
  6
CONTINUOUS
  0
LAYER
  2
MAGENTA
 70
     0
 62
     6
  6
CONTINUOUS
  0
ENDTAB
  0
TABLE
  2
APPID
 70
     1
  0
APPID
  2
TC_BEND_DATA
 70
     0
  0
ENDTAB
  0
ENDSEC
  0
SECTION
  2
BLOCKS
  0
ENDSEC
  0
SECTION
  2
ENTITIES
  0
CIRCLE
  8
WHITE
 10
6.000198
 20
6.000198
 30
0.000000
 40
6.000198
  6
CONTINUOUS
  0
LINE
  8
WHITE
 10
1.360461
 20
4.149359
 30
0.000000
 11
2.699671
 21
4.149359
 31
0.000000
  6
CONTINUOUS
  0
LINE
  8
WHITE
 10
2.699671
 20
4.149359
 30
0.000000
 11
2.699671
 21
4.076335
 31
0.000000
  6
CONTINUOUS
  0
LINE
  8
WHITE
 10
2.699671
 20
4.076335
 30
0.000000
 11
1.452610
 21
4.076335
 31
0.000000
  6
CONTINUOUS
  0
LINE
  8
WHITE
 10
1.452610
 20
4.076335
 30
0.000000
 11
1.267601
 21
3.103996
 31
0.000000
  6
CONTINUOUS
  0
LINE
  8
WHITE
 10
1.267601
 20
3.103996
 30
0.000000
 11
1.053527
 21
3.565641
 31
0.000000
  6
CONTINUOUS
  0
LINE
  8
WHITE
 10
1.053527
 20
3.565641
 30
0.000000
 11
0.893479
 21
3.565641
 31
0.000000
  6
CONTINUOUS
  0
LINE
  8
WHITE
 10
0.893479
 20
3.565641
 30
0.000000
 11
0.893479
 21
3.672056
 31
0.000000
  6
CONTINUOUS
  0
LINE
  8
WHITE
 10
0.893479
 20
3.672056
 30
0.000000
 11
1.134090
 21
3.672056
 31
0.000000
  6
CONTINUOUS
  0
LINE
  8
WHITE
 10
1.134090
 20
3.672056
 30
0.000000
 11
1.230206
 21
3.464785
 31
0.000000
  6
CONTINUOUS
  0
LINE
  8
WHITE
 10
1.230206
 20
3.464785
 30
0.000000
 11
1.360461
 21
4.149359
 31
0.000000
  6
CONTINUOUS
  0
LINE
  8
WHITE
 10
4.670888
 20
10.778105
 30
0.000000
 11
4.670888
 21
10.869124
 31
0.000000
  6
CONTINUOUS
  0
LINE
  8
WHITE
 10
4.670888
 20
10.869124
 30
0.000000
 11
3.189123
 21
10.869124
 31
0.000000
  6
CONTINUOUS
  0
LINE
  8
WHITE
 10
3.189123
 20
10.869124
 30
0.000000
 11
3.189123
 21
10.015041
 31
0.000000
  6
CONTINUOUS
  0
LINE
  8
WHITE
 10
3.189123
 20
10.015041
 30
0.000000
 11
3.280142
 21
10.015041
 31
0.000000
  6
CONTINUOUS
  0
LINE
  8
WHITE
 10
3.280142
 20
10.015041
 30
0.000000
 11
3.280142
 21
10.778105
 31
0.000000
  6
CONTINUOUS
  0
LINE
  8
WHITE
 10
3.280142
 20
10.778105
 30
0.000000
 11
4.670888
 21
10.778105
 31
0.000000
  6
CONTINUOUS
  0
LINE
  8
WHITE
 10
10.281746
 20
5.659753
 30
0.000000
 11
10.281746
 21
6.422817
 31
0.000000
  6
CONTINUOUS
  0
LINE
  8
WHITE
 10
10.281746
 20
6.422817
 30
0.000000
 11
11.672492
 21
6.422817
 31
0.000000
  6
CONTINUOUS
  0
LINE
  8
WHITE
 10
11.672492
 20
6.422817
 30
0.000000
 11
11.672492
 21
6.513837
 31
0.000000
  6
CONTINUOUS
  0
LINE
  8
WHITE
 10
11.672492
 20
6.513837
 30
0.000000
 11
10.190726
 21
6.513837
 31
0.000000
  6
CONTINUOUS
  0
LINE
  8
WHITE
 10
10.190726
 20
6.513837
 30
0.000000
 11
10.190726
 21
5.659753
 31
0.000000
  6
CONTINUOUS
  0
LINE
  8
WHITE
 10
10.190726
 20
5.659753
 30
0.000000
 11
10.281746
 21
5.659753
 31
0.000000
  6
CONTINUOUS
  0
LINE
  8
WHITE
 10
10.746948
 20
9.131518
 30
0.000000
 11
10.746948
 21
9.058494
 31
0.000000
  6
CONTINUOUS
  0
LINE
  8
WHITE
 10
10.746948
 20
9.058494
 30
0.000000
 11
10.180363
 21
9.058494
 31
0.000000
  6
CONTINUOUS
  0
LINE
  8
WHITE
 10
10.180363
 20
9.058494
 30
0.000000
 11
9.995355
 21
8.086155
 31
0.000000
  6
CONTINUOUS
  0
LINE
  8
WHITE
 10
9.995355
 20
8.086155
 30
0.000000
 11
9.781281
 21
8.547800
 31
0.000000
  6
CONTINUOUS
  0
LINE
  8
WHITE
 10
9.781281
 20
8.547800
 30
0.000000
 11
9.621233
 21
8.547800
 31
0.000000
  6
CONTINUOUS
  0
LINE
  8
WHITE
 10
9.621233
 20
8.547800
 30
0.000000
 11
9.621233
 21
8.654215
 31
0.000000
  6
CONTINUOUS
  0
LINE
  8
WHITE
 10
9.621233
 20
8.654215
 30
0.000000
 11
9.861844
 21
8.654215
 31
0.000000
  6
CONTINUOUS
  0
LINE
  8
WHITE
 10
9.861844
 20
8.654215
 30
0.000000
 11
9.957960
 21
8.446944
 31
0.000000
  6
CONTINUOUS
  0
LINE
  8
WHITE
 10
9.957960
 20
8.446944
 30
0.000000
 11
10.088215
 21
9.131518
 31
0.000000
  6
CONTINUOUS
  0
LINE
  8
WHITE
 10
10.088215
 20
9.131518
 30
0.000000
 11
10.746948
 21
9.131518
 31
0.000000
  6
CONTINUOUS
  0
LINE
  8
WHITE
 10
9.069967
 20
9.222764
 30
0.000000
 11
7.636145
 21
9.222764
 31
0.000000
  6
CONTINUOUS
  0
LINE
  8
WHITE
 10
7.636145
 20
9.222764
 30
0.000000
 11
7.636145
 21
9.327378
 31
0.000000
  6
CONTINUOUS
  0
LINE
  8
WHITE
 10
7.636145
 20
9.327378
 30
0.000000
 11
9.069967
 21
9.327378
 31
0.000000
  6
CONTINUOUS
  0
LINE
  8
WHITE
 10
9.069967
 20
9.327378
 30
0.000000
 11
9.069967
 21
9.222764
 31
0.000000
  6
CONTINUOUS
  0
ARC
  8
WHITE
 10
1.828056
 20
3.552032
 30
0.000000
 40
0.293905
 50
-149.616320
 51
-93.618921
  6
CONTINUOUS
  0
ARC
  8
WHITE
 10
1.811209
 20
3.552445
 30
0.000000
 40
0.279721
 50
167.999498
 51
212.202184
  6
CONTINUOUS
  0
ARC
  8
WHITE
 10
1.891908
 20
3.585345
 30
0.000000
 40
0.355206
 50
123.814782
 51
175.922214
  6
CONTINUOUS
  0
ARC
  8
WHITE
 10
1.814939
 20
3.679878
 30
0.000000
 40
0.234105
 50
41.898478
 51
121.038118
  6
CONTINUOUS
  0
LINE
  8
WHITE
 10
1.989190
 20
3.836216
 30
0.000000
 11
1.913079
 21
3.778152
 31
0.000000
  6
CONTINUOUS
  0
ARC
  8
WHITE
 10
1.817712
 20
3.728020
 30
0.000000
 40
0.107741
 50
27.729996
 51
142.214138
  6
CONTINUOUS
  0
ARC
  8
WHITE
 10
2.110614
 20
3.583054
 30
0.000000
 40
0.432937
 50
150.835235
 51
193.609754
  6
CONTINUOUS
  0
ARC
  8
WHITE
 10
1.949611
 20
3.537212
 30
0.000000
 40
0.265752
 50
-167.828270
 51
-132.966984
  6
CONTINUOUS
  0
ARC
  8
WHITE
 10
1.865958
 20
3.453652
 30
0.000000
 40
0.147653
 50
-131.313608
 51
-68.798827
  6
CONTINUOUS
  0
ARC
  8
WHITE
 10
1.821115
 20
3.370425
 30
0.000000
 40
0.112313
 50
-95.933301
 51
-28.989052
  6
CONTINUOUS
  0
ARC
  8
WHITE
 10
1.492459
 20
8.598816
 30
0.000000
 40
0.203932
 50
129.319866
 51
165.645409
  6
CONTINUOUS
  0
ARC
  8
WHITE
 10
1.389384
 20
8.646618
 30
0.000000
 40
0.094530
 50
178.328227
 51
246.533451
  6
CONTINUOUS
  0
ARC
  8
WHITE
 10
4.833706
 20
14.384979
 30
0.000000
 40
6.786425
 50
-120.869071
 51
-119.194963
  6
CONTINUOUS
  0
ARC
  8
WHITE
 10
1.416307
 20
8.238916
 30
0.000000
 40
0.246259
 50
29.639461
 51
64.221451
  6
CONTINUOUS
  0
ARC
  8
WHITE
 10
1.467118
 20
8.312111
 30
0.000000
 40
0.170306
 50
-58.335924
 51
16.577612
  6
CONTINUOUS
  0
ARC
  8
WHITE
 10
1.401976
 20
8.316739
 30
0.000000
 40
0.215077
 50
-103.581902
 51
-44.065715
  6
CONTINUOUS
  0
ARC
  8
WHITE
 10
1.204998
 20
8.391932
 30
0.000000
 40
0.319773
 50
-62.738942
 51
-26.050485
  6
CONTINUOUS
  0
ARC
  8
WHITE
 10
1.371717
 20
8.262278
 30
0.000000
 40
0.121048
 50
-5.108431
 51
67.523407
  6
CONTINUOUS
  0
ARC
  8
WHITE
 10
2.141748
 20
9.817484
 30
0.000000
 40
1.614648
 50
-124.816770
 51
-116.630985
  6
CONTINUOUS
  0
ARC
  8
WHITE
 10
1.285095
 20
8.573361
 30
0.000000
 40
0.104374
 50
167.704886
 51
231.315921
  6
CONTINUOUS
  0
ARC
  8
WHITE
 10
1.358008
 20
8.569595
 30
0.000000
 40
0.176814
 50
134.105998
 51
171.546695
  6
CONTINUOUS
  0
ARC
  8
WHITE
 10
1.376128
 20
8.561925
 30
0.000000
 40
0.195084
 50
93.788616
 51
136.360223
  6
CONTINUOUS
  0
ARC
  8
WHITE
 10
4.030772
 20
10.116493
 30
0.000000
 40
0.312366
 50
154.280919
 51
192.981274
  6
CONTINUOUS
  0
ARC
  8
WHITE
 10
4.007499
 20
10.121703
 30
0.000000
 40
0.289188
 50
121.858474
 51
153.210006
  6
CONTINUOUS
  0
ARC
  8
WHITE
 10
2.703677
 20
12.021028
 30
0.000000
 40
2.014931
 50
-55.157291
 51
-48.407822
  6
CONTINUOUS
  0
ARC
  8
WHITE
 10
3.975691
 20
10.601272
 30
0.000000
 40
0.109079
 50
-53.064725
 51
72.727288
  6
CONTINUOUS
  0
ARC
  8
WHITE
 10
3.981856
 20
10.487264
 30
0.000000
 40
0.219738
 50
29.005955
 51
83.146319
  6
CONTINUOUS
  0
ARC
  8
WHITE
 10
4.041735
 20
10.530446
 30
0.000000
 40
0.146690
 50
-44.377760
 51
25.593855
  6
CONTINUOUS
  0
ARC
  8
WHITE
 10
3.882190
 20
10.654290
 30
0.000000
 40
0.348104
 50
-62.716799
 51
-40.578242
  6
CONTINUOUS
  0
ARC
  8
WHITE
 10
11.752507
 20
-2.303369
 30
0.000000
 40
14.813329
 50
121.367668
 51
122.147791
  6
CONTINUOUS
  0
ARC
  8
WHITE
 10
3.980004
 20
10.062643
 30
0.000000
 40
0.207507
 50
121.928600
 51
177.571992
  6
CONTINUOUS
  0
LINE
  8
WHITE
 10
3.772683
 20
10.071434
 30
0.000000
 11
3.726389
 21
10.046325
 31
0.000000
  6
CONTINUOUS
  0
ARC
  8
WHITE
 10
2.448869
 20
8.139448
 30
0.000000
 40
0.312366
 50
154.280918
 51
192.981274
  6
CONTINUOUS
  0
ARC
  8
WHITE
 10
2.425597
 20
8.144659
 30
0.000000
 40
0.289188
 50
121.858474
 51
153.210005
  6
CONTINUOUS
  0
ARC
  8
WHITE
 10
1.121775
 20
10.043983
 30
0.000000
 40
2.014931
 50
-55.157291
 51
-48.407822
  6
CONTINUOUS
  0
ARC
  8
WHITE
 10
2.393788
 20
8.624227
 30
0.000000
 40
0.109079
 50
-53.064725
 51
72.727288
  6
CONTINUOUS
  0
ARC
  8
WHITE
 10
2.400322
 20
8.512422
 30
0.000000
 40
0.217507
 50
22.442839
 51
83.173307
  6
CONTINUOUS
  0
ARC
  8
WHITE
 10
2.447836
 20
8.556147
 30
0.000000
 40
0.158472
 50
-48.354049
 51
14.362590
  6
CONTINUOUS
  0
ARC
  8
WHITE
 10
2.258960
 20
8.728856
 30
0.000000
 40
0.413884
 50
-62.713258
 51
-44.700935
  6
CONTINUOUS
  0
ARC
  8
WHITE
 10
6.443407
 20
1.767507
 30
0.000000
 40
7.709226
 50
121.209704
 51
122.659964
  6
CONTINUOUS
  0
ARC
  8
WHITE
 10
2.394332
 20
8.087185
 30
0.000000
 40
0.203679
 50
123.098737
 51
177.972950
  6
CONTINUOUS
  0
LINE
  8
WHITE
 10
2.190781
 20
8.094389
 30
0.000000
 11
2.144486
 21
8.069280
 31
0.000000
  6
CONTINUOUS
  0
ARC
  8
WHITE
 10
2.983318
 20
3.218462
 30
0.000000
 40
0.798691
 50
123.039243
 51
157.879236
  6
CONTINUOUS
  0
ARC
  8
WHITE
 10
2.378088
 20
3.691565
 30
0.000000
 40
0.218723
 50
-128.003983
 51
-91.569025
  6
CONTINUOUS
  0
LINE
  8
WHITE
 10
2.372099
 20
3.472923
 30
0.000000
 11
2.372099
 21
3.390535
 31
0.000000
  6
CONTINUOUS
  0
ARC
  8
WHITE
 10
2.325001
 20
4.307854
 30
0.000000
 40
0.918527
 50
-107.395534
 51
-87.060846
  6
CONTINUOUS
  0
ARC
  8
WHITE
 10
3.057009
 20
2.956831
 30
0.000000
 40
1.112849
 50
116.547643
 51
154.761419
  6
CONTINUOUS
  0
LINE
  8
WHITE
 10
2.559630
 20
3.952344
 30
0.000000
 11
2.547861
 21
3.888003
 31
0.000000
  6
CONTINUOUS
  0
ARC
  8
WHITE
 10
10.474284
 20
8.726735
 30
0.000000
 40
0.218723
 50
-128.003983
 51
-91.569025
  6
CONTINUOUS
  0
LINE
  8
WHITE
 10
10.468295
 20
8.508094
 30
0.000000
 11
10.468295
 21
8.425706
 31
0.000000
  6
CONTINUOUS
  0
ARC
  8
WHITE
 10
10.421197
 20
9.343024
 30
0.000000
 40
0.918527
 50
-107.395534
 51
-87.060846
  6
CONTINUOUS
  0
ARC
  8
WHITE
 10
11.153205
 20
7.992001
 30
0.000000
 40
1.112849
 50
116.547643
 51
154.761419
  6
CONTINUOUS
  0
LINE
  8
WHITE
 10
10.655826
 20
8.987515
 30
0.000000
 11
10.644056
 21
8.923174
 31
0.000000
  6
CONTINUOUS
  0
ARC
  8
WHITE
 10
11.079169
 20
8.253918
 30
0.000000
 40
0.798265
 50
123.029643
 51
157.888836
  6
CONTINUOUS
  0
ARC
  8
WHITE
 10
0.646117
 20
5.908404
 30
0.000000
 40
0.159950
 50
-67.615788
 51
-4.899957
  6
CONTINUOUS
  0
ARC
  8
WHITE
 10
0.601864
 20
5.975400
 30
0.000000
 40
0.239246
 50
-105.932472
 51
-63.923945
  6
CONTINUOUS
  0
ARC
  8
WHITE
 10
0.487165
 20
5.932523
 30
0.000000
 40
0.193493
 50
-75.323015
 51
-13.016121
  6
CONTINUOUS
  0
ARC
  8
WHITE
 10
0.529697
 20
5.890769
 30
0.000000
 40
0.146000
 50
-0.716321
 51
82.006588
  6
CONTINUOUS
  0
ARC
  8
WHITE
 10
0.533538
 20
6.181848
 30
0.000000
 40
0.147420
 50
-83.588432
 51
-41.022384
  6
CONTINUOUS
  0
ARC
  8
WHITE
 10
0.563210
 20
6.141896
 30
0.000000
 40
0.099385
 50
-34.861432
 51
12.513659
  6
CONTINUOUS
  0
ARC
  8
WHITE
 10
0.613086
 20
6.153758
 30
0.000000
 40
0.048130
 50
11.593838
 51
85.153333
  6
CONTINUOUS
  0
ARC
  8
WHITE
 10
0.593925
 20
6.063782
 30
0.000000
 40
0.139875
 50
80.441507
 51
156.260479
  6
CONTINUOUS
  0
LINE
  8
WHITE
 10
0.465885
 20
6.120093
 30
0.000000
 11
0.414412
 21
6.194792
 31
0.000000
  6
CONTINUOUS
  0
ARC
  8
WHITE
 10
0.587812
 20
6.010626
 30
0.000000
 40
0.252951
 50
67.509828
 51
133.275425
  6
CONTINUOUS
  0
ARC
  8
WHITE
 10
0.657400
 20
6.129591
 30
0.000000
 40
0.117922
 50
6.535959
 51
76.678008
  6
CONTINUOUS
  0
ARC
  8
WHITE
 10
0.633738
 20
6.150394
 30
0.000000
 40
0.141011
 50
-61.960296
 51
-3.000513
  6
CONTINUOUS
  0
ARC
  8
WHITE
 10
0.660577
 20
5.886244
 30
0.000000
 40
0.145154
 50
3.355988
 51
74.230585
  6
CONTINUOUS
  0
LINE
  8
WHITE
 10
9.484412
 20
3.800093
 30
0.000000
 11
9.484412
 21
3.732402
 31
0.000000
  6
CONTINUOUS
  0
LINE
  8
WHITE
 10
9.484412
 20
3.732402
 30
0.000000
 11
8.425968
 21
3.732402
 31
0.000000
  6
CONTINUOUS
  0
LINE
  8
WHITE
 10
8.425968
 20
3.732402
 30
0.000000
 11
8.425968
 21
3.800093
 31
0.000000
  6
CONTINUOUS
  0
LINE
  8
WHITE
 10
8.425968
 20
3.800093
 30
0.000000
 11
9.484412
 21
3.800093
 31
0.000000
  6
CONTINUOUS
  0
LINE
  8
WHITE
 10
11.126757
 20
3.732402
 30
0.000000
 11
10.068313
 21
3.732402
 31
0.000000
  6
CONTINUOUS
  0
LINE
  8
WHITE
 10
10.068313
 20
3.732402
 30
0.000000
 11
10.068313
 21
3.800093
 31
0.000000
  6
CONTINUOUS
  0
LINE
  8
WHITE
 10
10.068313
 20
3.800093
 30
0.000000
 11
11.126757
 21
3.800093
 31
0.000000
  6
CONTINUOUS
  0
LINE
  8
WHITE
 10
11.126757
 20
3.800093
 30
0.000000
 11
11.126757
 21
3.732402
 31
0.000000
  6
CONTINUOUS
  0
ARC
  8
WHITE
 10
4.507980
 20
2.120475
 30
0.000000
 40
0.342131
 50
-47.128003
 51
3.982901
  6
CONTINUOUS
  0
ARC
  8
WHITE
 10
4.635817
 20
2.015733
 30
0.000000
 40
0.179798
 50
-151.588789
 51
-54.293091
  6
CONTINUOUS
  0
LINE
  8
WHITE
 10
4.477675
 20
1.930186
 30
0.000000
 11
4.538564
 21
1.981659
 31
0.000000
  6
CONTINUOUS
  0
ARC
  8
WHITE
 10
4.633746
 20
1.997171
 30
0.000000
 40
0.096438
 50
-170.743882
 51
-60.930038
  6
CONTINUOUS
  0
ARC
  8
WHITE
 10
4.519451
 20
2.058956
 30
0.000000
 40
0.217504
 50
-42.190324
 51
-5.655765
  6
CONTINUOUS
  0
ARC
  8
WHITE
 10
4.378500
 20
2.119256
 30
0.000000
 40
0.366624
 50
-12.881911
 51
19.646321
  6
CONTINUOUS
  0
ARC
  8
WHITE
 10
4.607308
 20
2.192117
 30
0.000000
 40
0.126911
 50
23.400275
 51
117.870703
  6
CONTINUOUS
  0
ARC
  8
WHITE
 10
4.646848
 20
2.255120
 30
0.000000
 40
0.110428
 50
92.432733
 51
153.549329
  6
CONTINUOUS
  0
ARC
  8
WHITE
 10
4.666190
 20
2.170293
 30
0.000000
 40
0.196629
 50
45.686701
 51
97.019708
  6
CONTINUOUS
  0
ARC
  8
WHITE
 10
4.588337
 20
2.162315
 30
0.000000
 40
0.261574
 50
-3.962696
 51
34.637038
  6
CONTINUOUS
  0
ARC
  8
WHITE
 10
6.327954
 20
1.440430
 30
0.000000
 40
0.342131
 50
-47.128004
 51
3.982901
  6
CONTINUOUS
  0
ARC
  8
WHITE
 10
6.455790
 20
1.335688
 30
0.000000
 40
0.179798
 50
-151.588789
 51
-54.293091
  6
CONTINUOUS
  0
LINE
  8
WHITE
 10
6.297648
 20
1.250141
 30
0.000000
 11
6.358537
 21
1.301614
 31
0.000000
  6
CONTINUOUS
  0
ARC
  8
WHITE
 10
6.453720
 20
1.317126
 30
0.000000
 40
0.096438
 50
-170.743882
 51
-60.930038
  6
CONTINUOUS
  0
ARC
  8
WHITE
 10
6.339424
 20
1.378911
 30
0.000000
 40
0.217504
 50
-42.190325
 51
-5.655765
  6
CONTINUOUS
  0
ARC
  8
WHITE
 10
6.198473
 20
1.439211
 30
0.000000
 40
0.366624
 50
-12.881911
 51
19.646321
  6
CONTINUOUS
  0
ARC
  8
WHITE
 10
6.427281
 20
1.512072
 30
0.000000
 40
0.126911
 50
23.400275
 51
117.870703
  6
CONTINUOUS
  0
ARC
  8
WHITE
 10
6.466821
 20
1.575075
 30
0.000000
 40
0.110428
 50
92.432733
 51
153.549329
  6
CONTINUOUS
  0
ARC
  8
WHITE
 10
6.486164
 20
1.490248
 30
0.000000
 40
0.196629
 50
45.686701
 51
97.019709
  6
CONTINUOUS
  0
ARC
  8
WHITE
 10
6.408310
 20
1.482270
 30
0.000000
 40
0.261574
 50
-3.962697
 51
34.637039
  6
CONTINUOUS
  0
ARC
  8
WHITE
 10
10.889655
 20
5.917363
 30
0.000000
 40
0.126957
 50
-163.176344
 51
-115.091327
  6
CONTINUOUS
  0
ARC
  8
WHITE
 10
10.864995
 20
5.869892
 30
0.000000
 40
0.073542
 50
-113.375444
 51
-51.117818
  6
CONTINUOUS
  0
ARC
  8
WHITE
 10
10.627835
 20
6.013144
 30
0.000000
 40
0.347093
 50
-35.285875
 51
4.135528
  6
CONTINUOUS
  0
ARC
  8
WHITE
 10
10.767169
 20
6.049186
 30
0.000000
 40
0.207148
 50
-3.047002
 51
40.438718
  6
CONTINUOUS
  0
ARC
  8
WHITE
 10
10.836280
 20
6.082044
 30
0.000000
 40
0.134700
 50
48.899843
 51
115.850605
  6
CONTINUOUS
  0
ARC
  8
WHITE
 10
10.879108
 20
6.151139
 30
0.000000
 40
0.114157
 50
84.863105
 51
152.830340
  6
CONTINUOUS
  0
ARC
  8
WHITE
 10
10.908939
 20
6.102713
 30
0.000000
 40
0.163306
 50
13.528756
 51
96.896844
  6
CONTINUOUS
  0
ARC
  8
WHITE
 10
10.658527
 20
6.040308
 30
0.000000
 40
0.421373
 50
-34.390495
 51
13.813451
  6
CONTINUOUS
  0
ARC
  8
WHITE
 10
10.865756
 20
5.916103
 30
0.000000
 40
0.180799
 50
-151.251408
 51
-39.007642
  6
CONTINUOUS
  0
LINE
  8
WHITE
 10
10.707243
 20
5.829145
 30
0.000000
 11
10.768132
 21
5.880618
 31
0.000000
  6
CONTINUOUS
  0
ARC
  8
WHITE
 10
3.152176
 20
6.115078
 30
0.000000
 40
0.283479
 50
19.637619
 51
65.060005
  6
CONTINUOUS
  0
ARC
  8
WHITE
 10
2.979233
 20
6.018637
 30
0.000000
 40
0.479891
 50
-16.689637
 51
23.546031
  6
CONTINUOUS
  0
ARC
  8
WHITE
 10
3.068108
 20
5.973474
 30
0.000000
 40
0.382201
 50
-64.580626
 51
-14.029781
  6
CONTINUOUS
  0
ARC
  8
WHITE
 10
2.777651
 20
5.995305
 30
0.000000
 40
0.584204
 50
-38.921740
 51
-1.364544
  6
CONTINUOUS
  0
ARC
  8
WHITE
 10
3.009043
 20
6.003930
 30
0.000000
 40
0.353365
 50
-3.656760
 51
58.223313
  6
CONTINUOUS
  0
LINE
  8
WHITE
 10
3.195129
 20
6.304329
 30
0.000000
 11
3.271711
 21
6.372123
 31
0.000000
  6
CONTINUOUS
  0
ARC
  8
WHITE
 10
8.368967
 20
9.744121
 30
0.000000
 40
0.218283
 50
169.397000
 51
215.459068
  6
CONTINUOUS
  0
ARC
  8
WHITE
 10
8.443772
 20
9.769551
 30
0.000000
 40
0.289736
 50
125.134502
 51
177.085103
  6
CONTINUOUS
  0
ARC
  8
WHITE
 10
8.377105
 20
9.847520
 30
0.000000
 40
0.187855
 50
42.012733
 51
122.190113
  6
CONTINUOUS
  0
LINE
  8
WHITE
 10
8.516681
 20
9.973250
 30
0.000000
 11
8.455792
 21
9.926799
 31
0.000000
  6
CONTINUOUS
  0
ARC
  8
WHITE
 10
8.379679
 20
9.887026
 30
0.000000
 40
0.085878
 50
27.589763
 51
142.421874
  6
CONTINUOUS
  0
ARC
  8
WHITE
 10
8.611881
 20
9.770626
 30
0.000000
 40
0.344443
 50
150.660426
 51
193.662862
  6
CONTINUOUS
  0
ARC
  8
WHITE
 10
8.485055
 20
9.734068
 30
0.000000
 40
0.212644
 50
-167.837012
 51
-132.976603
  6
CONTINUOUS
  0
ARC
  8
WHITE
 10
8.418096
 20
9.667203
 30
0.000000
 40
0.118126
 50
-131.323292
 51
-68.799588
  6
CONTINUOUS
  0
ARC
  8
WHITE
 10
8.366511
 20
9.625205
 30
0.000000
 40
0.116340
 50
-115.171665
 51
-35.847832
  6
CONTINUOUS
  0
ARC
  8
WHITE
 10
8.409734
 20
9.769446
 30
0.000000
 40
0.266198
 50
-145.191307
 51
-110.380884
  6
CONTINUOUS
  0
ARC
  8
WHITE
 10
5.540487
 20
11.236384
 30
0.000000
 40
0.101005
 50
-104.546522
 51
-31.928907
  6
CONTINUOUS
  0
ARC
  8
WHITE
 10
5.564982
 20
11.387648
 30
0.000000
 40
0.253974
 50
-151.861666
 51
-101.322859
  6
CONTINUOUS
  0
ARC
  8
WHITE
 10
5.640486
 20
11.384355
 30
0.000000
 40
0.321318
 50
141.700080
 51
201.254608
  6
CONTINUOUS
  0
ARC
  8
WHITE
 10
5.541573
 20
11.471662
 30
0.000000
 40
0.189719
 50
42.218033
 51
143.878822
  6
CONTINUOUS
  0
LINE
  8
WHITE
 10
5.682078
 20
11.599144
 30
0.000000
 11
5.621189
 21
11.552693
 31
0.000000
  6
CONTINUOUS
  0
ARC
  8
WHITE
 10
5.545077
 20
11.512920
 30
0.000000
 40
0.085878
 50
27.589764
 51
142.421874
  6
CONTINUOUS
  0
ARC
  8
WHITE
 10
5.777278
 20
11.396520
 30
0.000000
 40
0.344443
 50
150.660427
 51
193.662862
  6
CONTINUOUS
  0
ARC
  8
WHITE
 10
5.650452
 20
11.359962
 30
0.000000
 40
0.212644
 50
-167.837012
 51
-132.976602
  6
CONTINUOUS
  0
ARC
  8
WHITE
 10
5.583493
 20
11.293097
 30
0.000000
 40
0.118126
 50
-131.323292
 51
-68.799588
  6
CONTINUOUS
  0
ARC
  8
WHITE
 10
8.373466
 20
10.350209
 30
0.000000
 40
0.101005
 50
-104.546522
 51
-31.928907
  6
CONTINUOUS
  0
ARC
  8
WHITE
 10
8.397961
 20
10.501473
 30
0.000000
 40
0.253974
 50
-151.861666
 51
-101.322859
  6
CONTINUOUS
  0
ARC
  8
WHITE
 10
8.473465
 20
10.498180
 30
0.000000
 40
0.321318
 50
141.700079
 51
201.254608
  6
CONTINUOUS
  0
ARC
  8
WHITE
 10
8.374552
 20
10.585487
 30
0.000000
 40
0.189719
 50
42.218033
 51
143.878822
  6
CONTINUOUS
  0
LINE
  8
WHITE
 10
8.515057
 20
10.712969
 30
0.000000
 11
8.454168
 21
10.666518
 31
0.000000
  6
CONTINUOUS
  0
ARC
  8
WHITE
 10
8.378055
 20
10.626745
 30
0.000000
 40
0.085878
 50
27.589764
 51
142.421873
  6
CONTINUOUS
  0
ARC
  8
WHITE
 10
8.610257
 20
10.510345
 30
0.000000
 40
0.344443
 50
150.660426
 51
193.662862
  6
CONTINUOUS
  0
ARC
  8
WHITE
 10
8.483431
 20
10.473787
 30
0.000000
 40
0.212644
 50
-167.837012
 51
-132.976602
  6
CONTINUOUS
  0
ARC
  8
WHITE
 10
8.416471
 20
10.406922
 30
0.000000
 40
0.118126
 50
-131.323292
 51
-68.799588
  6
CONTINUOUS
  0
ARC
  8
WHITE
 10
9.293390
 20
5.837995
 30
0.000000
 40
0.101005
 50
-104.546522
 51
-31.928907
  6
CONTINUOUS
  0
ARC
  8
WHITE
 10
9.317885
 20
5.989258
 30
0.000000
 40
0.253974
 50
-151.861666
 51
-101.322859
  6
CONTINUOUS
  0
ARC
  8
WHITE
 10
9.393389
 20
5.985965
 30
0.000000
 40
0.321318
 50
141.700079
 51
201.254608
  6
CONTINUOUS
  0
ARC
  8
WHITE
 10
9.294476
 20
6.073272
 30
0.000000
 40
0.189719
 50
42.218033
 51
143.878821
  6
CONTINUOUS
  0
LINE
  8
WHITE
 10
9.434981
 20
6.200755
 30
0.000000
 11
9.374092
 21
6.154304
 31
0.000000
  6
CONTINUOUS
  0
ARC
  8
WHITE
 10
9.297979
 20
6.114530
 30
0.000000
 40
0.085878
 50
27.589764
 51
142.421873
  6
CONTINUOUS
  0
ARC
  8
WHITE
 10
9.530181
 20
5.998130
 30
0.000000
 40
0.344443
 50
150.660426
 51
193.662862
  6
CONTINUOUS
  0
ARC
  8
WHITE
 10
9.403355
 20
5.961573
 30
0.000000
 40
0.212644
 50
-167.837012
 51
-132.976602
  6
CONTINUOUS
  0
ARC
  8
WHITE
 10
9.336396
 20
5.894708
 30
0.000000
 40
0.118126
 50
-131.323292
 51
-68.799588
  6
CONTINUOUS
  0
ARC
  8
WHITE
 10
6.930664
 20
1.259619
 30
0.000000
 40
0.101005
 50
-104.546521
 51
-31.928907
  6
CONTINUOUS
  0
ARC
  8
WHITE
 10
6.955159
 20
1.410883
 30
0.000000
 40
0.253974
 50
-151.861666
 51
-101.322859
  6
CONTINUOUS
  0
ARC
  8
WHITE
 10
7.030663
 20
1.407589
 30
0.000000
 40
0.321318
 50
141.700079
 51
201.254608
  6
CONTINUOUS
  0
ARC
  8
WHITE
 10
6.931750
 20
1.494897
 30
0.000000
 40
0.189719
 50
42.218033
 51
143.878821
  6
CONTINUOUS
  0
LINE
  8
WHITE
 10
7.072255
 20
1.622379
 30
0.000000
 11
7.011366
 21
1.575928
 31
0.000000
  6
CONTINUOUS
  0
ARC
  8
WHITE
 10
6.931697
 20
1.530576
 30
0.000000
 40
0.091672
 50
29.650633
 51
108.332395
  6
CONTINUOUS
  0
ARC
  8
WHITE
 10
6.957869
 20
1.513773
 30
0.000000
 40
0.117495
 50
117.914567
 51
163.867856
  6
CONTINUOUS
  0
ARC
  8
WHITE
 10
7.169958
 20
1.425658
 30
0.000000
 40
0.346670
 50
159.613857
 51
206.406009
  6
CONTINUOUS
  0
ARC
  8
WHITE
 10
6.974341
 20
1.326387
 30
0.000000
 40
0.127329
 50
-154.456596
 51
-70.718025
  6
CONTINUOUS
  0
ARC
  8
WHITE
 10
9.720239
 20
5.837995
 30
0.000000
 40
0.101005
 50
-104.546522
 51
-31.928907
  6
CONTINUOUS
  0
ARC
  8
WHITE
 10
9.744735
 20
5.989258
 30
0.000000
 40
0.253974
 50
-151.861666
 51
-101.322859
  6
CONTINUOUS
  0
ARC
  8
WHITE
 10
9.820239
 20
5.985965
 30
0.000000
 40
0.321318
 50
141.700079
 51
201.254608
  6
CONTINUOUS
  0
ARC
  8
WHITE
 10
9.721326
 20
6.073272
 30
0.000000
 40
0.189719
 50
42.218033
 51
143.878821
  6
CONTINUOUS
  0
LINE
  8
WHITE
 10
9.861830
 20
6.200755
 30
0.000000
 11
9.800942
 21
6.154304
 31
0.000000
  6
CONTINUOUS
  0
ARC
  8
WHITE
 10
9.723037
 20
6.111308
 30
0.000000
 40
0.088981
 50
28.894264
 51
122.313867
  6
CONTINUOUS
  0
ARC
  8
WHITE
 10
9.889454
 20
6.010267
 30
0.000000
 40
0.277218
 50
140.524179
 51
185.318759
  6
CONTINUOUS
  0
ARC
  8
WHITE
 10
9.839479
 20
5.973537
 30
0.000000
 40
0.226317
 50
177.205669
 51
232.367656
  6
CONTINUOUS
  0
ARC
  8
WHITE
 10
9.763098
 20
5.891326
 30
0.000000
 40
0.115034
 50
-122.499252
 51
-68.121917
  6
CONTINUOUS
  0
ARC
  8
WHITE
 10
1.342624
 20
5.976539
 30
0.000000
 40
0.390863
 50
173.390588
 51
242.201095
  6
CONTINUOUS
  0
ARC
  8
WHITE
 10
1.332337
 20
6.007291
 30
0.000000
 40
0.378247
 50
106.685280
 51
177.842981
  6
CONTINUOUS
  0
ARC
  8
WHITE
 10
1.393349
 20
6.094399
 30
0.000000
 40
0.323280
 50
121.645279
 51
156.573303
  6
CONTINUOUS
  0
ARC
  8
WHITE
 10
1.523010
 20
6.013970
 30
0.000000
 40
0.474752
 50
153.887152
 51
189.563499
  6
CONTINUOUS
  0
ARC
  8
WHITE
 10
1.324402
 20
5.966496
 30
0.000000
 40
0.271369
 50
-173.355134
 51
-110.920643
  6
CONTINUOUS
  0
LINE
  8
WHITE
 10
1.227503
 20
5.713016
 30
0.000000
 11
1.160337
 21
5.630785
 31
0.000000
  6
CONTINUOUS
  0
ARC
  8
WHITE
 10
11.411511
 20
6.121900
 30
0.000000
 40
0.175329
 50
130.109532
 51
163.981517
  6
CONTINUOUS
  0
ARC
  8
WHITE
 10
11.312196
 20
6.165422
 30
0.000000
 40
0.069377
 50
175.983420
 51
251.093016
  6
CONTINUOUS
  0
ARC
  8
WHITE
 10
12.235127
 20
7.552868
 30
0.000000
 40
1.733563
 50
-123.049092
 51
-117.799641
  6
CONTINUOUS
  0
ARC
  8
WHITE
 10
11.348645
 20
5.848903
 30
0.000000
 40
0.187472
 50
29.096461
 51
65.420024
  6
CONTINUOUS
  0
ARC
  8
WHITE
 10
11.380299
 20
5.901177
 30
0.000000
 40
0.137762
 50
-57.956650
 51
16.397101
  6
CONTINUOUS
  0
ARC
  8
WHITE
 10
11.329538
 20
5.904821
 30
0.000000
 40
0.172742
 50
-103.524859
 51
-44.194387
  6
CONTINUOUS
  0
ARC
  8
WHITE
 10
11.093102
 20
6.070963
 30
0.000000
 40
0.387361
 50
-59.596701
 51
-45.314653
  6
CONTINUOUS
  0
ARC
  8
WHITE
 10
11.323133
 20
5.864550
 30
0.000000
 40
0.080962
 50
-58.447029
 51
63.104045
  6
CONTINUOUS
  0
ARC
  8
WHITE
 10
10.857385
 20
5.190948
 30
0.000000
 40
0.899225
 50
56.035894
 51
64.110278
  6
CONTINUOUS
  0
ARC
  8
WHITE
 10
11.353971
 20
6.222537
 30
0.000000
 40
0.245687
 50
-137.178823
 51
-115.029974
  6
CONTINUOUS
  0
ARC
  8
WHITE
 10
11.260639
 20
6.118538
 30
0.000000
 40
0.107311
 50
139.798879
 51
215.947892
  6
CONTINUOUS
  0
ARC
  8
WHITE
 10
11.310132
 20
6.096174
 30
0.000000
 40
0.160239
 50
94.142961
 51
145.121939
  6
CONTINUOUS
  0
ARC
  8
WHITE
 10
5.199797
 20
0.698917
 30
0.000000
 40
0.387361
 50
-59.596701
 51
-45.314653
  6
CONTINUOUS
  0
ARC
  8
WHITE
 10
5.429828
 20
0.492503
 30
0.000000
 40
0.080962
 50
-58.447029
 51
63.104045
  6
CONTINUOUS
  0
ARC
  8
WHITE
 10
4.964080
 20
-0.181098
 30
0.000000
 40
0.899225
 50
56.035894
 51
64.110278
  6
CONTINUOUS
  0
ARC
  8
WHITE
 10
5.460667
 20
0.850491
 30
0.000000
 40
0.245687
 50
-137.178823
 51
-115.029974
  6
CONTINUOUS
  0
ARC
  8
WHITE
 10
5.367334
 20
0.746491
 30
0.000000
 40
0.107311
 50
139.798879
 51
215.947892
  6
CONTINUOUS
  0
ARC
  8
WHITE
 10
5.416827
 20
0.724128
 30
0.000000
 40
0.160239
 50
94.142961
 51
145.121939
  6
CONTINUOUS
  0
ARC
  8
WHITE
 10
5.499393
 20
0.764990
 30
0.000000
 40
0.151704
 50
128.357855
 51
171.055487
  6
CONTINUOUS
  0
ARC
  8
WHITE
 10
5.437175
 20
0.805124
 30
0.000000
 40
0.089190
 50
-169.307713
 51
-115.113288
  6
CONTINUOUS
  0
ARC
  8
WHITE
 10
7.810289
 20
4.776416
 30
0.000000
 40
4.715069
 50
-120.752603
 51
-119.204188
  6
CONTINUOUS
  0
ARC
  8
WHITE
 10
5.409404
 20
0.428283
 30
0.000000
 40
0.253129
 50
37.799723
 51
66.658688
  6
CONTINUOUS
  0
ARC
  8
WHITE
 10
5.501170
 20
0.523452
 30
0.000000
 40
0.123751
 50
-57.899427
 51
28.989348
  6
CONTINUOUS
  0
ARC
  8
WHITE
 10
5.435711
 20
0.536982
 30
0.000000
 40
0.176716
 50
-103.041129
 51
-42.050210
  6
CONTINUOUS
  0
ARC
  8
WHITE
 10
7.554456
 20
10.582549
 30
0.000000
 40
0.387361
 50
-59.596701
 51
-45.314653
  6
CONTINUOUS
  0
ARC
  8
WHITE
 10
7.784487
 20
10.376136
 30
0.000000
 40
0.080962
 50
-58.447029
 51
63.104045
  6
CONTINUOUS
  0
ARC
  8
WHITE
 10
7.318739
 20
9.702535
 30
0.000000
 40
0.899225
 50
56.035894
 51
64.110278
  6
CONTINUOUS
  0
ARC
  8
WHITE
 10
7.815326
 20
10.734124
 30
0.000000
 40
0.245687
 50
-137.178823
 51
-115.029974
  6
CONTINUOUS
  0
ARC
  8
WHITE
 10
7.721993
 20
10.630124
 30
0.000000
 40
0.107311
 50
139.798879
 51
215.947892
  6
CONTINUOUS
  0
ARC
  8
WHITE
 10
7.771486
 20
10.607761
 30
0.000000
 40
0.160239
 50
94.142961
 51
145.121939
  6
CONTINUOUS
  0
ARC
  8
WHITE
 10
7.862965
 20
10.642002
 30
0.000000
 40
0.162451
 50
129.373827
 51
165.850189
  6
CONTINUOUS
  0
ARC
  8
WHITE
 10
7.775048
 20
10.676316
 30
0.000000
 40
0.069815
 50
175.565240
 51
250.061734
  6
CONTINUOUS
  0
ARC
  8
WHITE
 10
8.775467
 20
12.234599
 30
0.000000
 40
1.919931
 50
-122.240233
 51
-117.509493
  6
CONTINUOUS
  0
ARC
  8
WHITE
 10
7.798759
 20
10.355796
 30
0.000000
 40
0.197587
 50
28.523174
 51
62.935550
  6
CONTINUOUS
  0
ARC
  8
WHITE
 10
7.868308
 20
10.407094
 30
0.000000
 40
0.112610
 50
-22.897352
 51
22.477126
  6
CONTINUOUS
  0
ARC
  8
WHITE
 10
7.781362
 20
10.460049
 30
0.000000
 40
0.213833
 50
-98.300151
 51
-26.907283
  6
CONTINUOUS
  0
ARC
  8
WHITE
 10
4.520814
 20
3.614883
 30
0.000000
 40
1.985242
 50
173.621616
 51
189.898246
  6
CONTINUOUS
  0
LINE
  8
WHITE
 10
2.565123
 20
3.273622
 30
0.000000
 11
2.413685
 21
3.238313
 31
0.000000
  6
CONTINUOUS
  0
ARC
  8
WHITE
 10
4.005211
 20
3.325728
 30
0.000000
 40
1.593925
 50
162.684914
 51
183.143851
  6
CONTINUOUS
  0
LINE
  8
WHITE
 10
2.483519
 20
3.800122
 30
0.000000
 11
2.547861
 21
3.835432
 31
0.000000
  6
CONTINUOUS
  0
ARC
  8
WHITE
 10
12.617010
 20
8.650054
 30
0.000000
 40
1.985242
 50
173.621616
 51
189.898246
  6
CONTINUOUS
  0
LINE
  8
WHITE
 10
10.661319
 20
8.308793
 30
0.000000
 11
10.509881
 21
8.273484
 31
0.000000
  6
CONTINUOUS
  0
ARC
  8
WHITE
 10
12.101407
 20
8.360899
 30
0.000000
 40
1.593925
 50
162.684914
 51
183.143851
  6
CONTINUOUS
  0
LINE
  8
WHITE
 10
10.579715
 20
8.835293
 30
0.000000
 11
10.644056
 21
8.870602
 31
0.000000
  6
CONTINUOUS
  0
ARC
  8
WHITE
 10
3.993280
 20
10.237276
 30
0.000000
 40
1.408076
 50
161.422596
 51
189.859750
  6
CONTINUOUS
  0
LINE
  8
WHITE
 10
2.658573
 20
10.685868
 30
0.000000
 11
2.711144
 21
10.668606
 31
0.000000
  6
CONTINUOUS
  0
ARC
  8
WHITE
 10
3.720853
 20
10.405279
 30
0.000000
 40
1.043482
 50
165.383161
 51
199.979866
  6
CONTINUOUS
  0
LINE
  8
WHITE
 10
2.740176
 20
10.048732
 30
0.000000
 11
2.606001
 21
9.996161
 31
0.000000
  6
CONTINUOUS
  0
ARC
  8
WHITE
 10
4.215336
 20
10.237276
 30
0.000000
 40
1.408076
 50
161.422596
 51
189.859750
  6
CONTINUOUS
  0
LINE
  8
WHITE
 10
2.880629
 20
10.685868
 30
0.000000
 11
2.933200
 21
10.668606
 31
0.000000
  6
CONTINUOUS
  0
ARC
  8
WHITE
 10
3.942909
 20
10.405279
 30
0.000000
 40
1.043482
 50
165.383161
 51
199.979866
  6
CONTINUOUS
  0
LINE
  8
WHITE
 10
2.962232
 20
10.048732
 30
0.000000
 11
2.828057
 21
9.996161
 31
0.000000
  6
CONTINUOUS
  0
ARC
  8
WHITE
 10
4.913582
 20
10.268608
 30
0.000000
 40
1.408076
 50
161.422596
 51
189.859750
  6
CONTINUOUS
  0
LINE
  8
WHITE
 10
3.578875
 20
10.717201
 30
0.000000
 11
3.631446
 21
10.699939
 31
0.000000
  6
CONTINUOUS
  0
ARC
  8
WHITE
 10
4.641156
 20
10.436612
 30
0.000000
 40
1.043482
 50
165.383161
 51
199.979866
  6
CONTINUOUS
  0
LINE
  8
WHITE
 10
3.660478
 20
10.080065
 30
0.000000
 11
3.526303
 21
10.027494
 31
0.000000
  6
CONTINUOUS
  0
ARC
  8
WHITE
 10
5.662138
 20
10.268608
 30
0.000000
 40
1.408076
 50
161.422596
 51
189.859750
  6
CONTINUOUS
  0
LINE
  8
WHITE
 10
4.327431
 20
10.717201
 30
0.000000
 11
4.380003
 21
10.699939
 31
0.000000
  6
CONTINUOUS
  0
ARC
  8
WHITE
 10
5.389712
 20
10.436612
 30
0.000000
 40
1.043482
 50
165.383161
 51
199.979866
  6
CONTINUOUS
  0
LINE
  8
WHITE
 10
4.409035
 20
10.080065
 30
0.000000
 11
4.274859
 21
10.027494
 31
0.000000
  6
CONTINUOUS
  0
ARC
  8
WHITE
 10
3.765901
 20
2.119842
 30
0.000000
 40
0.288007
 50
-8.605464
 51
1.362494
  6
CONTINUOUS
  0
LINE
  8
WHITE
 10
4.050665
 20
2.076748
 30
0.000000
 11
4.048137
 21
2.062840
 31
0.000000
  6
CONTINUOUS
  0
LINE
  8
WHITE
 10
4.048137
 20
2.062840
 30
0.000000
 11
4.046872
 21
2.059679
 31
0.000000
  6
CONTINUOUS
  0
LINE
  8
WHITE
 10
4.046872
 20
2.059679
 30
0.000000
 11
4.046240
 21
2.060311
 31
0.000000
  6
CONTINUOUS
  0
ARC
  8
WHITE
 10
3.808957
 20
2.076780
 30
0.000000
 40
0.237854
 50
-23.670307
 51
-3.970372
  6
CONTINUOUS
  0
ARC
  8
WHITE
 10
3.592141
 20
2.169668
 30
0.000000
 40
0.473725
 50
-35.860921
 51
-23.431724
  6
CONTINUOUS
  0
LINE
  8
WHITE
 10
3.976068
 20
1.892150
 30
0.000000
 11
3.895780
 21
1.894047
 31
0.000000
  6
CONTINUOUS
  0
ARC
  8
WHITE
 10
3.794097
 20
1.978929
 30
0.000000
 40
0.132456
 50
-39.853891
 51
-23.361114
  6
CONTINUOUS
  0
ARC
  8
WHITE
 10
3.661451
 20
2.033615
 30
0.000000
 40
0.275923
 50
-22.864102
 51
-7.682906
  6
CONTINUOUS
  0
ARC
  8
WHITE
 10
3.298859
 20
2.087375
 30
0.000000
 40
0.642465
 50
-8.111178
 51
0.518078
  6
CONTINUOUS
  0
ARC
  8
WHITE
 10
3.624984
 20
2.095798
 30
0.000000
 40
0.316324
 50
-0.473344
 51
12.713205
  6
CONTINUOUS
  0
ARC
  8
WHITE
 10
3.719508
 20
2.116847
 30
0.000000
 40
0.219485
 50
12.783449
 51
29.615391
  6
CONTINUOUS
  0
ARC
  8
WHITE
 10
3.793774
 20
2.161812
 30
0.000000
 40
0.132722
 50
28.583372
 51
58.208148
  6
CONTINUOUS
  0
ARC
  8
WHITE
 10
3.802251
 20
2.168188
 30
0.000000
 40
0.122897
 50
60.001400
 51
91.194970
  6
CONTINUOUS
  0
ARC
  8
WHITE
 10
3.802662
 20
2.105142
 30
0.000000
 40
0.185940
 50
90.916216
 51
111.271230
  6
CONTINUOUS
  0
ARC
  8
WHITE
 10
3.829732
 20
2.235680
 30
0.000000
 40
0.103737
 50
120.698453
 51
155.672602
  6
CONTINUOUS
  0
ARC
  8
WHITE
 10
3.837968
 20
2.212267
 30
0.000000
 40
0.128166
 50
88.177022
 51
118.520432
  6
CONTINUOUS
  0
ARC
  8
WHITE
 10
3.846200
 20
2.086425
 30
0.000000
 40
0.253977
 50
70.602693
 51
90.937534
  6
CONTINUOUS
  0
ARC
  8
WHITE
 10
3.869065
 20
2.156743
 30
0.000000
 40
0.180066
 50
31.754040
 51
70.034063
  6
CONTINUOUS
  0
ARC
  8
WHITE
 10
3.852787
 20
2.147217
 30
0.000000
 40
0.198921
 50
13.862554
 51
31.619657
  6
CONTINUOUS
  0
ARC
  8
WHITE
 10
3.776759
 20
2.129093
 30
0.000000
 40
0.277078
 50
-0.496829
 51
13.734432
  6
CONTINUOUS
  0
ARC
  8
WHITE
 10
6.508956
 20
11.193276
 30
0.000000
 40
0.249893
 50
154.262221
 51
192.981274
  6
CONTINUOUS
  0
ARC
  8
WHITE
 10
6.490352
 20
11.197429
 30
0.000000
 40
0.231371
 50
121.821015
 51
153.187766
  6
CONTINUOUS
  0
ARC
  8
WHITE
 10
5.445648
 20
12.718878
 30
0.000000
 40
1.614506
 50
-55.144270
 51
-48.411551
  6
CONTINUOUS
  0
ARC
  8
WHITE
 10
6.464905
 20
11.581101
 30
0.000000
 40
0.087258
 50
-53.082796
 51
72.735271
  6
CONTINUOUS
  0
ARC
  8
WHITE
 10
6.469854
 20
11.489940
 30
0.000000
 40
0.175740
 50
29.146819
 51
83.154180
  6
CONTINUOUS
  0
ARC
  8
WHITE
 10
6.522619
 20
11.524728
 30
0.000000
 40
0.112810
 50
-36.411281
 51
26.767263
  6
CONTINUOUS
  0
ARC
  8
WHITE
 10
6.279624
 20
11.739098
 30
0.000000
 40
0.436529
 50
-64.604945
 51
-40.126154
  6
CONTINUOUS
  0
ARC
  8
WHITE
 10
6.628806
 20
10.992786
 30
0.000000
 40
0.387445
 50
114.711833
 51
142.297821
  6
CONTINUOUS
  0
ARC
  8
WHITE
 10
6.431214
 20
11.161069
 30
0.000000
 40
0.128785
 50
147.781349
 51
181.708414
  6
CONTINUOUS
  0
LINE
  8
WHITE
 10
6.302486
 20
11.157229
 30
0.000000
 11
6.265450
 21
11.137142
 31
0.000000
  6
CONTINUOUS
  0
ARC
  8
WHITE
 10
3.313476
 20
5.161048
 30
0.000000
 40
5.613146
 50
-53.996382
 51
-51.847218
  6
CONTINUOUS
  0
ARC
  8
WHITE
 10
6.699113
 20
0.848409
 30
0.000000
 40
0.130333
 50
-51.043572
 51
-4.738764
  6
CONTINUOUS
  0
ARC
  8
WHITE
 10
6.747588
 20
0.836536
 30
0.000000
 40
0.081420
 50
0.778527
 51
74.925839
  6
CONTINUOUS
  0
ARC
  8
WHITE
 10
6.748079
 20
0.742382
 30
0.000000
 40
0.174005
 50
22.442839
 51
83.173307
  6
CONTINUOUS
  0
ARC
  8
WHITE
 10
6.786090
 20
0.777363
 30
0.000000
 40
0.126777
 50
-48.354049
 51
14.362590
  6
CONTINUOUS
  0
ARC
  8
WHITE
 10
6.080529
 20
1.670533
 30
0.000000
 40
1.264815
 50
-60.772277
 51
-51.358471
  6
CONTINUOUS
  0
ARC
  8
WHITE
 10
6.771847
 20
0.389116
 30
0.000000
 40
0.192326
 50
112.542656
 51
174.378235
  6
CONTINUOUS
  0
LINE
  8
WHITE
 10
6.580446
 20
0.407956
 30
0.000000
 11
6.543411
 21
0.387869
 31
0.000000
  6
CONTINUOUS
  0
ARC
  8
WHITE
 10
6.773495
 20
0.445424
 30
0.000000
 40
0.237173
 50
132.557392
 51
194.044120
  6
CONTINUOUS
  0
ARC
  8
WHITE
 10
8.980576
 20
3.184343
 30
0.000000
 40
0.249893
 50
154.262221
 51
192.981274
  6
CONTINUOUS
  0
ARC
  8
WHITE
 10
8.961971
 20
3.188496
 30
0.000000
 40
0.231371
 50
121.821015
 51
153.187766
  6
CONTINUOUS
  0
ARC
  8
WHITE
 10
7.917267
 20
4.709945
 30
0.000000
 40
1.614506
 50
-55.144270
 51
-48.411551
  6
CONTINUOUS
  0
ARC
  8
WHITE
 10
8.936524
 20
3.572168
 30
0.000000
 40
0.087258
 50
-53.082797
 51
72.735271
  6
CONTINUOUS
  0
ARC
  8
WHITE
 10
8.941738
 20
3.482723
 30
0.000000
 40
0.174005
 50
22.442839
 51
83.173307
  6
CONTINUOUS
  0
ARC
  8
WHITE
 10
8.979749
 20
3.517703
 30
0.000000
 40
0.126777
 50
-48.354049
 51
14.362590
  6
CONTINUOUS
  0
ARC
  8
WHITE
 10
8.274188
 20
4.410873
 30
0.000000
 40
1.264815
 50
-60.772277
 51
-51.358471
  6
CONTINUOUS
  0
ARC
  8
WHITE
 10
8.965506
 20
3.129456
 30
0.000000
 40
0.192326
 50
112.542656
 51
174.378235
  6
CONTINUOUS
  0
LINE
  8
WHITE
 10
8.774105
 20
3.148296
 30
0.000000
 11
8.737070
 21
3.128209
 31
0.000000
  6
CONTINUOUS
  0
ARC
  8
WHITE
 10
9.073184
 20
1.665823
 30
0.000000
 40
0.249893
 50
154.262221
 51
192.981274
  6
CONTINUOUS
  0
ARC
  8
WHITE
 10
9.054579
 20
1.669975
 30
0.000000
 40
0.231371
 50
121.821015
 51
153.187766
  6
CONTINUOUS
  0
ARC
  8
WHITE
 10
8.009875
 20
3.191425
 30
0.000000
 40
1.614506
 50
-55.144270
 51
-48.411551
  6
CONTINUOUS
  0
ARC
  8
WHITE
 10
9.029132
 20
2.053647
 30
0.000000
 40
0.087258
 50
-53.082797
 51
72.735271
  6
CONTINUOUS
  0
ARC
  8
WHITE
 10
9.034346
 20
1.964202
 30
0.000000
 40
0.174005
 50
22.442839
 51
83.173307
  6
CONTINUOUS
  0
ARC
  8
WHITE
 10
9.072357
 20
1.999182
 30
0.000000
 40
0.126777
 50
-48.354049
 51
14.362590
  6
CONTINUOUS
  0
ARC
  8
WHITE
 10
8.366795
 20
2.892352
 30
0.000000
 40
1.264815
 50
-60.772277
 51
-51.358471
  6
CONTINUOUS
  0
ARC
  8
WHITE
 10
9.058114
 20
1.610935
 30
0.000000
 40
0.192326
 50
112.542656
 51
174.378236
  6
CONTINUOUS
  0
LINE
  8
WHITE
 10
8.866713
 20
1.629776
 30
0.000000
 11
8.829677
 21
1.609689
 31
0.000000
  6
CONTINUOUS
  0
ARC
  8
WHITE
 10
10.199616
 20
4.177773
 30
0.000000
 40
0.387518
 50
-28.198703
 51
11.773703
  6
CONTINUOUS
  0
ARC
  8
WHITE
 10
10.440869
 20
4.251397
 30
0.000000
 40
0.138220
 50
2.259198
 51
115.345078
  6
CONTINUOUS
  0
ARC
  8
WHITE
 10
10.480284
 20
4.329161
 30
0.000000
 40
0.109279
 50
84.108847
 51
154.438356
  6
CONTINUOUS
  0
ARC
  8
WHITE
 10
10.502414
 20
4.241354
 30
0.000000
 40
0.196811
 50
34.628373
 51
93.178676
  6
CONTINUOUS
  0
ARC
  8
WHITE
 10
10.434050
 20
4.222494
 30
0.000000
 40
0.264812
 50
-13.845833
 51
29.574458
  6
CONTINUOUS
  0
LINE
  8
WHITE
 10
10.691167
 20
4.159122
 30
0.000000
 11
10.690539
 21
4.159749
 31
0.000000
  6
CONTINUOUS
  0
ARC
  8
WHITE
 10
10.350412
 20
4.203657
 30
0.000000
 40
0.342949
 50
-37.945082
 51
-7.355812
  6
CONTINUOUS
  0
LINE
  8
WHITE
 10
10.620862
 20
3.992776
 30
0.000000
 11
10.541142
 21
3.994659
 31
0.000000
  6
CONTINUOUS
  0
ARC
  8
WHITE
 10
10.655341
 20
4.177773
 30
0.000000
 40
0.387518
 50
-28.198703
 51
11.773703
  6
CONTINUOUS
  0
ARC
  8
WHITE
 10
10.896594
 20
4.251397
 30
0.000000
 40
0.138220
 50
2.259198
 51
115.345078
  6
CONTINUOUS
  0
ARC
  8
WHITE
 10
10.936183
 20
4.329225
 30
0.000000
 40
0.109408
 50
84.284475
 51
154.507978
  6
CONTINUOUS
  0
ARC
  8
WHITE
 10
10.957247
 20
4.241418
 30
0.000000
 40
0.196934
 50
34.522547
 51
92.959722
  6
CONTINUOUS
  0
ARC
  8
WHITE
 10
10.899657
 20
4.223085
 30
0.000000
 40
0.255375
 50
-14.505299
 51
30.585550
  6
CONTINUOUS
  0
LINE
  8
WHITE
 10
11.146892
 20
4.159122
 30
0.000000
 11
11.146264
 21
4.159749
 31
0.000000
  6
CONTINUOUS
  0
ARC
  8
WHITE
 10
10.806137
 20
4.203657
 30
0.000000
 40
0.342949
 50
-37.945082
 51
-7.355812
  6
CONTINUOUS
  0
LINE
  8
WHITE
 10
11.076587
 20
3.992776
 30
0.000000
 11
10.996867
 21
3.994659
 31
0.000000
  6
CONTINUOUS
  0
ARC
  8
WHITE
 10
8.959609
 20
4.146432
 30
0.000000
 40
0.386522
 50
-28.602877
 51
11.601796
  6
CONTINUOUS
  0
ARC
  8
WHITE
 10
9.160717
 20
4.194459
 30
0.000000
 40
0.179985
 50
9.499725
 51
52.578450
  6
CONTINUOUS
  0
ARC
  8
WHITE
 10
9.199168
 20
4.209806
 30
0.000000
 40
0.145981
 50
60.933348
 51
114.117776
  6
CONTINUOUS
  0
ARC
  8
WHITE
 10
9.238102
 20
4.295892
 30
0.000000
 40
0.109279
 50
84.108847
 51
154.438356
  6
CONTINUOUS
  0
ARC
  8
WHITE
 10
9.260231
 20
4.208085
 30
0.000000
 40
0.196811
 50
34.628373
 51
93.178676
  6
CONTINUOUS
  0
ARC
  8
WHITE
 10
9.191868
 20
4.189225
 30
0.000000
 40
0.264812
 50
-13.845833
 51
29.574458
  6
CONTINUOUS
  0
LINE
  8
WHITE
 10
9.448985
 20
4.125852
 30
0.000000
 11
9.448357
 21
4.126480
 31
0.000000
  6
CONTINUOUS
  0
ARC
  8
WHITE
 10
9.108230
 20
4.170388
 30
0.000000
 40
0.342949
 50
-37.945082
 51
-7.355812
  6
CONTINUOUS
  0
LINE
  8
WHITE
 10
9.378680
 20
3.959507
 30
0.000000
 11
9.298959
 21
3.961390
 31
0.000000
  6
CONTINUOUS
  0
LINE
  8
WHITE
 10
3.522792
 20
2.363127
 30
0.000000
 11
3.513309
 21
2.311288
 31
0.000000
  6
CONTINUOUS
  0
ARC
  8
WHITE
 10
3.711212
 20
1.956765
 30
0.000000
 40
0.406020
 50
119.171240
 51
132.065740
  6
CONTINUOUS
  0
ARC
  8
WHITE
 10
3.838092
 20
1.815878
 30
0.000000
 40
0.595619
 50
132.046534
 51
142.031055
  6
CONTINUOUS
  0
ARC
  8
WHITE
 10
3.925416
 20
1.735330
 30
0.000000
 40
0.714083
 50
141.246795
 51
157.015938
  6
CONTINUOUS
  0
ARC
  8
WHITE
 10
3.294509
 20
2.027973
 30
0.000000
 40
0.029872
 50
-152.460056
 51
-121.797139
  6
CONTINUOUS
  0
ARC
  8
WHITE
 10
3.341925
 20
2.105301
 30
0.000000
 40
0.120579
 50
-121.585682
 51
-103.461492
  6
CONTINUOUS
  0
ARC
  8
WHITE
 10
3.428187
 20
2.424676
 30
0.000000
 40
0.451361
 50
-104.673160
 51
-97.189328
  6
CONTINUOUS
  0
LINE
  8
WHITE
 10
3.371700
 20
1.976863
 30
0.000000
 11
3.371700
 21
1.910484
 31
0.000000
  6
CONTINUOUS
  0
ARC
  8
WHITE
 10
3.337160
 20
2.094187
 30
0.000000
 40
0.186922
 50
-91.427141
 51
-79.351560
  6
CONTINUOUS
  0
ARC
  8
WHITE
 10
3.339893
 20
2.517743
 30
0.000000
 40
0.610465
 50
-99.879835
 51
-90.693496
  6
CONTINUOUS
  0
ARC
  8
WHITE
 10
3.452031
 20
3.192339
 30
0.000000
 40
1.294308
 50
-105.207920
 51
-99.646353
  6
CONTINUOUS
  0
ARC
  8
WHITE
 10
3.900931
 20
1.576759
 30
0.000000
 40
0.869489
 50
135.331596
 51
155.062815
  6
CONTINUOUS
  0
ARC
  8
WHITE
 10
3.943834
 20
1.549699
 30
0.000000
 40
0.919089
 50
126.315884
 51
136.012099
  6
CONTINUOUS
  0
ARC
  8
WHITE
 10
3.825922
 20
1.709520
 30
0.000000
 40
0.720479
 50
114.880920
 51
126.287433
  6
CONTINUOUS
  0
ARC
  8
WHITE
 10
3.346877
 20
5.557164
 30
0.000000
 40
0.807702
 50
115.561317
 51
136.618842
  6
CONTINUOUS
  0
LINE
  8
WHITE
 10
2.998373
 20
6.285811
 30
0.000000
 11
2.988957
 21
6.234338
 31
0.000000
  6
CONTINUOUS
  0
ARC
  8
WHITE
 10
3.337044
 20
5.698936
 30
0.000000
 40
0.638608
 50
123.029527
 51
157.888952
  6
CONTINUOUS
  0
ARC
  8
WHITE
 10
2.853030
 20
6.076886
 30
0.000000
 40
0.174675
 50
-128.036795
 51
-91.536214
  6
CONTINUOUS
  0
LINE
  8
WHITE
 10
2.848348
 20
5.902274
 30
0.000000
 11
2.848348
 21
5.836363
 31
0.000000
  6
CONTINUOUS
  0
ARC
  8
WHITE
 10
2.810669
 20
6.570218
 30
0.000000
 40
0.734822
 50
-107.395534
 51
-87.060846
  6
CONTINUOUS
  0
ARC
  8
WHITE
 10
3.373842
 20
5.504996
 30
0.000000
 40
0.863349
 50
135.331596
 51
155.062815
  6
CONTINUOUS
  0
ARC
  8
WHITE
 10
8.826169
 20
10.597231
 30
0.000000
 40
0.174962
 50
-128.005796
 51
-91.567211
  6
CONTINUOUS
  0
LINE
  8
WHITE
 10
8.821384
 20
10.422335
 30
0.000000
 11
8.821384
 21
10.356424
 31
0.000000
  6
CONTINUOUS
  0
ARC
  8
WHITE
 10
8.783706
 20
11.090279
 30
0.000000
 40
0.734822
 50
-107.395534
 51
-87.060846
  6
CONTINUOUS
  0
ARC
  8
WHITE
 10
9.369289
 20
10.009484
 30
0.000000
 40
0.890248
 50
116.546949
 51
154.762113
  6
CONTINUOUS
  0
LINE
  8
WHITE
 10
8.971409
 20
10.805872
 30
0.000000
 11
8.961993
 21
10.754399
 31
0.000000
  6
CONTINUOUS
  0
ARC
  8
WHITE
 10
9.310080
 20
10.218996
 30
0.000000
 40
0.638608
 50
123.029526
 51
157.888952
  6
CONTINUOUS
  0
ARC
  8
WHITE
 10
8.827793
 20
9.857512
 30
0.000000
 40
0.174962
 50
-128.005797
 51
-91.567212
  6
CONTINUOUS
  0
LINE
  8
WHITE
 10
8.823008
 20
9.682616
 30
0.000000
 11
8.823008
 21
9.616705
 31
0.000000
  6
CONTINUOUS
  0
ARC
  8
WHITE
 10
8.785330
 20
10.350560
 30
0.000000
 40
0.734822
 50
-107.395534
 51
-87.060846
  6
CONTINUOUS
  0
ARC
  8
WHITE
 10
9.370913
 20
9.269765
 30
0.000000
 40
0.890248
 50
116.546949
 51
154.762113
  6
CONTINUOUS
  0
LINE
  8
WHITE
 10
8.973033
 20
10.066153
 30
0.000000
 11
8.963617
 21
10.014680
 31
0.000000
  6
CONTINUOUS
  0
ARC
  8
WHITE
 10
9.311704
 20
9.479277
 30
0.000000
 40
0.638608
 50
123.029526
 51
157.888952
  6
CONTINUOUS
  0
ARC
  8
WHITE
 10
3.880975
 20
1.897187
 30
0.000000
 40
0.071293
 50
-62.157563
 51
-23.499814
  6
CONTINUOUS
  0
ARC
  8
WHITE
 10
3.863879
 20
1.937690
 30
0.000000
 40
0.115155
 50
-92.056952
 51
-64.048580
  6
CONTINUOUS
  0
ARC
  8
WHITE
 10
3.859095
 20
2.017554
 30
0.000000
 40
0.194945
 50
-115.698726
 51
-89.808707
  6
CONTINUOUS
  0
ARC
  8
WHITE
 10
3.879046
 20
2.055947
 30
0.000000
 40
0.238196
 50
-132.971185
 51
-116.018465
  6
CONTINUOUS
  0
ARC
  8
WHITE
 10
3.918802
 20
2.104644
 30
0.000000
 40
0.300954
 50
-153.398986
 51
-132.189842
  6
CONTINUOUS
  0
ARC
  8
WHITE
 10
3.849789
 20
2.067639
 30
0.000000
 40
0.222686
 50
179.933444
 51
206.038709
  6
CONTINUOUS
  0
ARC
  8
WHITE
 10
4.055869
 20
2.071054
 30
0.000000
 40
0.428778
 50
167.720015
 51
180.421863
  6
CONTINUOUS
  0
ARC
  8
WHITE
 10
3.936405
 20
2.096683
 30
0.000000
 40
0.306597
 50
151.761461
 51
167.651635
  6
CONTINUOUS
  0
LINE
  8
WHITE
 10
3.666298
 20
2.241748
 30
0.000000
 11
3.781987
 21
2.255656
 31
0.000000
  6
CONTINUOUS
  0
ARC
  8
WHITE
 10
3.906647
 20
2.157092
 30
0.000000
 40
0.158917
 50
141.667865
 51
166.505500
  6
CONTINUOUS
  0
ARC
  8
WHITE
 10
4.088635
 20
2.111515
 30
0.000000
 40
0.346522
 50
166.199329
 51
180.940324
  6
CONTINUOUS
  0
ARC
  8
WHITE
 10
4.131630
 20
2.103031
 30
0.000000
 40
0.389480
 50
179.588477
 51
192.569491
  6
CONTINUOUS
  0
ARC
  8
WHITE
 10
4.030495
 20
2.080937
 30
0.000000
 40
0.285961
 50
-167.341404
 51
-151.386276
  6
CONTINUOUS
  0
ARC
  8
WHITE
 10
3.928933
 20
2.020725
 30
0.000000
 40
0.168021
 50
-152.825556
 51
-123.693807
  6
CONTINUOUS
  0
ARC
  8
WHITE
 10
3.909516
 20
1.999773
 30
0.000000
 40
0.139891
 50
-121.836979
 51
-88.893511
  6
CONTINUOUS
  0
ARC
  8
WHITE
 10
3.915276
 20
1.918374
 30
0.000000
 40
0.058545
 50
-92.994752
 51
-57.936337
  6
CONTINUOUS
  0
ARC
  8
WHITE
 10
1.881246
 20
3.477482
 30
0.000000
 40
0.146553
 50
-50.762348
 51
6.514506
  6
CONTINUOUS
  0
ARC
  8
WHITE
 10
1.886395
 20
3.541109
 30
0.000000
 40
0.197592
 50
-106.137703
 51
-63.698633
  6
CONTINUOUS
  0
ARC
  8
WHITE
 10
1.590973
 20
3.537904
 30
0.000000
 40
0.304403
 50
-37.807325
 51
1.519745
  6
CONTINUOUS
  0
ARC
  8
WHITE
 10
1.811399
 20
3.534501
 30
0.000000
 40
0.084652
 50
7.791997
 51
78.624398
  6
CONTINUOUS
  0
ARC
  8
WHITE
 10
1.824786
 20
3.372089
 30
0.000000
 40
0.245422
 50
89.227181
 51
113.650801
  6
CONTINUOUS
  0
LINE
  8
WHITE
 10
1.726332
 20
3.596898
 30
0.000000
 11
1.761641
 21
3.666732
 31
0.000000
  6
CONTINUOUS
  0
ARC
  8
WHITE
 10
1.844478
 20
3.503958
 30
0.000000
 40
0.182640
 50
-3.091207
 51
116.972001
  6
CONTINUOUS
  0
ARC
  8
WHITE
 10
9.478103
 20
4.163332
 30
0.000000
 40
0.331703
 50
151.728024
 51
207.342248
  6
CONTINUOUS
  0
ARC
  8
WHITE
 10
9.307135
 20
4.064182
 30
0.000000
 40
0.134634
 50
-156.723793
 51
-71.803870
  6
CONTINUOUS
  0
ARC
  8
WHITE
 10
9.279108
 20
3.968826
 30
0.000000
 40
0.077258
 50
-85.366281
 51
-24.913345
  6
CONTINUOUS
  0
ARC
  8
WHITE
 10
9.273168
 20
4.128007
 30
0.000000
 40
0.236501
 50
-156.024691
 51
-87.047665
  6
CONTINUOUS
  0
ARC
  8
WHITE
 10
9.357128
 20
4.154311
 30
0.000000
 40
0.324063
 50
151.962717
 51
202.192514
  6
CONTINUOUS
  0
LINE
  8
WHITE
 10
9.071097
 20
4.306636
 30
0.000000
 11
9.185970
 21
4.320446
 31
0.000000
  6
CONTINUOUS
  0
ARC
  8
WHITE
 10
10.549093
 20
4.190470
 30
0.000000
 40
0.278873
 50
-164.611825
 51
-117.395190
  6
CONTINUOUS
  0
ARC
  8
WHITE
 10
10.632739
 20
4.178471
 30
0.000000
 40
0.357932
 50
153.190936
 51
189.975166
  6
CONTINUOUS
  0
LINE
  8
WHITE
 10
10.313280
 20
4.339905
 30
0.000000
 11
10.428152
 21
4.353715
 31
0.000000
  6
CONTINUOUS
  0
ARC
  8
WHITE
 10
10.602137
 20
4.230878
 30
0.000000
 40
0.212978
 50
144.777000
 51
179.996325
  6
CONTINUOUS
  0
ARC
  8
WHITE
 10
10.736071
 20
4.201888
 30
0.000000
 40
0.348122
 50
175.220921
 51
207.548529
  6
CONTINUOUS
  0
ARC
  8
WHITE
 10
10.549207
 20
4.096728
 30
0.000000
 40
0.133981
 50
-155.365940
 51
-71.662259
  6
CONTINUOUS
  0
ARC
  8
WHITE
 10
10.517381
 20
4.006179
 30
0.000000
 40
0.082550
 50
-92.726057
 51
-26.341322
  6
CONTINUOUS
  0
ARC
  8
WHITE
 10
10.505797
 20
4.120501
 30
0.000000
 40
0.196928
 50
-115.577515
 51
-87.771235
  6
CONTINUOUS
  0
ARC
  8
WHITE
 10
11.057862
 20
4.230878
 30
0.000000
 40
0.212978
 50
144.777000
 51
179.996325
  6
CONTINUOUS
  0
ARC
  8
WHITE
 10
11.191796
 20
4.201888
 30
0.000000
 40
0.348122
 50
175.220921
 51
207.548529
  6
CONTINUOUS
  0
ARC
  8
WHITE
 10
11.004931
 20
4.096728
 30
0.000000
 40
0.133981
 50
-155.365940
 51
-71.662259
  6
CONTINUOUS
  0
ARC
  8
WHITE
 10
10.977015
 20
4.002095
 30
0.000000
 40
0.077258
 50
-85.366281
 51
-24.913345
  6
CONTINUOUS
  0
ARC
  8
WHITE
 10
10.971075
 20
4.161276
 30
0.000000
 40
0.236501
 50
-156.024691
 51
-87.047665
  6
CONTINUOUS
  0
ARC
  8
WHITE
 10
11.055036
 20
4.187581
 30
0.000000
 40
0.324063
 50
151.962717
 51
202.192514
  6
CONTINUOUS
  0
LINE
  8
WHITE
 10
10.769004
 20
4.339905
 30
0.000000
 11
10.883877
 21
4.353715
 31
0.000000
  6
CONTINUOUS
  0
ARC
  8
WHITE
 10
1.920484
 20
1.515332
 30
0.000000
 40
0.748511
 50
24.924871
 51
69.242306
  6
CONTINUOUS
  0
LINE
  8
WHITE
 10
2.599279
 20
1.830776
 30
0.000000
 11
2.469028
 21
1.801744
 31
0.000000
  6
CONTINUOUS
  0
ARC
  8
WHITE
 10
2.249686
 20
1.796124
 30
0.000000
 40
0.219413
 50
1.467734
 51
29.432965
  6
CONTINUOUS
  0
ARC
  8
WHITE
 10
1.751003
 20
1.457810
 30
0.000000
 40
0.821480
 50
32.894036
 51
60.402361
  6
CONTINUOUS
  0
LINE
  8
WHITE
 10
2.156737
 20
2.172099
 30
0.000000
 11
2.185769
 21
2.215255
 31
0.000000
  6
CONTINUOUS
  0
ARC
  8
WHITE
 10
2.737609
 20
7.786791
 30
0.000000
 40
0.748511
 50
24.924871
 51
69.242306
  6
CONTINUOUS
  0
LINE
  8
WHITE
 10
3.416404
 20
8.102236
 30
0.000000
 11
3.286152
 21
8.073204
 31
0.000000
  6
CONTINUOUS
  0
ARC
  8
WHITE
 10
2.942526
 20
8.029153
 30
0.000000
 40
0.346438
 50
7.305163
 51
48.715856
  6
CONTINUOUS
  0
ARC
  8
WHITE
 10
2.451255
 20
7.571248
 30
0.000000
 40
1.016879
 50
44.935670
 51
59.073917
  6
CONTINUOUS
  0
LINE
  8
WHITE
 10
2.973862
 20
8.443558
 30
0.000000
 11
3.002894
 21
8.486714
 31
0.000000
  6
CONTINUOUS
  0
ARC
  8
WHITE
 10
10.179200
 20
2.955571
 30
0.000000
 40
0.748510
 50
24.924866
 51
69.242311
  6
CONTINUOUS
  0
LINE
  8
WHITE
 10
10.857996
 20
3.271016
 30
0.000000
 11
10.727744
 21
3.241984
 31
0.000000
  6
CONTINUOUS
  0
ARC
  8
WHITE
 10
10.384118
 20
3.197933
 30
0.000000
 40
0.346438
 50
7.305163
 51
48.715856
  6
CONTINUOUS
  0
ARC
  8
WHITE
 10
9.892847
 20
2.740028
 30
0.000000
 40
1.016879
 50
44.935670
 51
59.073917
  6
CONTINUOUS
  0
LINE
  8
WHITE
 10
10.415453
 20
3.612338
 30
0.000000
 11
10.444485
 21
3.655494
 31
0.000000
  6
CONTINUOUS
  0
ARC
  8
WHITE
 10
1.650128
 20
5.962732
 30
0.000000
 40
0.309192
 50
86.908728
 51
125.262659
  6
CONTINUOUS
  0
ARC
  8
WHITE
 10
1.669672
 20
6.108309
 30
0.000000
 40
0.163191
 50
36.851940
 51
91.007872
  6
CONTINUOUS
  0
ARC
  8
WHITE
 10
1.644050
 20
6.169438
 30
0.000000
 40
0.160469
 50
-69.365839
 51
13.237343
  6
CONTINUOUS
  0
ARC
  8
WHITE
 10
1.463127
 20
6.555239
 30
0.000000
 40
0.586228
 50
-88.862787
 51
-66.103513
  6
CONTINUOUS
  0
LINE
  8
WHITE
 10
1.474761
 20
5.969126
 30
0.000000
 11
1.471623
 21
6.015577
 31
0.000000
  6
CONTINUOUS
  0
ARC
  8
WHITE
 10
1.488745
 20
6.297567
 30
0.000000
 40
0.282509
 50
-93.474656
 51
-61.966535
  6
CONTINUOUS
  0
ARC
  8
WHITE
 10
1.567744
 20
6.155465
 30
0.000000
 40
0.119987
 50
-63.372661
 51
10.709147
  6
CONTINUOUS
  0
ARC
  8
WHITE
 10
1.579948
 20
6.042810
 30
0.000000
 40
0.171415
 50
51.932183
 51
127.853081
  6
CONTINUOUS
  0
LINE
  8
WHITE
 10
1.474761
 20
6.178157
 30
0.000000
 11
1.471623
 21
6.215192
 31
0.000000
  6
CONTINUOUS
  0
LINE
  8
WHITE
 10
7.006703
 20
0.990818
 30
0.000000
 11
6.367945
 21
0.990818
 31
0.000000
  6
CONTINUOUS
  0
LINE
  8
WHITE
 10
6.367945
 20
0.990818
 30
0.000000
 11
6.367945
 21
1.062816
 31
0.000000
  6
CONTINUOUS
  0
LINE
  8
WHITE
 10
6.367945
 20
1.062816
 30
0.000000
 11
7.006703
 21
1.062816
 31
0.000000
  6
CONTINUOUS
  0
LINE
  8
WHITE
 10
7.006703
 20
1.062816
 30
0.000000
 11
7.006703
 21
0.990818
 31
0.000000
  6
CONTINUOUS
  0
ARC
  8
WHITE
 10
1.441722
 20
8.231332
 30
0.000000
 40
0.146856
 50
119.803382
 51
171.295833
  6
CONTINUOUS
  0
ARC
  8
WHITE
 10
1.377679
 20
8.258257
 30
0.000000
 40
0.081258
 50
-176.683616
 51
-83.570996
  6
CONTINUOUS
  0
ARC
  8
WHITE
 10
1.229021
 20
8.339348
 30
0.000000
 40
0.226006
 50
-80.528763
 51
-45.731661
  6
CONTINUOUS
  0
ARC
  8
WHITE
 10
1.284910
 20
8.262211
 30
0.000000
 40
0.146982
 50
-177.526351
 51
-97.308974
  6
CONTINUOUS
  0
ARC
  8
WHITE
 10
1.339289
 20
8.235223
 30
0.000000
 40
0.202280
 50
115.621657
 51
174.142464
  6
CONTINUOUS
  0
LINE
  8
WHITE
 10
1.251818
 20
8.417613
 30
0.000000
 11
1.368731
 21
8.358765
 31
0.000000
  6
CONTINUOUS
  0
ARC
  8
WHITE
 10
8.842557
 20
9.372038
 30
0.000000
 40
1.046357
 50
146.757748
 51
173.186113
  6
CONTINUOUS
  0
LINE
  8
WHITE
 10
7.803591
 20
9.496183
 30
0.000000
 11
7.686207
 21
9.528824
 31
0.000000
  6
CONTINUOUS
  0
ARC
  8
WHITE
 10
8.488152
 20
9.358389
 30
0.000000
 40
0.819856
 50
134.753007
 51
168.001599
  6
CONTINUOUS
  0
LINE
  8
WHITE
 10
7.910931
 20
9.940609
 30
0.000000
 11
7.967426
 21
9.945630
 31
0.000000
  6
CONTINUOUS
  0
ARC
  8
WHITE
 10
2.415640
 20
5.894545
 30
0.000000
 40
1.070878
 50
159.020018
 51
180.610859
  6
CONTINUOUS
  0
LINE
  8
WHITE
 10
1.415756
 20
6.277964
 30
0.000000
 11
1.452791
 21
6.246578
 31
0.000000
  6
CONTINUOUS
  0
ARC
  8
WHITE
 10
1.952590
 20
6.078756
 30
0.000000
 40
0.527222
 50
161.439007
 51
186.776361
  6
CONTINUOUS
  0
ARC
  8
WHITE
 10
2.462407
 20
6.090416
 30
0.000000
 40
1.035993
 50
-175.911197
 51
-163.011215
  6
CONTINUOUS
  0
LINE
  8
WHITE
 10
1.471623
 20
5.787715
 30
0.000000
 11
1.359261
 21
5.722432
 31
0.000000
  6
CONTINUOUS
  0
ARC
  8
WHITE
 10
2.211011
 20
5.879953
 30
0.000000
 40
0.866193
 50
179.789971
 51
190.477797
  6
CONTINUOUS
  0
CIRCLE
  8
WHITE
 10
6.000198
 20
6.000198
 30
0.000000
 40
0.113774
  6
CONTINUOUS
  0
ARC
  8
WHITE
 10
8.803007
 20
4.000044
 30
0.000000
 40
0.217577
 50
29.962514
 51
121.851388
  6
CONTINUOUS
  0
ARC
  8
WHITE
 10
8.845438
 20
4.068587
 30
0.000000
 40
0.151477
 50
-50.983914
 51
15.359539
  6
CONTINUOUS
  0
ARC
  8
WHITE
 10
8.769900
 20
4.140192
 30
0.000000
 40
0.255031
 50
-87.343910
 51
-47.924244
  6
CONTINUOUS
  0
ARC
  8
WHITE
 10
8.680650
 20
4.056374
 30
0.000000
 40
0.198582
 50
-59.406158
 51
6.719283
  6
CONTINUOUS
  0
ARC
  8
WHITE
 10
8.757281
 20
4.033922
 30
0.000000
 40
0.128952
 50
20.750603
 51
122.398553
  6
CONTINUOUS
  0
LINE
  8
WHITE
 10
8.688188
 20
4.142801
 30
0.000000
 11
8.688188
 21
4.184858
 31
0.000000
  6
CONTINUOUS
  0
ARC
  8
WHITE
 10
9.334926
 20
1.792562
 30
0.000000
 40
0.197220
 50
-59.363369
 51
7.175288
  6
CONTINUOUS
  0
ARC
  8
WHITE
 10
9.412167
 20
1.776629
 30
0.000000
 40
0.125189
 50
18.907768
 51
124.146595
  6
CONTINUOUS
  0
LINE
  8
WHITE
 10
9.341897
 20
1.880236
 30
0.000000
 11
9.341897
 21
1.922293
 31
0.000000
  6
CONTINUOUS
  0
ARC
  8
WHITE
 10
9.456716
 20
1.737479
 30
0.000000
 40
0.217577
 50
29.962514
 51
121.851388
  6
CONTINUOUS
  0
ARC
  8
WHITE
 10
9.499147
 20
1.806022
 30
0.000000
 40
0.151477
 50
-50.983914
 51
15.359539
  6
CONTINUOUS
  0
ARC
  8
WHITE
 10
9.423609
 20
1.877627
 30
0.000000
 40
0.255031
 50
-87.343910
 51
-47.924244
  6
CONTINUOUS
  0
ARC
  8
WHITE
 10
4.032811
 20
1.844604
 30
0.000000
 40
0.630167
 50
179.413146
 51
185.168074
  6
CONTINUOUS
  0
ARC
  8
WHITE
 10
4.718645
 20
1.851532
 30
0.000000
 40
1.315968
 50
162.808698
 51
180.020627
  6
CONTINUOUS
  0
LINE
  8
WHITE
 10
3.461470
 20
2.240484
 30
0.000000
 11
3.513309
 21
2.268932
 31
0.000000
  6
CONTINUOUS
  0
ARC
  8
WHITE
 10
4.993117
 20
2.100624
 30
0.000000
 40
1.489349
 50
173.511266
 51
180.505072
  6
CONTINUOUS
  0
ARC
  8
WHITE
 10
4.948936
 20
2.075519
 30
0.000000
 40
1.445159
 50
179.525199
 51
190.333592
  6
CONTINUOUS
  0
LINE
  8
WHITE
 10
3.527217
 20
1.816288
 30
0.000000
 11
3.405206
 21
1.787840
 31
0.000000
  6
CONTINUOUS
  0
ARC
  8
WHITE
 10
4.567320
 20
6.015842
 30
0.000000
 40
1.588194
 50
173.621616
 51
189.898246
  6
CONTINUOUS
  0
LINE
  8
WHITE
 10
3.002767
 20
5.742833
 30
0.000000
 11
2.881617
 21
5.714586
 31
0.000000
  6
CONTINUOUS
  0
ARC
  8
WHITE
 10
4.154837
 20
5.784518
 30
0.000000
 40
1.275140
 50
162.684914
 51
183.143851
  6
CONTINUOUS
  0
LINE
  8
WHITE
 10
2.937484
 20
6.164033
 30
0.000000
 11
2.988957
 21
6.192281
 31
0.000000
  6
CONTINUOUS
  0
ARC
  8
WHITE
 10
10.127874
 20
10.304579
 30
0.000000
 40
1.275140
 50
162.684914
 51
183.143851
  6
CONTINUOUS
  0
LINE
  8
WHITE
 10
8.910520
 20
10.684094
 30
0.000000
 11
8.961993
 21
10.712341
 31
0.000000
  6
CONTINUOUS
  0
ARC
  8
WHITE
 10
10.540356
 20
10.535903
 30
0.000000
 40
1.588194
 50
173.621616
 51
189.898246
  6
CONTINUOUS
  0
LINE
  8
WHITE
 10
8.975803
 20
10.262894
 30
0.000000
 11
8.854653
 21
10.234646
 31
0.000000
  6
CONTINUOUS
  0
ARC
  8
WHITE
 10
10.541980
 20
9.796184
 30
0.000000
 40
1.588194
 50
173.621616
 51
189.898246
  6
CONTINUOUS
  0
LINE
  8
WHITE
 10
8.977427
 20
9.523175
 30
0.000000
 11
8.856277
 21
9.494927
 31
0.000000
  6
CONTINUOUS
  0
ARC
  8
WHITE
 10
10.129498
 20
9.564860
 30
0.000000
 40
1.275140
 50
162.684914
 51
183.143851
  6
CONTINUOUS
  0
LINE
  8
WHITE
 10
8.912144
 20
9.944375
 30
0.000000
 11
8.963617
 21
9.972622
 31
0.000000
  6
CONTINUOUS
  0
ARC
  8
WHITE
 10
3.345400
 20
6.043136
 30
0.000000
 40
0.834791
 50
165.383293
 51
199.979734
  6
CONTINUOUS
  0
LINE
  8
WHITE
 10
2.560852
 20
5.757898
 30
0.000000
 11
2.453512
 21
5.715841
 31
0.000000
  6
CONTINUOUS
  0
ARC
  8
WHITE
 10
3.563293
 20
5.908736
 30
0.000000
 40
1.126421
 50
161.422079
 51
189.860268
  6
CONTINUOUS
  0
LINE
  8
WHITE
 10
2.495569
 20
6.267607
 30
0.000000
 11
2.537626
 21
6.253797
 31
0.000000
  6
CONTINUOUS
  0
ARC
  8
WHITE
 10
6.501413
 20
1.332053
 30
0.000000
 40
1.126421
 50
161.422079
 51
189.860268
  6
CONTINUOUS
  0
LINE
  8
WHITE
 10
5.433688
 20
1.690924
 30
0.000000
 11
5.475745
 21
1.677114
 31
0.000000
  6
CONTINUOUS
  0
ARC
  8
WHITE
 10
6.283513
 20
1.466453
 30
0.000000
 40
0.834785
 50
165.383161
 51
199.979866
  6
CONTINUOUS
  0
LINE
  8
WHITE
 10
5.498971
 20
1.181215
 30
0.000000
 11
5.391631
 21
1.139158
 31
0.000000
  6
CONTINUOUS
  0
ARC
  8
WHITE
 10
11.231607
 20
4.083352
 30
0.000000
 40
1.126421
 50
161.422079
 51
189.860268
  6
CONTINUOUS
  0
LINE
  8
WHITE
 10
10.163882
 20
4.442223
 30
0.000000
 11
10.205939
 21
4.428414
 31
0.000000
  6
CONTINUOUS
  0
ARC
  8
WHITE
 10
11.013707
 20
4.217752
 30
0.000000
 40
0.834785
 50
165.383161
 51
199.979866
  6
CONTINUOUS
  0
LINE
  8
WHITE
 10
10.229165
 20
3.932515
 30
0.000000
 11
10.121825
 21
3.890457
 31
0.000000
  6
CONTINUOUS
  0
ARC
  8
WHITE
 10
11.663233
 20
5.917210
 30
0.000000
 40
1.126421
 50
161.422079
 51
189.860268
  6
CONTINUOUS
  0
LINE
  8
WHITE
 10
10.595508
 20
6.276081
 30
0.000000
 11
10.637566
 21
6.262271
 31
0.000000
  6
CONTINUOUS
  0
ARC
  8
WHITE
 10
11.445333
 20
6.051610
 30
0.000000
 40
0.834785
 50
165.383161
 51
199.979866
  6
CONTINUOUS
  0
LINE
  8
WHITE
 10
10.660791
 20
5.766373
 30
0.000000
 11
10.553451
 21
5.724315
 31
0.000000
  6
CONTINUOUS
  0
ARC
  8
WHITE
 10
4.019829
 20
9.785493
 30
0.000000
 40
0.408406
 50
63.403977
 51
117.083644
  6
CONTINUOUS
  0
LINE
  8
WHITE
 10
4.202672
 20
10.150684
 30
0.000000
 11
4.118714
 21
10.036909
 31
0.000000
  6
CONTINUOUS
  0
ARC
  8
WHITE
 10
3.959208
 20
9.799721
 30
0.000000
 40
0.285832
 50
56.079690
 51
88.326792
  6
CONTINUOUS
  0
ARC
  8
WHITE
 10
3.917100
 20
9.394946
 30
0.000000
 40
0.692327
 50
85.820778
 51
99.133096
  6
CONTINUOUS
  0
LINE
  8
WHITE
 10
3.807208
 20
10.078496
 30
0.000000
 11
3.833886
 21
10.149114
 31
0.000000
  6
CONTINUOUS
  0
ARC
  8
WHITE
 10
2.327156
 20
7.676896
 30
0.000000
 40
0.436601
 50
61.301556
 51
103.490251
  6
CONTINUOUS
  0
LINE
  8
WHITE
 10
2.225305
 20
8.101451
 30
0.000000
 11
2.251983
 21
8.172070
 31
0.000000
  6
CONTINUOUS
  0
ARC
  8
WHITE
 10
2.437927
 20
7.808448
 30
0.000000
 40
0.408406
 50
63.403977
 51
117.083644
  6
CONTINUOUS
  0
LINE
  8
WHITE
 10
2.620769
 20
8.173639
 30
0.000000
 11
2.536811
 21
8.059865
 31
0.000000
  6
CONTINUOUS
  0
ARC
  8
WHITE
 10
8.743722
 20
3.977600
 30
0.000000
 40
0.348943
 50
60.996447
 51
100.727156
  6
CONTINUOUS
  0
LINE
  8
WHITE
 10
8.678772
 20
4.320446
 30
0.000000
 11
8.646131
 21
4.118948
 31
0.000000
  6
CONTINUOUS
  0
LINE
  8
WHITE
 10
8.646131
 20
4.118948
 30
0.000000
 11
8.599679
 21
4.091328
 31
0.000000
  6
CONTINUOUS
  0
LINE
  8
WHITE
 10
8.599679
 20
4.091328
 30
0.000000
 11
8.632321
 21
4.362503
 31
0.000000
  6
CONTINUOUS
  0
ARC
  8
WHITE
 10
8.813899
 20
3.974121
 30
0.000000
 40
0.428732
 50
68.101574
 51
115.057320
  6
CONTINUOUS
  0
LINE
  8
WHITE
 10
8.973800
 20
4.371919
 30
0.000000
 11
8.912912
 21
4.282783
 31
0.000000
  6
CONTINUOUS
  0
ARC
  8
WHITE
 10
9.467609
 20
1.711556
 30
0.000000
 40
0.428732
 50
68.101574
 51
115.057320
  6
CONTINUOUS
  0
LINE
  8
WHITE
 10
9.627510
 20
2.109354
 30
0.000000
 11
9.566621
 21
2.020218
 31
0.000000
  6
CONTINUOUS
  0
ARC
  8
WHITE
 10
9.397431
 20
1.715035
 30
0.000000
 40
0.348943
 50
60.996447
 51
100.727156
  6
CONTINUOUS
  0
LINE
  8
WHITE
 10
9.332481
 20
2.057881
 30
0.000000
 11
9.299840
 21
1.856383
 31
0.000000
  6
CONTINUOUS
  0
LINE
  8
WHITE
 10
9.299840
 20
1.856383
 30
0.000000
 11
9.253388
 21
1.828763
 31
0.000000
  6
CONTINUOUS
  0
LINE
  8
WHITE
 10
9.253388
 20
1.828763
 30
0.000000
 11
9.286030
 21
2.099938
 31
0.000000
  6
CONTINUOUS
  0
ARC
  8
WHITE
 10
1.502916
 20
8.652341
 30
0.000000
 40
0.095019
 50
3.943419
 51
61.927165
  6
CONTINUOUS
  0
ARC
  8
WHITE
 10
1.410641
 20
8.652060
 30
0.000000
 40
0.187193
 50
-41.883504
 51
2.086680
  6
CONTINUOUS
  0
ARC
  8
WHITE
 10
1.534582
 20
8.548573
 30
0.000000
 40
0.026449
 50
-133.321669
 51
-54.326792
  6
CONTINUOUS
  0
ARC
  8
WHITE
 10
4.183728
 20
13.571119
 30
0.000000
 40
5.703865
 50
-118.967129
 51
-117.880494
  6
CONTINUOUS
  0
ARC
  8
WHITE
 10
1.354578
 20
8.649252
 30
0.000000
 40
0.095577
 50
-45.723529
 51
9.444364
  6
CONTINUOUS
  0
ARC
  8
WHITE
 10
1.362502
 20
8.589545
 30
0.000000
 40
0.114635
 50
41.120858
 51
86.885428
  6
CONTINUOUS
  0
ARC
  8
WHITE
 10
1.443565
 20
8.682827
 30
0.000000
 40
0.077775
 50
87.248056
 51
164.194603
  6
CONTINUOUS
  0
ARC
  8
WHITE
 10
1.451568
 20
8.559082
 30
0.000000
 40
0.201475
 50
61.523446
 51
91.214003
  6
CONTINUOUS
  0
ARC
  8
WHITE
 10
6.934638
 20
1.345397
 30
0.000000
 40
0.168748
 50
-18.526666
 51
41.534374
  6
CONTINUOUS
  0
ARC
  8
WHITE
 10
6.991576
 20
1.337706
 30
0.000000
 40
0.112835
 50
-113.776972
 51
-24.018838
  6
CONTINUOUS
  0
ARC
  8
WHITE
 10
6.753680
 20
1.383730
 30
0.000000
 40
0.243525
 50
-37.807232
 51
1.519360
  6
CONTINUOUS
  0
ARC
  8
WHITE
 10
6.930022
 20
1.381006
 30
0.000000
 40
0.067722
 50
7.791629
 51
78.622942
  6
CONTINUOUS
  0
ARC
  8
WHITE
 10
6.940612
 20
1.251668
 30
0.000000
 40
0.195748
 50
89.189380
 51
113.688029
  6
CONTINUOUS
  0
LINE
  8
WHITE
 10
6.861968
 20
1.430924
 30
0.000000
 11
6.890216
 21
1.486791
 31
0.000000
  6
CONTINUOUS
  0
ARC
  8
WHITE
 10
6.956301
 20
1.360435
 30
0.000000
 40
0.142594
 50
42.782958
 51
117.609907
  6
CONTINUOUS
  0
ARC
  8
WHITE
 10
8.199003
 20
9.733482
 30
0.000000
 40
0.242130
 50
-37.728096
 51
1.705723
  6
CONTINUOUS
  0
ARC
  8
WHITE
 10
8.375194
 20
9.733228
 30
0.000000
 40
0.066253
 50
6.466559
 51
79.021662
  6
CONTINUOUS
  0
ARC
  8
WHITE
 10
8.385034
 20
9.602551
 30
0.000000
 40
0.195736
 50
89.187047
 51
113.688436
  6
CONTINUOUS
  0
LINE
  8
WHITE
 10
8.306394
 20
9.781796
 30
0.000000
 11
8.334642
 21
9.837663
 31
0.000000
  6
CONTINUOUS
  0
ARC
  8
WHITE
 10
8.401209
 20
9.709398
 30
0.000000
 40
0.144510
 50
10.071807
 51
117.428381
  6
CONTINUOUS
  0
ARC
  8
WHITE
 10
8.391461
 20
9.698540
 30
0.000000
 40
0.156264
 50
-35.944287
 51
13.368255
  6
CONTINUOUS
  0
ARC
  8
WHITE
 10
8.434397
 20
9.713736
 30
0.000000
 40
0.135710
 50
-108.868337
 51
-51.987781
  6
CONTINUOUS
  0
ARC
  8
WHITE
 10
9.744015
 20
5.932837
 30
0.000000
 40
0.148042
 50
-1.894833
 51
89.103940
  6
CONTINUOUS
  0
ARC
  8
WHITE
 10
9.774661
 20
5.914223
 30
0.000000
 40
0.118114
 50
-50.385052
 51
6.669676
  6
CONTINUOUS
  0
ARC
  8
WHITE
 10
9.779771
 20
5.961264
 30
0.000000
 40
0.154856
 50
-106.550726
 51
-63.041923
  6
CONTINUOUS
  0
ARC
  8
WHITE
 10
9.543255
 20
5.962106
 30
0.000000
 40
0.243525
 50
-37.807233
 51
1.519360
  6
CONTINUOUS
  0
ARC
  8
WHITE
 10
9.719598
 20
5.959382
 30
0.000000
 40
0.067722
 50
7.791630
 51
78.622942
  6
CONTINUOUS
  0
ARC
  8
WHITE
 10
9.730187
 20
5.830044
 30
0.000000
 40
0.195748
 50
89.189380
 51
113.688028
  6
CONTINUOUS
  0
LINE
  8
WHITE
 10
9.651544
 20
6.009300
 30
0.000000
 11
9.679792
 21
6.065167
 31
0.000000
  6
CONTINUOUS
  0
ARC
  8
WHITE
 10
9.747718
 20
5.926068
 30
0.000000
 40
0.154799
 50
90.513727
 51
116.027561
  6
CONTINUOUS
  0
ARC
  8
WHITE
 10
5.595972
 20
11.312122
 30
0.000000
 40
0.116999
 50
-50.844267
 51
6.545264
  6
CONTINUOUS
  0
ARC
  8
WHITE
 10
5.600022
 20
11.360149
 30
0.000000
 40
0.155332
 50
-106.499518
 51
-63.286213
  6
CONTINUOUS
  0
ARC
  8
WHITE
 10
5.363503
 20
11.360495
 30
0.000000
 40
0.243525
 50
-37.807233
 51
1.519359
  6
CONTINUOUS
  0
ARC
  8
WHITE
 10
5.539845
 20
11.357771
 30
0.000000
 40
0.067722
 50
7.791629
 51
78.622942
  6
CONTINUOUS
  0
ARC
  8
WHITE
 10
5.550435
 20
11.228434
 30
0.000000
 40
0.195748
 50
89.189380
 51
113.688028
  6
CONTINUOUS
  0
LINE
  8
WHITE
 10
5.471792
 20
11.407690
 30
0.000000
 11
5.500039
 21
11.463557
 31
0.000000
  6
CONTINUOUS
  0
ARC
  8
WHITE
 10
5.566309
 20
11.333338
 30
0.000000
 40
0.146112
 50
-3.091207
 51
116.972001
  6
CONTINUOUS
  0
ARC
  8
WHITE
 10
8.428950
 20
10.425947
 30
0.000000
 40
0.116999
 50
-50.844267
 51
6.545264
  6
CONTINUOUS
  0
ARC
  8
WHITE
 10
8.433000
 20
10.473974
 30
0.000000
 40
0.155332
 50
-106.499518
 51
-63.286213
  6
CONTINUOUS
  0
ARC
  8
WHITE
 10
8.196482
 20
10.474320
 30
0.000000
 40
0.243525
 50
-37.807232
 51
1.519360
  6
CONTINUOUS
  0
ARC
  8
WHITE
 10
8.372824
 20
10.471596
 30
0.000000
 40
0.067722
 50
7.791630
 51
78.622942
  6
CONTINUOUS
  0
ARC
  8
WHITE
 10
8.383414
 20
10.342258
 30
0.000000
 40
0.195748
 50
89.189380
 51
113.688029
  6
CONTINUOUS
  0
LINE
  8
WHITE
 10
8.304770
 20
10.521514
 30
0.000000
 11
8.333018
 21
10.577382
 31
0.000000
  6
CONTINUOUS
  0
ARC
  8
WHITE
 10
8.399288
 20
10.447162
 30
0.000000
 40
0.146112
 50
-3.091207
 51
116.972001
  6
CONTINUOUS
  0
ARC
  8
WHITE
 10
9.348874
 20
5.913732
 30
0.000000
 40
0.116999
 50
-50.844267
 51
6.545264
  6
CONTINUOUS
  0
ARC
  8
WHITE
 10
9.352924
 20
5.961760
 30
0.000000
 40
0.155332
 50
-106.499518
 51
-63.286213
  6
CONTINUOUS
  0
ARC
  8
WHITE
 10
9.116406
 20
5.962106
 30
0.000000
 40
0.243525
 50
-37.807233
 51
1.519360
  6
CONTINUOUS
  0
ARC
  8
WHITE
 10
9.292748
 20
5.959382
 30
0.000000
 40
0.067722
 50
7.791630
 51
78.622942
  6
CONTINUOUS
  0
ARC
  8
WHITE
 10
9.303338
 20
5.830044
 30
0.000000
 40
0.195748
 50
89.189380
 51
113.688028
  6
CONTINUOUS
  0
LINE
  8
WHITE
 10
9.224694
 20
6.009300
 30
0.000000
 11
9.252942
 21
6.065167
 31
0.000000
  6
CONTINUOUS
  0
ARC
  8
WHITE
 10
9.319212
 20
5.934948
 30
0.000000
 40
0.146112
 50
-3.091207
 51
116.972001
  6
CONTINUOUS
  0
ARC
  8
WHITE
 10
10.889824
 20
6.033501
 30
0.000000
 40
0.051343
 50
-124.318554
 51
-24.989861
  6
CONTINUOUS
  0
ARC
  8
WHITE
 10
10.269749
 20
6.032418
 30
0.000000
 40
0.666930
 50
-7.015705
 51
-1.770633
  6
CONTINUOUS
  0
ARC
  8
WHITE
 10
10.870695
 20
5.974823
 30
0.000000
 40
0.065493
 50
-114.206003
 51
-21.369294
  6
CONTINUOUS
  0
ARC
  8
WHITE
 10
10.865442
 20
6.057374
 30
0.000000
 40
0.143916
 50
-162.381113
 51
-98.632185
  6
CONTINUOUS
  0
ARC
  8
WHITE
 10
11.026438
 20
6.053654
 30
0.000000
 40
0.300812
 50
157.117168
 51
187.611014
  6
CONTINUOUS
  0
ARC
  8
WHITE
 10
10.845068
 20
5.940479
 30
0.000000
 40
0.249276
 50
87.194737
 51
112.593105
  6
CONTINUOUS
  0
ARC
  8
WHITE
 10
10.981954
 20
6.092512
 30
0.000000
 40
0.157939
 50
142.134826
 51
219.950075
  6
CONTINUOUS
  0
ARC
  8
WHITE
 10
6.460529
 20
1.485124
 30
0.000000
 40
0.151640
 50
-154.221349
 51
-87.504287
  6
CONTINUOUS
  0
ARC
  8
WHITE
 10
6.582399
 20
1.482550
 30
0.000000
 40
0.266076
 50
155.800065
 51
193.779112
  6
CONTINUOUS
  0
ARC
  8
WHITE
 10
6.435473
 20
1.361475
 30
0.000000
 40
0.249276
 50
87.194737
 51
112.593105
  6
CONTINUOUS
  0
ARC
  8
WHITE
 10
6.593672
 20
1.507259
 30
0.000000
 40
0.178786
 50
144.746867
 51
193.402806
  6
CONTINUOUS
  0
ARC
  8
WHITE
 10
6.504452
 20
1.480971
 30
0.000000
 40
0.086043
 50
-169.855681
 51
-119.352116
  6
CONTINUOUS
  0
ARC
  8
WHITE
 10
6.478969
 20
1.456770
 30
0.000000
 40
0.053467
 50
-108.191487
 51
-26.625746
  6
CONTINUOUS
  0
ARC
  8
WHITE
 10
6.047392
 20
1.442508
 30
0.000000
 40
0.479472
 50
-9.214287
 51
-1.159261
  6
CONTINUOUS
  0
ARC
  8
WHITE
 10
6.473841
 20
1.383143
 30
0.000000
 40
0.049968
 50
-97.715646
 51
-20.393221
  6
CONTINUOUS
  0
ARC
  8
WHITE
 10
4.591815
 20
2.095189
 30
0.000000
 40
0.116326
 50
-39.294134
 51
8.733922
  6
CONTINUOUS
  0
ARC
  8
WHITE
 10
4.637514
 20
2.163979
 30
0.000000
 40
0.149197
 50
-147.205969
 51
-72.716270
  6
CONTINUOUS
  0
ARC
  8
WHITE
 10
4.732665
 20
2.168637
 30
0.000000
 40
0.236549
 50
154.179680
 51
201.180186
  6
CONTINUOUS
  0
ARC
  8
WHITE
 10
4.615500
 20
2.041520
 30
0.000000
 40
0.249276
 50
87.194737
 51
112.593105
  6
CONTINUOUS
  0
ARC
  8
WHITE
 10
4.773699
 20
2.187304
 30
0.000000
 40
0.178786
 50
144.746867
 51
193.402807
  6
CONTINUOUS
  0
ARC
  8
WHITE
 10
4.684479
 20
2.161016
 30
0.000000
 40
0.086043
 50
-169.855681
 51
-119.352116
  6
CONTINUOUS
  0
ARC
  8
WHITE
 10
4.658995
 20
2.136815
 30
0.000000
 40
0.053467
 50
-108.191486
 51
-26.625747
  6
CONTINUOUS
  0
ARC
  8
WHITE
 10
5.533119
 20
0.558416
 30
0.000000
 40
0.657184
 50
32.894036
 51
60.402361
  6
CONTINUOUS
  0
LINE
  8
WHITE
 10
5.857706
 20
1.129848
 30
0.000000
 11
5.880932
 21
1.164372
 31
0.000000
  6
CONTINUOUS
  0
ARC
  8
WHITE
 10
5.668709
 20
0.604439
 30
0.000000
 40
0.598802
 50
24.924623
 51
69.242554
  6
CONTINUOUS
  0
LINE
  8
WHITE
 10
6.211740
 20
0.856790
 30
0.000000
 11
6.107538
 21
0.833564
 31
0.000000
  6
CONTINUOUS
  0
ARC
  8
WHITE
 10
5.932066
 20
0.829068
 30
0.000000
 40
0.175531
 50
1.467734
 51
29.432965
  6
CONTINUOUS
  0
ARC
  8
WHITE
 10
5.816705
 20
11.197141
 30
0.000000
 40
0.277150
 50
7.305163
 51
48.715856
  6
CONTINUOUS
  0
ARC
  8
WHITE
 10
5.423688
 20
10.830818
 30
0.000000
 40
0.813503
 50
44.935670
 51
59.073917
  6
CONTINUOUS
  0
LINE
  8
WHITE
 10
5.841773
 20
11.528666
 30
0.000000
 11
5.864999
 21
11.563190
 31
0.000000
  6
CONTINUOUS
  0
ARC
  8
WHITE
 10
5.652776
 20
11.003257
 30
0.000000
 40
0.598802
 50
24.924623
 51
69.242554
  6
CONTINUOUS
  0
LINE
  8
WHITE
 10
6.195807
 20
11.255608
 30
0.000000
 11
6.091606
 21
11.232382
 31
0.000000
  6
CONTINUOUS
  0
ARC
  8
WHITE
 10
7.771301
 20
1.590141
 30
0.000000
 40
0.277150
 50
7.305163
 51
48.715856
  6
CONTINUOUS
  0
ARC
  8
WHITE
 10
7.378284
 20
1.223817
 30
0.000000
 40
0.813503
 50
44.935670
 51
59.073917
  6
CONTINUOUS
  0
LINE
  8
WHITE
 10
7.796369
 20
1.921666
 30
0.000000
 11
7.819595
 21
1.956190
 31
0.000000
  6
CONTINUOUS
  0
ARC
  8
WHITE
 10
7.607372
 20
1.396257
 30
0.000000
 40
0.598802
 50
24.924623
 51
69.242554
  6
CONTINUOUS
  0
LINE
  8
WHITE
 10
8.150403
 20
1.648607
 30
0.000000
 11
8.046202
 21
1.625382
 31
0.000000
  6
CONTINUOUS
  0
ARC
  8
WHITE
 10
5.468037
 20
0.463748
 30
0.000000
 40
0.117485
 50
119.803381
 51
171.295832
  6
CONTINUOUS
  0
ARC
  8
WHITE
 10
5.416803
 20
0.485288
 30
0.000000
 40
0.065006
 50
-176.683616
 51
-83.570996
  6
CONTINUOUS
  0
ARC
  8
WHITE
 10
5.298356
 20
0.549213
 30
0.000000
 40
0.179792
 50
-80.629270
 51
-45.630304
  6
CONTINUOUS
  0
ARC
  8
WHITE
 10
5.342588
 20
0.488451
 30
0.000000
 40
0.117585
 50
-177.526311
 51
-97.308059
  6
CONTINUOUS
  0
ARC
  8
WHITE
 10
5.387191
 20
0.466088
 30
0.000000
 40
0.162998
 50
115.852569
 51
173.911620
  6
CONTINUOUS
  0
LINE
  8
WHITE
 10
5.316114
 20
0.612773
 30
0.000000
 11
5.409644
 21
0.565694
 31
0.000000
  6
CONTINUOUS
  0
ARC
  8
WHITE
 10
7.822696
 20
10.347381
 30
0.000000
 40
0.117485
 50
119.803382
 51
171.295833
  6
CONTINUOUS
  0
ARC
  8
WHITE
 10
7.771462
 20
10.368921
 30
0.000000
 40
0.065006
 50
-176.683615
 51
-83.570997
  6
CONTINUOUS
  0
ARC
  8
WHITE
 10
7.653015
 20
10.432846
 30
0.000000
 40
0.179792
 50
-80.629270
 51
-45.630305
  6
CONTINUOUS
  0
ARC
  8
WHITE
 10
7.697246
 20
10.372084
 30
0.000000
 40
0.117585
 50
-177.526310
 51
-97.308059
  6
CONTINUOUS
  0
ARC
  8
WHITE
 10
7.741849
 20
10.349721
 30
0.000000
 40
0.162998
 50
115.852569
 51
173.911620
  6
CONTINUOUS
  0
LINE
  8
WHITE
 10
7.670773
 20
10.496406
 30
0.000000
 11
7.764303
 21
10.449327
 31
0.000000
  6
CONTINUOUS
  0
ARC
  8
WHITE
 10
11.310015
 20
5.856813
 30
0.000000
 40
0.064499
 50
-174.371352
 51
-83.436925
  6
CONTINUOUS
  0
ARC
  8
WHITE
 10
11.191661
 20
5.921260
 30
0.000000
 40
0.179792
 50
-80.629270
 51
-45.630305
  6
CONTINUOUS
  0
ARC
  8
WHITE
 10
11.235892
 20
5.860497
 30
0.000000
 40
0.117585
 50
-177.526310
 51
-97.308059
  6
CONTINUOUS
  0
ARC
  8
WHITE
 10
11.280495
 20
5.838134
 30
0.000000
 40
0.162998
 50
115.852569
 51
173.911620
  6
CONTINUOUS
  0
LINE
  8
WHITE
 10
11.209419
 20
5.984819
 30
0.000000
 11
11.302949
 21
5.937740
 31
0.000000
  6
CONTINUOUS
  0
ARC
  8
WHITE
 10
11.355271
 20
5.841162
 30
0.000000
 40
0.109841
 50
118.446683
 51
175.129684
  6
CONTINUOUS
  0
ARC
  8
WHITE
 10
2.525971
 20
8.313298
 30
0.000000
 40
0.366683
 50
102.630347
 51
147.511570
  6
CONTINUOUS
  0
LINE
  8
WHITE
 10
2.216674
 20
8.510254
 30
0.000000
 11
2.153902
 21
8.642860
 31
0.000000
  6
CONTINUOUS
  0
ARC
  8
WHITE
 10
2.350928
 20
8.451798
 30
0.000000
 40
0.274452
 50
87.722451
 51
135.880368
  6
CONTINUOUS
  0
LINE
  8
WHITE
 10
2.361835
 20
8.726033
 30
0.000000
 11
2.445792
 21
8.671107
 31
0.000000
  6
CONTINUOUS
  0
ARC
  8
WHITE
 10
4.108283
 20
10.289759
 30
0.000000
 40
0.367341
 50
102.672768
 51
147.469149
  6
CONTINUOUS
  0
LINE
  8
WHITE
 10
3.798577
 20
10.487299
 30
0.000000
 11
3.735805
 21
10.619904
 31
0.000000
  6
CONTINUOUS
  0
ARC
  8
WHITE
 10
3.932830
 20
10.428842
 30
0.000000
 40
0.274452
 50
87.722451
 51
135.880368
  6
CONTINUOUS
  0
LINE
  8
WHITE
 10
3.943737
 20
10.703077
 30
0.000000
 11
4.027695
 21
10.648152
 31
0.000000
  6
CONTINUOUS
  0
LINE
  8
WHITE
 10
5.235771
 20
0.990818
 30
0.000000
 11
5.235771
 21
1.059124
 31
0.000000
  6
CONTINUOUS
  0
LINE
  8
WHITE
 10
5.235771
 20
1.059124
 30
0.000000
 11
5.630841
 21
1.059124
 31
0.000000
  6
CONTINUOUS
  0
LINE
  8
WHITE
 10
5.630841
 20
1.059124
 30
0.000000
 11
5.630841
 21
0.990818
 31
0.000000
  6
CONTINUOUS
  0
LINE
  8
WHITE
 10
5.630841
 20
0.990818
 30
0.000000
 11
5.235771
 21
0.990818
 31
0.000000
  6
CONTINUOUS
  0
ARC
  8
WHITE
 10
7.946761
 20
9.453866
 30
0.000000
 40
0.516857
 50
85.128732
 51
127.135408
  6
CONTINUOUS
  0
LINE
  8
WHITE
 10
7.634734
 20
9.865910
 30
0.000000
 11
7.677419
 21
9.997104
 31
0.000000
  6
CONTINUOUS
  0
ARC
  8
WHITE
 10
7.884045
 20
9.405214
 30
0.000000
 40
0.626919
 50
76.695601
 51
109.243896
  6
CONTINUOUS
  0
LINE
  8
WHITE
 10
8.028314
 20
10.015307
 30
0.000000
 11
7.990651
 21
9.968856
 31
0.000000
  6
CONTINUOUS
  0
CIRCLE
  8
WHITE
 10
0.147301
 20
6.000198
 30
0.000000
 40
0.091094
  6
CONTINUOUS
  0
CIRCLE
  8
WHITE
 10
0.931441
 20
3.073750
 30
0.000000
 40
0.091094
  6
CONTINUOUS
  0
CIRCLE
  8
WHITE
 10
0.931441
 20
8.926647
 30
0.000000
 40
0.091094
  6
CONTINUOUS
  0
CIRCLE
  8
WHITE
 10
3.073750
 20
0.931441
 30
0.000000
 40
0.091094
  6
CONTINUOUS
  0
CIRCLE
  8
WHITE
 10
3.073750
 20
11.068956
 30
0.000000
 40
0.091094
  6
CONTINUOUS
  0
CIRCLE
  8
WHITE
 10
6.000198
 20
0.147301
 30
0.000000
 40
0.091094
  6
CONTINUOUS
  0
CIRCLE
  8
WHITE
 10
6.000198
 20
11.853095
 30
0.000000
 40
0.091094
  6
CONTINUOUS
  0
CIRCLE
  8
WHITE
 10
8.926647
 20
0.931441
 30
0.000000
 40
0.091094
  6
CONTINUOUS
  0
CIRCLE
  8
WHITE
 10
8.926647
 20
11.068956
 30
0.000000
 40
0.091094
  6
CONTINUOUS
  0
CIRCLE
  8
WHITE
 10
11.068956
 20
3.073750
 30
0.000000
 40
0.091094
  6
CONTINUOUS
  0
CIRCLE
  8
WHITE
 10
11.068956
 20
8.926647
 30
0.000000
 40
0.091094
  6
CONTINUOUS
  0
CIRCLE
  8
WHITE
 10
11.853095
 20
6.000198
 30
0.000000
 40
0.091094
  6
CONTINUOUS
  0
ARC
  8
WHITE
 10
2.966369
 20
1.147038
 30
0.000000
 40
1.123090
 50
127.575863
 51
140.967543
  6
CONTINUOUS
  0
LINE
  8
WHITE
 10
2.281496
 20
2.037139
 30
0.000000
 11
2.330144
 21
1.984568
 31
0.000000
  6
CONTINUOUS
  0
LINE
  8
WHITE
 10
2.330144
 20
1.984568
 30
0.000000
 11
2.199893
 21
1.782128
 31
0.000000
  6
CONTINUOUS
  0
LINE
  8
WHITE
 10
2.199893
 20
1.782128
 30
0.000000
 11
2.093965
 21
1.854316
 31
0.000000
  6
CONTINUOUS
  0
ARC
  8
WHITE
 10
3.783494
 20
7.418497
 30
0.000000
 40
1.123090
 50
127.575863
 51
140.967543
  6
CONTINUOUS
  0
LINE
  8
WHITE
 10
3.098621
 20
8.308599
 30
0.000000
 11
3.147269
 21
8.256027
 31
0.000000
  6
CONTINUOUS
  0
LINE
  8
WHITE
 10
3.147269
 20
8.256027
 30
0.000000
 11
3.017017
 21
8.053587
 31
0.000000
  6
CONTINUOUS
  0
LINE
  8
WHITE
 10
3.017017
 20
8.053587
 30
0.000000
 11
2.911090
 21
8.125775
 31
0.000000
  6
CONTINUOUS
  0
ARC
  8
WHITE
 10
11.225086
 20
2.587277
 30
0.000000
 40
1.123090
 50
127.575863
 51
140.967543
  6
CONTINUOUS
  0
LINE
  8
WHITE
 10
10.540212
 20
3.477379
 30
0.000000
 11
10.588861
 21
3.424807
 31
0.000000
  6
CONTINUOUS
  0
LINE
  8
WHITE
 10
10.588861
 20
3.424807
 30
0.000000
 11
10.458609
 21
3.222367
 31
0.000000
  6
CONTINUOUS
  0
LINE
  8
WHITE
 10
10.458609
 20
3.222367
 30
0.000000
 11
10.352681
 21
3.294555
 31
0.000000
  6
CONTINUOUS
  0
ARC
  8
WHITE
 10
2.671595
 20
5.881120
 30
0.000000
 40
0.862883
 50
165.972189
 51
186.465902
  6
CONTINUOUS
  0
LINE
  8
WHITE
 10
1.834445
 20
6.090276
 30
0.000000
 11
1.877130
 21
6.082744
 31
0.000000
  6
CONTINUOUS
  0
ARC
  8
WHITE
 10
2.311076
 20
6.005847
 30
0.000000
 40
0.440707
 50
169.951370
 51
209.292137
  6
CONTINUOUS
  0
LINE
  8
WHITE
 10
1.926720
 20
5.790226
 30
0.000000
 11
1.834445
 21
5.728082
 31
0.000000
  6
CONTINUOUS
  0
ARC
  8
WHITE
 10
1.978351
 20
5.811829
 30
0.000000
 40
0.166500
 50
-170.360634
 51
-149.802430
  6
CONTINUOUS
  0
ARC
  8
WHITE
 10
6.409675
 20
10.808924
 30
0.000000
 40
0.362788
 50
62.122207
 51
102.669599
  6
CONTINUOUS
  0
LINE
  8
WHITE
 10
6.330105
 20
11.162879
 30
0.000000
 11
6.351448
 21
11.219374
 31
0.000000
  6
CONTINUOUS
  0
ARC
  8
WHITE
 10
6.500203
 20
10.928477
 30
0.000000
 40
0.326725
 50
63.403977
 51
117.083644
  6
CONTINUOUS
  0
LINE
  8
WHITE
 10
6.646476
 20
11.220629
 30
0.000000
 11
6.579310
 21
11.129610
 31
0.000000
  6
CONTINUOUS
  0
ARC
  8
WHITE
 10
8.973902
 20
1.281471
 30
0.000000
 40
0.362788
 50
62.122207
 51
102.669599
  6
CONTINUOUS
  0
LINE
  8
WHITE
 10
8.894333
 20
1.635425
 30
0.000000
 11
8.915675
 21
1.691920
 31
0.000000
  6
CONTINUOUS
  0
ARC
  8
WHITE
 10
9.064430
 20
1.401023
 30
0.000000
 40
0.326725
 50
63.403977
 51
117.083644
  6
CONTINUOUS
  0
LINE
  8
WHITE
 10
9.210704
 20
1.693175
 30
0.000000
 11
9.143537
 21
1.602156
 31
0.000000
  6
CONTINUOUS
  0
ARC
  8
WHITE
 10
8.884842
 20
2.664196
 30
0.000000
 40
0.496752
 50
78.402608
 51
99.632035
  6
CONTINUOUS
  0
LINE
  8
WHITE
 10
8.801725
 20
3.153946
 30
0.000000
 11
8.823067
 21
3.210441
 31
0.000000
  6
CONTINUOUS
  0
ARC
  8
WHITE
 10
8.971822
 20
2.919544
 30
0.000000
 40
0.326725
 50
63.403977
 51
117.083644
  6
CONTINUOUS
  0
LINE
  8
WHITE
 10
9.118096
 20
3.211696
 30
0.000000
 11
9.050930
 21
3.120677
 31
0.000000
  6
CONTINUOUS
  0
ARC
  8
WHITE
 10
8.944404
 20
2.974384
 30
0.000000
 40
0.180967
 50
53.938894
 51
77.132286
  6
CONTINUOUS
  0
ARC
  8
WHITE
 10
6.689546
 20
0.073961
 30
0.000000
 40
0.349281
 50
61.301556
 51
103.490251
  6
CONTINUOUS
  0
LINE
  8
WHITE
 10
6.608066
 20
0.413606
 30
0.000000
 11
6.629409
 21
0.470101
 31
0.000000
  6
CONTINUOUS
  0
ARC
  8
WHITE
 10
6.778163
 20
0.179203
 30
0.000000
 40
0.326725
 50
63.403977
 51
117.083644
  6
CONTINUOUS
  0
LINE
  8
WHITE
 10
6.924437
 20
0.471356
 30
0.000000
 11
6.857271
 21
0.380337
 31
0.000000
  6
CONTINUOUS
  0
ARC
  8
WHITE
 10
5.398322
 20
0.798084
 30
0.000000
 40
0.076461
 50
-45.723530
 51
9.444363
  6
CONTINUOUS
  0
ARC
  8
WHITE
 10
5.404662
 20
0.750319
 30
0.000000
 40
0.091708
 50
41.120858
 51
86.885428
  6
CONTINUOUS
  0
ARC
  8
WHITE
 10
5.480979
 20
0.813467
 30
0.000000
 40
0.076789
 50
63.821270
 51
158.275203
  6
CONTINUOUS
  0
ARC
  8
WHITE
 10
5.506716
 20
0.796538
 30
0.000000
 40
0.086227
 50
0.521254
 51
84.582362
  6
CONTINUOUS
  0
ARC
  8
WHITE
 10
5.430441
 20
0.802849
 30
0.000000
 40
0.162592
 50
-23.867071
 51
-1.947746
  6
CONTINUOUS
  0
ARC
  8
WHITE
 10
5.484669
 20
0.770967
 30
0.000000
 40
0.100360
 50
-39.997416
 51
-19.745168
  6
CONTINUOUS
  0
ARC
  8
WHITE
 10
5.540237
 20
0.723557
 30
0.000000
 40
0.027324
 50
-87.423800
 51
-38.732142
  6
CONTINUOUS
  0
ARC
  8
WHITE
 10
5.598385
 20
0.847084
 30
0.000000
 40
0.161207
 50
-120.392279
 51
-110.675987
  6
CONTINUOUS
  0
ARC
  8
WHITE
 10
7.310960
 20
4.094922
 30
0.000000
 40
3.832747
 50
-119.018897
 51
-117.911428
  6
CONTINUOUS
  0
ARC
  8
WHITE
 10
7.752981
 20
10.681716
 30
0.000000
 40
0.076461
 50
-45.723529
 51
9.444364
  6
CONTINUOUS
  0
ARC
  8
WHITE
 10
7.759321
 20
10.633951
 30
0.000000
 40
0.091708
 50
41.120858
 51
86.885428
  6
CONTINUOUS
  0
ARC
  8
WHITE
 10
7.835638
 20
10.697100
 30
0.000000
 40
0.076789
 50
63.821269
 51
158.275203
  6
CONTINUOUS
  0
ARC
  8
WHITE
 10
7.861375
 20
10.680171
 30
0.000000
 40
0.086227
 50
0.521255
 51
84.582362
  6
CONTINUOUS
  0
ARC
  8
WHITE
 10
7.785100
 20
10.686482
 30
0.000000
 40
0.162592
 50
-23.867072
 51
-1.947746
  6
CONTINUOUS
  0
ARC
  8
WHITE
 10
7.839328
 20
10.654600
 30
0.000000
 40
0.100360
 50
-39.997416
 51
-19.745168
  6
CONTINUOUS
  0
ARC
  8
WHITE
 10
7.894896
 20
10.607189
 30
0.000000
 40
0.027324
 50
-87.423798
 51
-38.732143
  6
CONTINUOUS
  0
ARC
  8
WHITE
 10
7.953044
 20
10.730716
 30
0.000000
 40
0.161207
 50
-120.392280
 51
-110.675987
  6
CONTINUOUS
  0
ARC
  8
WHITE
 10
9.665619
 20
13.978554
 30
0.000000
 40
3.832747
 50
-119.018897
 51
-117.911428
  6
CONTINUOUS
  0
ARC
  8
WHITE
 10
11.291627
 20
6.170130
 30
0.000000
 40
0.076461
 50
-45.723530
 51
9.444364
  6
CONTINUOUS
  0
ARC
  8
WHITE
 10
11.297966
 20
6.122365
 30
0.000000
 40
0.091708
 50
41.120858
 51
86.885428
  6
CONTINUOUS
  0
ARC
  8
WHITE
 10
11.362646
 20
6.197110
 30
0.000000
 40
0.062023
 50
90.058620
 51
164.257974
  6
CONTINUOUS
  0
ARC
  8
WHITE
 10
11.364531
 20
6.054968
 30
0.000000
 40
0.204174
 50
77.455497
 51
90.546712
  6
CONTINUOUS
  0
ARC
  8
WHITE
 10
11.380708
 20
6.127796
 30
0.000000
 40
0.129571
 50
59.705710
 51
77.443703
  6
CONTINUOUS
  0
ARC
  8
WHITE
 10
11.410297
 20
6.172602
 30
0.000000
 40
0.076015
 50
-2.437402
 51
61.927165
  6
CONTINUOUS
  0
ARC
  8
WHITE
 10
11.323745
 20
6.174895
 30
0.000000
 40
0.162592
 50
-23.867072
 51
-1.947746
  6
CONTINUOUS
  0
ARC
  8
WHITE
 10
11.377974
 20
6.143013
 30
0.000000
 40
0.100360
 50
-39.997416
 51
-19.745168
  6
CONTINUOUS
  0
ARC
  8
WHITE
 10
11.433542
 20
6.095603
 30
0.000000
 40
0.027324
 50
-87.423800
 51
-38.732144
  6
CONTINUOUS
  0
ARC
  8
WHITE
 10
11.491690
 20
6.219130
 30
0.000000
 40
0.161207
 50
-120.392279
 51
-110.675987
  6
CONTINUOUS
  0
ARC
  8
WHITE
 10
13.204264
 20
9.466968
 30
0.000000
 40
3.832747
 50
-119.018897
 51
-117.911428
  6
CONTINUOUS
  0
ARC
  8
WHITE
 10
6.570638
 20
11.332356
 30
0.000000
 40
0.293346
 50
102.630347
 51
147.511569
  6
CONTINUOUS
  0
LINE
  8
WHITE
 10
6.323201
 20
11.489921
 30
0.000000
 11
6.272983
 21
11.596006
 31
0.000000
  6
CONTINUOUS
  0
ARC
  8
WHITE
 10
6.430603
 20
11.443156
 30
0.000000
 40
0.219561
 50
87.722451
 51
135.880368
  6
CONTINUOUS
  0
LINE
  8
WHITE
 10
6.439329
 20
11.662544
 30
0.000000
 11
6.506495
 21
11.618604
 31
0.000000
  6
CONTINUOUS
  0
ARC
  8
WHITE
 10
6.848599
 20
0.583083
 30
0.000000
 40
0.293346
 50
102.630347
 51
147.511570
  6
CONTINUOUS
  0
LINE
  8
WHITE
 10
6.601161
 20
0.740648
 30
0.000000
 11
6.550944
 21
0.846733
 31
0.000000
  6
CONTINUOUS
  0
ARC
  8
WHITE
 10
6.708564
 20
0.693883
 30
0.000000
 40
0.219561
 50
87.722451
 51
135.880368
  6
CONTINUOUS
  0
LINE
  8
WHITE
 10
6.717289
 20
0.913271
 30
0.000000
 11
6.784455
 21
0.869331
 31
0.000000
  6
CONTINUOUS
  0
ARC
  8
WHITE
 10
9.042257
 20
3.323423
 30
0.000000
 40
0.293346
 50
102.630347
 51
147.511570
  6
CONTINUOUS
  0
LINE
  8
WHITE
 10
8.794820
 20
3.480988
 30
0.000000
 11
8.744602
 21
3.587073
 31
0.000000
  6
CONTINUOUS
  0
ARC
  8
WHITE
 10
8.902223
 20
3.434223
 30
0.000000
 40
0.219561
 50
87.722451
 51
135.880368
  6
CONTINUOUS
  0
LINE
  8
WHITE
 10
8.910948
 20
3.653611
 30
0.000000
 11
8.978114
 21
3.609671
 31
0.000000
  6
CONTINUOUS
  0
ARC
  8
WHITE
 10
9.134865
 20
1.804903
 30
0.000000
 40
0.293346
 50
102.630347
 51
147.511570
  6
CONTINUOUS
  0
LINE
  8
WHITE
 10
8.887428
 20
1.962467
 30
0.000000
 11
8.837210
 21
2.068552
 31
0.000000
  6
CONTINUOUS
  0
ARC
  8
WHITE
 10
8.994830
 20
1.915702
 30
0.000000
 40
0.219561
 50
87.722451
 51
135.880368
  6
CONTINUOUS
  0
LINE
  8
WHITE
 10
9.003556
 20
2.135090
 30
0.000000
 11
9.070722
 21
2.091150
 31
0.000000
  6
CONTINUOUS
  0
ARC
  8
WHITE
 10
6.489479
 20
10.708617
 30
0.000000
 40
0.898472
 50
127.575863
 51
140.967543
  6
CONTINUOUS
  0
LINE
  8
WHITE
 10
5.941581
 20
11.420698
 30
0.000000
 11
5.980499
 21
11.378641
 31
0.000000
  6
CONTINUOUS
  0
LINE
  8
WHITE
 10
5.980499
 20
11.378641
 30
0.000000
 11
5.876298
 21
11.216689
 31
0.000000
  6
CONTINUOUS
  0
LINE
  8
WHITE
 10
5.876298
 20
11.216689
 30
0.000000
 11
5.791555
 21
11.274439
 31
0.000000
  6
CONTINUOUS
  0
ARC
  8
WHITE
 10
6.505412
 20
0.309799
 30
0.000000
 40
0.898472
 50
127.575863
 51
140.967543
  6
CONTINUOUS
  0
LINE
  8
WHITE
 10
5.957513
 20
1.021880
 30
0.000000
 11
5.996432
 21
0.979823
 31
0.000000
  6
CONTINUOUS
  0
LINE
  8
WHITE
 10
5.996432
 20
0.979823
 30
0.000000
 11
5.892230
 21
0.817871
 31
0.000000
  6
CONTINUOUS
  0
LINE
  8
WHITE
 10
5.892230
 20
0.817871
 30
0.000000
 11
5.807488
 21
0.875621
 31
0.000000
  6
CONTINUOUS
  0
ARC
  8
WHITE
 10
8.444075
 20
1.101616
 30
0.000000
 40
0.898472
 50
127.575863
 51
140.967543
  6
CONTINUOUS
  0
LINE
  8
WHITE
 10
7.896177
 20
1.813698
 30
0.000000
 11
7.935095
 21
1.771640
 31
0.000000
  6
CONTINUOUS
  0
LINE
  8
WHITE
 10
7.935095
 20
1.771640
 30
0.000000
 11
7.830894
 21
1.609689
 31
0.000000
  6
CONTINUOUS
  0
LINE
  8
WHITE
 10
7.830894
 20
1.609689
 30
0.000000
 11
7.746152
 21
1.667439
 31
0.000000
  6
CONTINUOUS
  0
ARC
  8
WHITE
 10
1.072645
 20
7.655036
 30
0.000000
 40
0.688940
 50
88.933208
 51
107.611342
  6
CONTINUOUS
  0
LINE
  8
WHITE
 10
0.864201
 20
8.311686
 30
0.000000
 11
0.864985
 21
8.401920
 31
0.000000
  6
CONTINUOUS
  0
LINE
  8
WHITE
 10
0.864985
 20
8.401920
 30
0.000000
 11
1.093318
 21
8.409767
 31
0.000000
  6
CONTINUOUS
  0
LINE
  8
WHITE
 10
1.093318
 20
8.409767
 30
0.000000
 11
1.085472
 21
8.343856
 31
0.000000
  6
CONTINUOUS
  0
ARC
  8
WHITE
 10
1.967902
 20
7.581045
 30
0.000000
 40
0.688940
 50
88.933208
 51
107.611342
  6
CONTINUOUS
  0
LINE
  8
WHITE
 10
1.759458
 20
8.237695
 30
0.000000
 11
1.760242
 21
8.327930
 31
0.000000
  6
CONTINUOUS
  0
LINE
  8
WHITE
 10
1.760242
 20
8.327930
 30
0.000000
 11
1.988576
 21
8.335776
 31
0.000000
  6
CONTINUOUS
  0
LINE
  8
WHITE
 10
1.988576
 20
8.335776
 30
0.000000
 11
1.980729
 21
8.269866
 31
0.000000
  6
CONTINUOUS
  0
ARC
  8
WHITE
 10
1.969406
 20
7.740438
 30
0.000000
 40
0.688940
 50
88.933208
 51
107.611342
  6
CONTINUOUS
  0
LINE
  8
WHITE
 10
1.760961
 20
8.397088
 30
0.000000
 11
1.761746
 21
8.487323
 31
0.000000
  6
CONTINUOUS
  0
LINE
  8
WHITE
 10
1.761746
 20
8.487323
 30
0.000000
 11
1.990079
 21
8.495169
 31
0.000000
  6
CONTINUOUS
  0
LINE
  8
WHITE
 10
1.990079
 20
8.495169
 30
0.000000
 11
1.982232
 21
8.429259
 31
0.000000
  6
CONTINUOUS
  0
ARC
  8
WHITE
 10
2.230825
 20
5.298837
 30
0.000000
 40
0.688940
 50
88.933208
 51
107.611342
  6
CONTINUOUS
  0
LINE
  8
WHITE
 10
2.022381
 20
5.955486
 30
0.000000
 11
2.023165
 21
6.045721
 31
0.000000
  6
CONTINUOUS
  0
LINE
  8
WHITE
 10
2.023165
 20
6.045721
 30
0.000000
 11
2.251499
 21
6.053568
 31
0.000000
  6
CONTINUOUS
  0
LINE
  8
WHITE
 10
2.251499
 20
6.053568
 30
0.000000
 11
2.243652
 21
5.987657
 31
0.000000
  6
CONTINUOUS
  0
ARC
  8
WHITE
 10
2.852753
 20
7.613501
 30
0.000000
 40
0.688940
 50
88.933208
 51
107.611342
  6
CONTINUOUS
  0
LINE
  8
WHITE
 10
2.644309
 20
8.270151
 30
0.000000
 11
2.645093
 21
8.360386
 31
0.000000
  6
CONTINUOUS
  0
LINE
  8
WHITE
 10
2.645093
 20
8.360386
 30
0.000000
 11
2.873426
 21
8.368232
 31
0.000000
  6
CONTINUOUS
  0
LINE
  8
WHITE
 10
2.873426
 20
8.368232
 30
0.000000
 11
2.865580
 21
8.302321
 31
0.000000
  6
CONTINUOUS
  0
ARC
  8
WHITE
 10
3.032365
 20
1.395258
 30
0.000000
 40
0.688940
 50
88.933208
 51
107.611342
  6
CONTINUOUS
  0
LINE
  8
WHITE
 10
2.823920
 20
2.051908
 30
0.000000
 11
2.824705
 21
2.142142
 31
0.000000
  6
CONTINUOUS
  0
LINE
  8
WHITE
 10
2.824705
 20
2.142142
 30
0.000000
 11
3.053038
 21
2.149989
 31
0.000000
  6
CONTINUOUS
  0
LINE
  8
WHITE
 10
3.053038
 20
2.149989
 30
0.000000
 11
3.045191
 21
2.084078
 31
0.000000
  6
CONTINUOUS
  0
ARC
  8
WHITE
 10
4.347115
 20
1.526445
 30
0.000000
 40
0.688940
 50
88.933208
 51
107.611342
  6
CONTINUOUS
  0
LINE
  8
WHITE
 10
4.138671
 20
2.183094
 30
0.000000
 11
4.139455
 21
2.273329
 31
0.000000
  6
CONTINUOUS
  0
LINE
  8
WHITE
 10
4.139455
 20
2.273329
 30
0.000000
 11
4.367788
 21
2.281176
 31
0.000000
  6
CONTINUOUS
  0
LINE
  8
WHITE
 10
4.367788
 20
2.281176
 30
0.000000
 11
4.359942
 21
2.215265
 31
0.000000
  6
CONTINUOUS
  0
ARC
  8
WHITE
 10
4.349189
 20
1.407164
 30
0.000000
 40
0.688940
 50
88.933208
 51
107.611342
  6
CONTINUOUS
  0
LINE
  8
WHITE
 10
4.140744
 20
2.063814
 30
0.000000
 11
4.141529
 21
2.154049
 31
0.000000
  6
CONTINUOUS
  0
LINE
  8
WHITE
 10
4.141529
 20
2.154049
 30
0.000000
 11
4.369862
 21
2.161895
 31
0.000000
  6
CONTINUOUS
  0
LINE
  8
WHITE
 10
4.369862
 20
2.161895
 30
0.000000
 11
4.362016
 21
2.095985
 31
0.000000
  6
CONTINUOUS
  0
ARC
  8
WHITE
 10
7.378744
 20
9.154835
 30
0.000000
 40
0.688940
 50
88.933208
 51
107.611342
  6
CONTINUOUS
  0
LINE
  8
WHITE
 10
7.170299
 20
9.811485
 30
0.000000
 11
7.171084
 21
9.901720
 31
0.000000
  6
CONTINUOUS
  0
LINE
  8
WHITE
 10
7.171084
 20
9.901720
 30
0.000000
 11
7.399417
 21
9.909566
 31
0.000000
  6
CONTINUOUS
  0
LINE
  8
WHITE
 10
7.399417
 20
9.909566
 30
0.000000
 11
7.391570
 21
9.843656
 31
0.000000
  6
CONTINUOUS
  0
ARC
  8
WHITE
 10
8.612934
 20
1.130419
 30
0.000000
 40
0.688940
 50
88.933208
 51
107.611342
  6
CONTINUOUS
  0
LINE
  8
WHITE
 10
8.404490
 20
1.787069
 30
0.000000
 11
8.405274
 21
1.877304
 31
0.000000
  6
CONTINUOUS
  0
LINE
  8
WHITE
 10
8.405274
 20
1.877304
 30
0.000000
 11
8.633607
 21
1.885150
 31
0.000000
  6
CONTINUOUS
  0
LINE
  8
WHITE
 10
8.633607
 20
1.885150
 30
0.000000
 11
8.625761
 21
1.819240
 31
0.000000
  6
CONTINUOUS
  0
ARC
  8
WHITE
 10
8.614780
 20
1.001190
 30
0.000000
 40
0.688940
 50
88.933208
 51
107.611342
  6
CONTINUOUS
  0
LINE
  8
WHITE
 10
8.406336
 20
1.657840
 30
0.000000
 11
8.407120
 21
1.748075
 31
0.000000
  6
CONTINUOUS
  0
LINE
  8
WHITE
 10
8.407120
 20
1.748075
 30
0.000000
 11
8.635454
 21
1.755922
 31
0.000000
  6
CONTINUOUS
  0
LINE
  8
WHITE
 10
8.635454
 20
1.755922
 30
0.000000
 11
8.627607
 21
1.690011
 31
0.000000
  6
CONTINUOUS
  0
ARC
  8
WHITE
 10
9.860483
 20
3.117566
 30
0.000000
 40
0.688940
 50
88.933208
 51
107.611342
  6
CONTINUOUS
  0
LINE
  8
WHITE
 10
9.652038
 20
3.774216
 30
0.000000
 11
9.652823
 21
3.864450
 31
0.000000
  6
CONTINUOUS
  0
LINE
  8
WHITE
 10
9.652823
 20
3.864450
 30
0.000000
 11
9.881156
 21
3.872297
 31
0.000000
  6
CONTINUOUS
  0
LINE
  8
WHITE
 10
9.881156
 20
3.872297
 30
0.000000
 11
9.873310
 21
3.806386
 31
0.000000
  6
CONTINUOUS
  0
ARC
  8
WHITE
 10
9.864175
 20
2.973568
 30
0.000000
 40
0.688940
 50
88.933208
 51
107.611342
  6
CONTINUOUS
  0
LINE
  8
WHITE
 10
9.655731
 20
3.630218
 30
0.000000
 11
9.656515
 21
3.720453
 31
0.000000
  6
CONTINUOUS
  0
LINE
  8
WHITE
 10
9.656515
 20
3.720453
 30
0.000000
 11
9.884848
 21
3.728299
 31
0.000000
  6
CONTINUOUS
  0
LINE
  8
WHITE
 10
9.884848
 20
3.728299
 30
0.000000
 11
9.877002
 21
3.662389
 31
0.000000
  6
CONTINUOUS
  0
ARC
  8
WHITE
 10
8.709128
 20
4.065875
 30
0.000000
 40
0.196241
 50
-129.145991
 51
-91.898930
  6
CONTINUOUS
  0
LINE
  8
WHITE
 10
8.585242
 20
3.913683
 30
0.000000
 11
8.641737
 21
4.007213
 31
0.000000
  6
CONTINUOUS
  0
ARC
  8
WHITE
 10
8.778856
 20
4.084331
 30
0.000000
 40
0.157318
 50
-150.646094
 51
-85.523868
  6
CONTINUOUS
  0
ARC
  8
WHITE
 10
8.649484
 20
4.047888
 30
0.000000
 40
0.185903
 50
-73.389832
 51
-40.362696
  6
CONTINUOUS
  0
ARC
  8
WHITE
 10
9.432565
 20
1.821766
 30
0.000000
 40
0.157318
 50
-150.646094
 51
-85.523867
  6
CONTINUOUS
  0
ARC
  8
WHITE
 10
9.324480
 20
1.758204
 30
0.000000
 40
0.152274
 50
-81.723684
 51
-37.774018
  6
CONTINUOUS
  0
ARC
  8
WHITE
 10
9.365346
 20
1.808395
 30
0.000000
 40
0.201771
 50
-128.787063
 51
-95.387970
  6
CONTINUOUS
  0
LINE
  8
WHITE
 10
9.238951
 20
1.651118
 30
0.000000
 11
9.295446
 21
1.744648
 31
0.000000
  6
CONTINUOUS
  0
ARC
  8
WHITE
 10
0.474472
 20
5.855187
 30
0.000000
 40
0.104977
 50
-104.436267
 51
-47.342290
  6
CONTINUOUS
  0
ARC
  8
WHITE
 10
0.619369
 20
6.041916
 30
0.000000
 40
0.335311
 50
-138.570919
 51
-120.675645
  6
CONTINUOUS
  0
LINE
  8
WHITE
 10
0.367961
 20
5.820043
 30
0.000000
 11
0.433244
 21
5.918595
 31
0.000000
  6
CONTINUOUS
  0
ARC
  8
WHITE
 10
0.620597
 20
5.953111
 30
0.000000
 40
0.190506
 50
-169.561428
 51
-113.181369
  6
CONTINUOUS
  0
ARC
  8
WHITE
 10
8.308061
 20
2.125589
 30
0.000000
 40
0.034582
 50
-40.500607
 51
74.856868
  6
CONTINUOUS
  0
ARC
  8
WHITE
 10
8.319222
 20
2.101144
 30
0.000000
 40
0.057866
 50
-63.543076
 51
92.106669
  6
CONTINUOUS
  0
ARC
  8
WHITE
 10
5.338483
 20
6.829287
 30
0.000000
 40
5.646864
 50
-58.612970
 51
-57.830685
  6
CONTINUOUS
  0
ARC
  8
WHITE
 10
8.312318
 20
1.942585
 30
0.000000
 40
0.073861
 50
116.412541
 51
176.076822
  6
CONTINUOUS
  0
LINE
  8
WHITE
 10
8.238630
 20
1.947638
 30
0.000000
 11
8.223199
 21
1.939269
 31
0.000000
  6
CONTINUOUS
  0
ARC
  8
WHITE
 10
8.319331
 20
1.963141
 30
0.000000
 40
0.099052
 50
132.467243
 51
193.946044
  6
CONTINUOUS
  0
ARC
  8
WHITE
 10
7.941836
 20
2.499941
 30
0.000000
 40
0.558151
 50
-56.185056
 51
-45.311414
  6
CONTINUOUS
  0
ARC
  8
WHITE
 10
2.664490
 20
2.365399
 30
0.000000
 40
0.042732
 50
-73.459485
 51
64.431508
  6
CONTINUOUS
  0
ARC
  8
WHITE
 10
2.685060
 20
2.346119
 30
0.000000
 40
0.057866
 50
-63.543077
 51
92.106669
  6
CONTINUOUS
  0
ARC
  8
WHITE
 10
-0.295680
 20
7.074262
 30
0.000000
 40
5.646864
 50
-58.612970
 51
-57.830685
  6
CONTINUOUS
  0
ARC
  8
WHITE
 10
2.678155
 20
2.187560
 30
0.000000
 40
0.073861
 50
116.412541
 51
176.076822
  6
CONTINUOUS
  0
LINE
  8
WHITE
 10
2.604467
 20
2.192614
 30
0.000000
 11
2.589036
 21
2.184244
 31
0.000000
  6
CONTINUOUS
  0
ARC
  8
WHITE
 10
2.687383
 20
2.207852
 30
0.000000
 40
0.101141
 50
142.808427
 51
193.498225
  6
CONTINUOUS
  0
ARC
  8
WHITE
 10
3.057459
 20
1.773035
 30
0.000000
 40
0.670114
 50
124.629443
 51
132.259702
  6
CONTINUOUS
  0
ARC
  8
WHITE
 10
2.339564
 20
5.774788
 30
0.000000
 40
0.048116
 50
176.080296
 51
369.835666
  6
CONTINUOUS
  0
ARC
  8
WHITE
 10
2.338974
 20
5.786220
 30
0.000000
 40
0.048107
 50
-3.829261
 51
189.745223
  6
CONTINUOUS
  0
ARC
  8
WHITE
 10
8.064598
 20
10.301818
 30
0.000000
 40
0.048994
 50
-50.544376
 51
134.687650
  6
CONTINUOUS
  0
ARC
  8
WHITE
 10
8.061962
 20
10.299439
 30
0.000000
 40
0.048961
 50
130.533748
 51
313.609526
  6
CONTINUOUS
  0
ARC
  8
WHITE
 10
8.057858
 20
9.561074
 30
0.000000
 40
0.054455
 50
-84.654872
 51
80.756134
  6
CONTINUOUS
  0
ARC
  8
WHITE
 10
8.071578
 20
9.560607
 30
0.000000
 40
0.054443
 50
95.240954
 51
260.860307
  6
CONTINUOUS
  0
LINE
  8
WHITE
 10
2.536507
 20
2.182299
 30
0.000000
 11
2.436072
 21
2.099911
 31
0.000000
  6
CONTINUOUS
  0
LINE
  8
WHITE
 10
2.436072
 20
2.099911
 30
0.000000
 11
2.402332
 21
2.138359
 31
0.000000
  6
CONTINUOUS
  0
ARC
  8
WHITE
 10
2.859436
 20
1.556879
 30
0.000000
 40
0.739637
 50
117.109956
 51
128.171026
  6
CONTINUOUS
  0
LINE
  8
WHITE
 10
2.522384
 20
2.215255
 30
0.000000
 11
2.536507
 21
2.182299
 31
0.000000
  6
CONTINUOUS
  0
LINE
  8
WHITE
 10
3.253197
 20
8.371371
 30
0.000000
 11
3.219457
 21
8.409819
 31
0.000000
  6
CONTINUOUS
  0
ARC
  8
WHITE
 10
3.676561
 20
7.828338
 30
0.000000
 40
0.739637
 50
117.109956
 51
128.171026
  6
CONTINUOUS
  0
LINE
  8
WHITE
 10
3.339509
 20
8.486714
 30
0.000000
 11
3.353632
 21
8.453759
 31
0.000000
  6
CONTINUOUS
  0
LINE
  8
WHITE
 10
3.353632
 20
8.453759
 30
0.000000
 11
3.253197
 21
8.371371
 31
0.000000
  6
CONTINUOUS
  0
LINE
  8
WHITE
 10
10.795224
 20
3.622539
 30
0.000000
 11
10.694788
 21
3.540151
 31
0.000000
  6
CONTINUOUS
  0
LINE
  8
WHITE
 10
10.694788
 20
3.540151
 30
0.000000
 11
10.661048
 21
3.578598
 31
0.000000
  6
CONTINUOUS
  0
ARC
  8
WHITE
 10
11.118152
 20
2.997118
 30
0.000000
 40
0.739637
 50
117.109956
 51
128.171026
  6
CONTINUOUS
  0
LINE
  8
WHITE
 10
10.781100
 20
3.655494
 30
0.000000
 11
10.795224
 21
3.622539
 31
0.000000
  6
CONTINUOUS
  0
ARC
  8
WHITE
 10
1.904282
 20
6.220860
 30
0.000000
 40
0.035950
 50
162.073609
 51
264.736060
  6
CONTINUOUS
  0
ARC
  8
WHITE
 10
1.910268
 20
6.230656
 30
0.000000
 40
0.040211
 50
40.661782
 51
178.191416
  6
CONTINUOUS
  0
ARC
  8
WHITE
 10
1.895790
 20
6.234863
 30
0.000000
 40
0.050071
 50
-84.046273
 51
26.057599
  6
CONTINUOUS
  0
ARC
  8
WHITE
 10
2.565534
 20
3.676129
 30
0.000000
 40
0.197801
 50
-88.300577
 51
-61.709265
  6
CONTINUOUS
  0
LINE
  8
WHITE
 10
2.659281
 20
3.501955
 30
0.000000
 11
2.659281
 21
3.449384
 31
0.000000
  6
CONTINUOUS
  0
LINE
  8
WHITE
 10
2.659281
 20
3.449384
 30
0.000000
 11
2.571400
 21
3.425844
 31
0.000000
  6
CONTINUOUS
  0
LINE
  8
WHITE
 10
2.571400
 20
3.425844
 30
0.000000
 11
2.571400
 21
3.478416
 31
0.000000
  6
CONTINUOUS
  0
LINE
  8
WHITE
 10
10.755477
 20
8.484554
 30
0.000000
 11
10.667596
 21
8.461015
 31
0.000000
  6
CONTINUOUS
  0
LINE
  8
WHITE
 10
10.667596
 20
8.461015
 30
0.000000
 11
10.667596
 21
8.513586
 31
0.000000
  6
CONTINUOUS
  0
ARC
  8
WHITE
 10
10.661730
 20
8.711300
 30
0.000000
 40
0.197801
 50
-88.300577
 51
-61.709265
  6
CONTINUOUS
  0
LINE
  8
WHITE
 10
10.755477
 20
8.537126
 30
0.000000
 11
10.755477
 21
8.484554
 31
0.000000
  6
CONTINUOUS
  0
ARC
  8
WHITE
 10
2.650608
 20
1.990905
 30
0.000000
 40
0.206980
 50
78.402608
 51
99.632035
  6
CONTINUOUS
  0
LINE
  8
WHITE
 10
2.615976
 20
2.194968
 30
0.000000
 11
2.624868
 21
2.218507
 31
0.000000
  6
CONTINUOUS
  0
ARC
  8
WHITE
 10
2.686850
 20
2.097300
 30
0.000000
 40
0.136135
 50
63.403977
 51
117.083644
  6
CONTINUOUS
  0
LINE
  8
WHITE
 10
2.747797
 20
2.219030
 30
0.000000
 11
2.719811
 21
2.181106
 31
0.000000
  6
CONTINUOUS
  0
ARC
  8
WHITE
 10
2.675425
 20
2.120150
 30
0.000000
 40
0.075403
 50
53.938894
 51
77.132286
  6
CONTINUOUS
  0
ARC
  8
WHITE
 10
8.321012
 20
1.852325
 30
0.000000
 40
0.136135
 50
63.403977
 51
117.083644
  6
CONTINUOUS
  0
LINE
  8
WHITE
 10
8.381960
 20
1.974055
 30
0.000000
 11
8.353974
 21
1.936130
 31
0.000000
  6
CONTINUOUS
  0
ARC
  8
WHITE
 10
8.283292
 20
1.802511
 30
0.000000
 40
0.151162
 50
62.122207
 51
102.669600
  6
CONTINUOUS
  0
LINE
  8
WHITE
 10
8.250138
 20
1.949992
 30
0.000000
 11
8.259031
 21
1.973532
 31
0.000000
  6
CONTINUOUS
  0
LINE
  8
WHITE
 10
6.145590
 20
11.536826
 30
0.000000
 11
6.065241
 21
11.470916
 31
0.000000
  6
CONTINUOUS
  0
LINE
  8
WHITE
 10
6.065241
 20
11.470916
 30
0.000000
 11
6.038249
 21
11.501674
 31
0.000000
  6
CONTINUOUS
  0
ARC
  8
WHITE
 10
6.403932
 20
11.036490
 30
0.000000
 40
0.591710
 50
117.109956
 51
128.171026
  6
CONTINUOUS
  0
LINE
  8
WHITE
 10
6.134291
 20
11.563190
 30
0.000000
 11
6.145590
 21
11.536826
 31
0.000000
  6
CONTINUOUS
  0
LINE
  8
WHITE
 10
6.161522
 20
1.138008
 30
0.000000
 11
6.081174
 21
1.072098
 31
0.000000
  6
CONTINUOUS
  0
LINE
  8
WHITE
 10
6.081174
 20
1.072098
 30
0.000000
 11
6.054182
 21
1.102856
 31
0.000000
  6
CONTINUOUS
  0
ARC
  8
WHITE
 10
6.419865
 20
0.637672
 30
0.000000
 40
0.591710
 50
117.109956
 51
128.171026
  6
CONTINUOUS
  0
LINE
  8
WHITE
 10
6.150223
 20
1.164372
 30
0.000000
 11
6.161522
 21
1.138008
 31
0.000000
  6
CONTINUOUS
  0
LINE
  8
WHITE
 10
8.100186
 20
1.929826
 30
0.000000
 11
8.019838
 21
1.863915
 31
0.000000
  6
CONTINUOUS
  0
LINE
  8
WHITE
 10
8.019838
 20
1.863915
 30
0.000000
 11
7.992846
 21
1.894674
 31
0.000000
  6
CONTINUOUS
  0
ARC
  8
WHITE
 10
8.358529
 20
1.429489
 30
0.000000
 40
0.591710
 50
117.109956
 51
128.171026
  6
CONTINUOUS
  0
LINE
  8
WHITE
 10
8.088887
 20
1.956190
 30
0.000000
 11
8.100186
 21
1.929826
 31
0.000000
  6
CONTINUOUS
  0
ARC
  8
WHITE
 10
2.716197
 20
2.265584
 30
0.000000
 40
0.122227
 50
102.630276
 51
147.511640
  6
CONTINUOUS
  0
LINE
  8
WHITE
 10
2.613099
 20
2.331235
 30
0.000000
 11
2.592175
 21
2.375437
 31
0.000000
  6
CONTINUOUS
  0
ARC
  8
WHITE
 10
2.657921
 20
2.311573
 30
0.000000
 40
0.091658
 50
87.771127
 51
135.831692
  6
CONTINUOUS
  0
LINE
  8
WHITE
 10
2.661485
 20
2.403162
 30
0.000000
 11
2.689471
 21
2.384853
 31
0.000000
  6
CONTINUOUS
  0
ARC
  8
WHITE
 10
8.350360
 20
2.020608
 30
0.000000
 40
0.122227
 50
102.630276
 51
147.511640
  6
CONTINUOUS
  0
LINE
  8
WHITE
 10
8.247261
 20
2.086260
 30
0.000000
 11
8.226337
 21
2.130462
 31
0.000000
  6
CONTINUOUS
  0
ARC
  8
WHITE
 10
8.292083
 20
2.066597
 30
0.000000
 40
0.091658
 50
87.771127
 51
135.831692
  6
CONTINUOUS
  0
LINE
  8
WHITE
 10
8.295648
 20
2.158186
 30
0.000000
 11
8.323634
 21
2.139878
 31
0.000000
  6
CONTINUOUS
  0
LINE
  8
WHITE
 10
3.603079
 20
1.957897
 30
0.000000
 11
3.532275
 21
1.938932
 31
0.000000
  6
CONTINUOUS
  0
LINE
  8
WHITE
 10
3.532275
 20
1.938932
 30
0.000000
 11
3.532275
 21
1.981288
 31
0.000000
  6
CONTINUOUS
  0
ARC
  8
WHITE
 10
3.527548
 20
2.140584
 30
0.000000
 40
0.159366
 50
-88.300577
 51
-61.709265
  6
CONTINUOUS
  0
LINE
  8
WHITE
 10
3.603079
 20
2.000254
 30
0.000000
 11
3.603079
 21
1.957897
 31
0.000000
  6
CONTINUOUS
  0
ARC
  8
WHITE
 10
3.003096
 20
6.064839
 30
0.000000
 40
0.158241
 50
-88.300577
 51
-61.709265
  6
CONTINUOUS
  0
LINE
  8
WHITE
 10
3.078093
 20
5.925500
 30
0.000000
 11
3.078093
 21
5.883442
 31
0.000000
  6
CONTINUOUS
  0
LINE
  8
WHITE
 10
3.078093
 20
5.883442
 30
0.000000
 11
3.007788
 21
5.864611
 31
0.000000
  6
CONTINUOUS
  0
LINE
  8
WHITE
 10
3.007788
 20
5.864611
 30
0.000000
 11
3.007788
 21
5.906668
 31
0.000000
  6
CONTINUOUS
  0
LINE
  8
WHITE
 10
8.980825
 20
10.384671
 30
0.000000
 11
8.980825
 21
10.426729
 31
0.000000
  6
CONTINUOUS
  0
ARC
  8
WHITE
 10
8.976132
 20
10.584900
 30
0.000000
 40
0.158241
 50
-88.300577
 51
-61.709265
  6
CONTINUOUS
  0
LINE
  8
WHITE
 10
9.051130
 20
10.445560
 30
0.000000
 11
9.051130
 21
10.403503
 31
0.000000
  6
CONTINUOUS
  0
LINE
  8
WHITE
 10
9.051130
 20
10.403503
 30
0.000000
 11
8.980825
 21
10.384671
 31
0.000000
  6
CONTINUOUS
  0
LINE
  8
WHITE
 10
9.052754
 20
9.663784
 30
0.000000
 11
8.982449
 21
9.644953
 31
0.000000
  6
CONTINUOUS
  0
LINE
  8
WHITE
 10
8.982449
 20
9.644953
 30
0.000000
 11
8.982449
 21
9.687010
 31
0.000000
  6
CONTINUOUS
  0
ARC
  8
WHITE
 10
8.977756
 20
9.845181
 30
0.000000
 40
0.158241
 50
-88.300577
 51
-61.709265
  6
CONTINUOUS
  0
LINE
  8
WHITE
 10
9.052754
 20
9.705841
 30
0.000000
 11
9.052754
 21
9.663784
 31
0.000000
  6
CONTINUOUS
  0
ENDSEC
  0
EOF
